  0
SECTION
  2
HEADER
  9
$ACADVER
  1
AC1009
  9
$INSBASE
 10
8.9893152009545716
 20
21.296486637600001
 30
0.0
  9
$EXTMIN
 10
-24.0081095650002503
 20
-1.9535133636205111
 30
0.0
  9
$EXTMAX
 10
41.9918935641000033
 20
22.0243267960534013
 30
0.0
  9
$LIMMIN
 10
0.0
 20
0.0
  9
$LIMMAX
 10
22.0
 20
17.0
  9
$ORTHOMODE
 70
     1
  9
$REGENMODE
 70
     1
  9
$FILLMODE
 70
     1
  9
$QTEXTMODE
 70
     0
  9
$MIRRTEXT
 70
     0
  9
$DRAGMODE
 70
     2
  9
$LTSCALE
 40
1.2099999999999991
  9
$OSMODE
 70
  3839
  9
$ATTMODE
 70
     1
  9
$TEXTSIZE
 40
0.2
  9
$TRACEWID
 40
0.05
  9
$TEXTSTYLE
  7
STANDARD
  9
$CLAYER
  8
0
  9
$CELTYPE
  6
BYLAYER
  9
$CECOLOR
 62
     1
  9
$DIMSCALE
 40
1.0
  9
$DIMASZ
 40
0.1875
  9
$DIMEXO
 40
0.0625
  9
$DIMDLI
 40
0.8359999999999999
  9
$DIMRND
 40
0.0
  9
$DIMDLE
 40
0.0
  9
$DIMEXE
 40
0.125
  9
$DIMTP
 40
0.0
  9
$DIMTM
 40
0.0
  9
$DIMTXT
 40
2.5
  9
$DIMCEN
 40
0.198
  9
$DIMTSZ
 40
0.0
  9
$DIMTOL
 70
     0
  9
$DIMLIM
 70
     0
  9
$DIMTIH
 70
     1
  9
$DIMTOH
 70
     1
  9
$DIMSE1
 70
     0
  9
$DIMSE2
 70
     0
  9
$DIMTAD
 70
     0
  9
$DIMZIN
 70
     0
  9
$DIMBLK
  1

  9
$DIMASO
 70
     1
  9
$DIMSHO
 70
     1
  9
$DIMPOST
  1

  9
$DIMAPOST
  1

  9
$DIMALT
 70
     1
  9
$DIMALTD
 70
     5
  9
$DIMALTF
 40
25.3999999999999986
  9
$DIMLFAC
 40
1.0
  9
$DIMTOFL
 70
     0
  9
$DIMTVP
 40
0.0
  9
$DIMTIX
 70
     0
  9
$DIMSOXD
 70
     0
  9
$DIMSAH
 70
     0
  9
$DIMBLK1
  1

  9
$DIMBLK2
  1

  9
$DIMSTYLE
  2
STANDARD
  9
$DIMCLRD
 70
     0
  9
$DIMCLRE
 70
     0
  9
$DIMCLRT
 70
     0
  9
$DIMTFAC
 40
1.0
  9
$DIMGAP
 40
0.09
  9
$LUNITS
 70
     2
  9
$LUPREC
 70
     4
  9
$SKETCHINC
 40
0.1
  9
$FILLETRAD
 40
0.0
  9
$AUNITS
 70
     0
  9
$AUPREC
 70
     0
  9
$MENU
  1
.
  9
$ELEVATION
 40
0.0
  9
$PELEVATION
 40
0.0
  9
$THICKNESS
 40
0.0
  9
$LIMCHECK
 70
     0
  9
$BLIPMODE
 70
     0
  9
$CHAMFERA
 40
0.0
  9
$CHAMFERB
 40
0.0
  9
$SKPOLY
 70
     0
  9
$TDCREATE
 40
2457564.4891319437883794
  9
$TDUPDATE
 40
2459022.8164120367728174
  9
$TDINDWG
 40
0.2042500347
  9
$TDUSRTIMER
 40
0.2042500347
  9
$USRTIMER
 70
     1
  9
$ANGBASE
 50
0.0
  9
$ANGDIR
 70
     0
  9
$PDMODE
 70
     0
  9
$PDSIZE
 40
0.3125
  9
$PLINEWID
 40
0.0
  9
$COORDS
 70
     1
  9
$SPLFRAME
 70
     0
  9
$SPLINETYPE
 70
     6
  9
$SPLINESEGS
 70
     8
  9
$ATTDIA
 70
     1
  9
$ATTREQ
 70
     1
  9
$HANDLING
 70
     1
  9
$HANDSEED
  5
14A4
  9
$SURFTAB1
 70
     6
  9
$SURFTAB2
 70
     6
  9
$SURFTYPE
 70
     6
  9
$SURFU
 70
     6
  9
$SURFV
 70
     6
  9
$UCSNAME
  2

  9
$UCSORG
 10
0.0
 20
0.0
 30
0.0
  9
$UCSXDIR
 10
1.0
 20
0.0
 30
0.0
  9
$UCSYDIR
 10
0.0
 20
1.0
 30
0.0
  9
$PUCSNAME
  2

  9
$PUCSORG
 10
0.0
 20
0.0
 30
0.0
  9
$PUCSXDIR
 10
1.0
 20
0.0
 30
0.0
  9
$PUCSYDIR
 10
0.0
 20
1.0
 30
0.0
  9
$USERI1
 70
     0
  9
$USERI2
 70
     0
  9
$USERI3
 70
     0
  9
$USERI4
 70
     0
  9
$USERI5
 70
     0
  9
$USERR1
 40
0.0
  9
$USERR2
 40
0.0
  9
$USERR3
 40
0.0
  9
$USERR4
 40
0.0
  9
$USERR5
 40
0.0
  9
$WORLDVIEW
 70
     1
  9
$SHADEDGE
 70
     3
  9
$SHADEDIF
 70
    70
  9
$TILEMODE
 70
     1
  9
$MAXACTVP
 70
    64
  9
$PLIMCHECK
 70
     0
  9
$PEXTMIN
 10
1.0000000000000000E+20
 20
1.0000000000000000E+20
 30
1.0000000000000000E+20
  9
$PEXTMAX
 10
-1.0000000000000000E+20
 20
-1.0000000000000000E+20
 30
-1.0000000000000000E+20
  9
$PLIMMIN
 10
0.0
 20
0.0
  9
$PLIMMAX
 10
12.0
 20
9.0
  9
$UNITMODE
 70
     0
  9
$VISRETAIN
 70
     1
  9
$PLINEGEN
 70
     0
  9
$PSLTSCALE
 70
     1
  0
ENDSEC
  0
SECTION
  2
TABLES
  0
TABLE
  2
VPORT
 70
     1
  0
VPORT
  2
*ACTIVE
 70
     0
 10
0.0
 20
0.0
 11
1.0
 21
1.0
 12
0.0
 22
0.0
 13
0.0
 23
0.0
 14
1.0
 24
1.0
 15
0.0
 25
0.0
 16
-0.0000000000000515
 26
0.0
 36
234.2280098915900055
 17
8.9918918609619141
 27
10.03540647029876
 37
0.0
 40
70.2206330120879443
 41
2.5834609494640119
 42
50.0
 43
0.0
 44
0.0
 50
0.0
 51
0.0
 71
     0
 72
   100
 73
     1
 74
     1
 75
     0
 76
     0
 77
     0
 78
     0
  0
ENDTAB
  0
TABLE
  2
LTYPE
 70
     1
  0
LTYPE
  2
CONTINUOUS
 70
     0
  3
Solid line
 72
    65
 73
     0
 40
0.0
  0
ENDTAB
  0
TABLE
  2
LAYER
 70
     2
  0
LAYER
  2
0
 70
     0
 62
     7
  6
CONTINUOUS
  0
LAYER
  2
DEFPOINTS
 70
     0
 62
     7
  6
CONTINUOUS
  0
ENDTAB
  0
TABLE
  2
STYLE
 70
     1
  0
STYLE
  2
STANDARD
 70
     0
 40
0.0
 41
0.8
 50
0.0
 71
     0
 42
0.2
  3
txt
  4

  0
ENDTAB
  0
TABLE
  2
VIEW
 70
     0
  0
ENDTAB
  0
TABLE
  2
UCS
 70
     0
  0
ENDTAB
  0
TABLE
  2
APPID
 70
     7
  0
APPID
  2
ACAD
 70
     0
  0
APPID
  2
ACAD_MLEADERVER
 70
     0
  0
APPID
  2
ACAD_EXEMPT_FROM_CAD_STANDARDS
 70
     0
  0
APPID
  2
ACAD_NAV_VCDISPLAY
 70
     0
  0
APPID
  2
ACDBATTR
 70
     0
  0
APPID
  2
ACAD_DSTYLE_DIMJAG
 70
     0
  0
APPID
  2
ACAD_DSTYLE_DIMTALN
 70
     0
  0
ENDTAB
  0
TABLE
  2
DIMSTYLE
 70
     1
  0
DIMSTYLE
  2
STANDARD
 70
     0
  3

  4

  5

  6

  7

 40
1.0
 41
0.1875
 42
0.0625
 43
0.38
 44
0.125
 45
0.0
 46
0.0
 47
0.01
 48
0.01
140
0.15625
141
0.09
142
0.0
143
25.3999999999999986
144
1.0
145
0.0
146
1.0
147
0.09
 71
     0
 72
     0
 73
     1
 74
     1
 75
     0
 76
     0
 77
     0
 78
     4
170
     0
171
     2
172
     0
173
     0
174
     0
175
     0
176
     0
177
     0
178
     0
  0
ENDTAB
  0
ENDSEC
  0
SECTION
  2
BLOCKS
  0
BLOCK
  8
0
  2
$MODEL_SPACE
 70
     0
 10
0.0
 20
0.0
 30
0.0
  3
$MODEL_SPACE
  1

  0
ENDBLK
  5
21
  8
0
  0
BLOCK
 67
     1
  8
0
  2
$PAPER_SPACE
 70
     0
 10
0.0
 20
0.0
 30
0.0
  3
$PAPER_SPACE
  1

  0
ENDBLK
  5
1D
 67
     1
  8
0
  0
ENDSEC
  0
SECTION
  2
ENTITIES
  0
LINE
  5
20D
  8
0
 10
-13.6497050850000008
 20
0.7471129112999999
 30
0.0
 11
-13.4729027333999998
 21
-1.2737434053000001
 31
0.0
  0
ARC
  5
6DA
  8
0
 10
-23.1395391882564283
 20
21.14277279629502
 30
0.0
 40
0.8820640359195612
 50
91.9485384764547149
 51
169.9652248203697127
  0
LINE
  5
6DD
  8
0
 10
-24.0081095650002503
 20
21.2964688082986093
 30
0.0
 11
-22.2203101261988394
 21
21.296486637600001
 31
0.0
  0
ARC
  5
6DE
  8
0
 10
-22.3345307783158802
 20
21.09584791547476
 30
0.0
 40
0.2308728095425919
 50
43.9163024005954128
 51
60.3477817444529592
  0
LINE
  5
6DF
  8
0
 10
-22.1682204714000015
 20
21.2559826640999994
 30
0.0
 11
-21.7608179574922502
 21
20.7770523551262301
 31
0.0
  0
LINE
  5
6E0
  8
0
 10
-21.7608179574922502
 20
20.7770523551262301
 30
0.0
 11
-21.3826487711000013
 21
17.1790128897999992
 31
0.0
  0
ARC
  5
6E1
  8
0
 10
-20.3184572815748616
 20
17.2908843231075515
 30
0.0
 40
1.070055486396849
 50
186.0010863609626028
 51
266.3380057918506054
  0
ARC
  5
6E4
  8
0
 10
-36.5686954449405235
 20
-5.1203791645998411
 30
0.0
 40
23.660485599451949
 50
15.0963717301418505
 51
31.594629342503989
  0
ARC
  5
6EC
  8
0
 10
-20.4134379093585601
 20
15.8126783637956905
 30
0.0
 40
0.4111988942450133
 50
16.373958677335871
 51
86.2860097232935033
  0
LINE
  5
6ED
  8
0
 10
-20.0189163369817607
 20
15.9285975578821795
 30
0.0
 11
-20.0130087243761601
 21
15.9097866902313498
 31
0.0
  0
ARC
  5
6EE
  8
0
 10
9.0300546325382456
 20
22.9498639466353715
 30
0.0
 40
29.8841465819233605
 50
193.6257550705016115
 51
205.1633702571683955
  0
ARC
  5
6EF
  8
0
 10
9.1454030773870905
 20
22.9973770310138512
 30
0.0
 40
30.008751559277929
 50
205.1518338790617975
 51
211.5948921976957138
  0
ARC
  5
6F7
  8
0
 10
-18.8608901963406304
 20
-0.422948612266368
 30
0.0
 40
5.3409263460179499
 50
12.6546880515070903
 51
15.9177366551448802
  0
ARC
  5
6F8
  8
0
 10
-13.4131172873665605
 20
-1.2684982733316601
 30
0.0
 40
0.0600150894924132
 50
185.0138694466548088
 51
269.9930582701081789
  0
LINE
  5
6F9
  8
0
 10
-13.4131245585572696
 20
-1.3285133623835961
 30
0.0
 11
-11.6971892308999994
 21
-1.328513362399999
 31
0.0
  0
ARC
  5
6FA
  8
0
 10
-11.6971892214135504
 20
-1.0785133883359519
 30
0.0
 40
0.2499999740640472
 50
269.9999978258666147
 51
349.8538941330912735
  0
ARC
  5
6FB
  8
0
 10
-11.1948600512164305
 20
-1.174466946812085
 30
0.0
 40
0.2614447331185078
 50
126.5583019676529943
 51
168.5469318936781917
  0
LINE
  5
6FC
  8
0
 10
-11.3505871102999993
 20
-0.9644611575000009
 30
0.0
 11
-10.5636113835218701
 21
-0.9919429554261292
 31
0.0
  0
ARC
  5
6FD
  8
0
 10
-10.6072357543999995
 20
-2.2411814892000028
 30
0.0
 40
1.2500000000000031
 50
46.8976709685000372
 51
88.0000020913097956
  0
LINE
  5
6FE
  8
0
 10
-9.7531064373020087
 20
-1.328513362401587
 30
0.0
 11
-7.3027868520548367
 21
-1.328513362401587
 31
0.0
  0
LINE
  5
6FF
  8
0
 10
-7.3027868520548367
 20
-1.328513362401587
 30
0.0
 11
-7.2528982488000011
 21
-1.898742707
 31
0.0
  0
ARC
  5
700
  8
0
 10
-7.193126566887047
 20
-1.8935133623666891
 30
0.0
 40
0.0600000000333095
 50
185.0000000298774125
 51
269.9999999876332026
  0
LINE
  5
701
  8
0
 10
-7.1931265668999984
 20
-1.9535133623999981
 30
0.0
 11
-5.0530863078000001
 21
-1.9535133628619079
 31
0.0
  0
ARC
  5
702
  8
0
 10
-5.053074208813114
 20
-1.8935444386140841
 30
0.0
 40
0.0599689250064272
 50
269.9884403315627992
 51
354.9440370483682159
  0
LINE
  5
703
  8
0
 10
-4.993338617220421
 20
-1.8988294233347309
 30
0.0
 11
-4.9115938541858153
 21
-0.9646700122125546
 31
0.0
  0
LINE
  5
704
  8
0
 10
-4.9115938541858153
 20
-0.9646700122125546
 30
0.0
 11
20.267395625799999
 21
-0.0853998800999989
 31
0.0
  0
ARC
  5
705
  8
0
 10
20.143349417414651
 20
-0.4497613628332471
 30
0.0
 40
0.3848983656786227
 50
5.6503955971313697
 51
71.1989513086068939
  0
LINE
  5
706
  8
0
 10
20.5263776327999992
 20
-0.4118649497999983
 30
0.0
 11
20.5471017522436412
 21
-0.648742718728021
 31
0.0
  0
ARC
  5
707
  8
0
 10
20.6068734330999987
 20
-0.6435133624000029
 30
0.0
 40
0.0600000000000006
 50
185.000011275897208
 51
270.0
  0
LINE
  5
708
  8
0
 10
20.6068734330999987
 20
-0.703513362399999
 30
0.0
 11
21.3769136921999987
 21
-0.703513362399999
 31
0.0
  0
ARC
  5
709
  8
0
 10
21.3770556641400589
 20
-0.6436682975660579
 30
0.0
 40
0.0598452332354916
 50
269.8640760480845984
 51
355.1359239014469722
  0
LINE
  5
70A
  8
0
 10
21.4366853741000014
 20
-0.6487427070000001
 30
0.0
 11
21.4624625587000004
 21
-0.3541081384000009
 31
0.0
  0
ARC
  5
70B
  8
0
 10
21.8463042127714608
 20
-0.3926197196625959
 30
0.0
 40
0.3857687873476254
 50
112.159317935482207
 51
174.2705765146895089
  0
LINE
  5
70C
  8
0
 10
21.7007986722999995
 20
-0.0353443427
 30
0.0
 11
22.5502813346675808
 21
-0.0056797545011306
 31
0.0
  0
LINE
  5
70D
  8
0
 10
22.5502813346675808
 20
-0.0056797545011307
 30
0.0
 11
22.5885829436501915
 21
-0.0868644455160479
 31
0.0
  0
LINE
  5
70E
  8
0
 10
22.5885829436501915
 20
-0.0868644455160479
 30
0.0
 11
22.7471018775427112
 21
-1.8987441507021521
 31
0.0
  0
ARC
  5
716
  8
0
 10
22.8068734330999909
 20
-1.8935133623999949
 30
0.0
 40
0.0599999999999984
 50
185.0013839353127878
 51
270.0000000000032969
  0
LINE
  5
717
  8
0
 10
22.8068734331000016
 20
-1.9535133623999981
 30
0.0
 11
24.946913692199999
 21
-1.9535133623998731
 31
0.0
  0
ARC
  5
718
  8
0
 10
24.9469234992645106
 20
-1.8935385812240679
 30
0.0
 40
0.0599747819776295
 50
269.990631005404282
 51
354.9561729081651151
  0
LINE
  5
719
  8
0
 10
25.00666604322506
 20
-1.898811428119763
 30
0.0
 11
25.1696412287999998
 21
-0.0361482102999999
 31
0.0
  0
ARC
  5
71A
  8
0
 10
25.4594820353814093
 20
-0.051111178086828
 30
0.0
 40
0.2902267795444654
 50
151.5842425376476115
 51
177.0447415125944133
  0
LINE
  5
71B
  8
0
 10
25.2042224360705802
 20
0.0869979110024648
 30
0.0
 11
26.2356251880720102
 21
0.1230152886990226
 31
0.0
  0
ARC
  5
71C
  8
0
 10
26.1651143910088209
 20
-0.2491953404051542
 30
0.0
 40
0.3788304699008337
 50
4.9764762186023281
 51
79.273120366946074
  0
LINE
  5
71D
  8
0
 10
26.5425168205999995
 20
-0.2163330358
 30
0.0
 11
26.5471017521999997
 21
-0.2687427178
 31
0.0
  0
ARC
  5
71E
  8
0
 10
26.6068791311733506
 20
-0.2635105524174501
 30
0.0
 40
0.0600059213411738
 50
185.0022090733735922
 51
270.5834685993842186
  0
LINE
  5
71F
  8
0
 10
26.6074901878000105
 20
-0.3235133624
 30
0.0
 11
27.3769535894039784
 21
-0.3235133491351078
 31
0.0
  0
ARC
  5
720
  8
0
 10
27.3769136922000094
 20
-0.2635133624000071
 30
0.0
 40
0.0599999999999929
 50
270.0380990261776901
 51
354.9999895974053743
  0
LINE
  5
722
  8
0
 10
27.4366853731360614
 20
-0.2687427178169842
 30
0.0
 11
27.4463034161541195
 21
-0.1588038744801885
 31
0.0
  0
ARC
  5
723
  8
0
 10
27.8243591834067985
 20
-0.1917126975110986
 30
0.0
 40
0.3794853802010007
 50
104.8494124486353059
 51
175.0250837113360944
  0
LINE
  5
724
  8
0
 10
27.72710487474194
 20
0.1750989070387271
 30
0.0
 11
29.3835575985000013
 21
0.2329435568
 31
0.0
  0
ARC
  5
726
  8
0
 10
29.3000541131799892
 20
2.5834434648251481
 30
0.0
 40
2.351982706077326
 50
272.0346250673554778
 51
349.0470915041314015
  0
ARC
  5
729
  8
0
 10
41.1215363107464285
 20
21.141008708823211
 30
0.0
 40
0.8841352468948963
 50
10.1283073845454794
 51
87.5364283706915529
  0
LINE
  5
72A
  8
0
 10
41.9918935641000033
 20
21.296486637600001
 30
0.0
 11
40.1989405281079826
 21
21.296486637600001
 31
0.0
  0
ARC
  5
72B
  8
0
 10
40.3058109335416503
 20
21.1013145048204187
 30
0.0
 40
0.2225161678873896
 50
118.7037907565683952
 51
133.6042560789238109
  0
LINE
  5
72C
  8
0
 10
40.1523474659000001
 20
21.2624430531000002
 30
0.0
 11
38.9149090139000009
 21
19.7443388199999994
 31
0.0
  0
LINE
  5
72D
  8
0
 10
38.9149090139000009
 20
19.7443388199999994
 30
0.0
 11
38.3254754117054972
 21
18.4945720753143696
 31
0.0
  0
ARC
  5
72E
  8
0
 10
12.5643714997385008
 20
23.9864866395326217
 30
0.0
 40
26.3400000065268394
 50
327.4921891245398911
 51
347.965482482369282
  0
ARC
  5
72F
  8
0
 10
54.7303592568001207
 20
-2.8841195520000351
 30
0.0
 40
23.6600000000001316
 50
147.4925416567386947
 51
167.7486183082546916
  0
LINE
  5
8D1
  8
0
 10
-7.3027868520548367
 20
-1.328513362401587
 30
0.0
 11
-7.3523069792117317
 21
-0.762495718875595
 31
0.0
  0
LINE
  5
8D2
  8
0
 10
-7.3523069792117317
 20
-0.762495718875595
 30
0.0
 11
-7.399964547430419
 21
-0.6732336693106069
 31
0.0
  0
LINE
  5
8D3
  8
0
 10
-7.399964547430419
 20
-0.6732336693106069
 30
0.0
 11
-7.4123409319000002
 21
-0.6535806202000001
 31
0.0
  0
LINE
  5
8D4
  8
0
 10
-7.4123409319000002
 20
-0.6535806202000001
 30
0.0
 11
-7.4616069036618411
 21
-0.5988507622694934
 31
0.0
  0
LINE
  5
8D5
  8
0
 10
-7.4616069036618411
 20
-0.5988507622694934
 30
0.0
 11
-7.4994740509258691
 21
-0.5573175083782794
 31
0.0
  0
ARC
  5
8D6
  8
0
 10
-7.8290338156049497
 20
-0.9673311844258921
 30
0.0
 40
0.5260426342430895
 50
51.2084625101625619
 51
91.6080308666957848
  0
ARC
  5
8D7
  8
0
 10
-7.4441776828687143
 20
0.1539382309875888
 30
0.0
 40
0.763712304752669
 50
245.2010460478109053
 51
269.4275114682934031
  0
ARC
  5
8D8
  8
0
 10
-7.7143446373078763
 20
-0.4176525904488093
 30
0.0
 40
0.1316283332497262
 50
190.4361524471374025
 51
247.5993190095655905
  0
LINE
  5
8D9
  8
0
 10
-7.8437954918999999
 20
-0.4414957102
 30
0.0
 11
-7.8648856000415268
 21
-0.2420671427526702
 31
0.0
  0
ARC
  5
8DA
  8
0
 10
-7.3421786965258713
 20
-0.2828791235744623
 30
0.0
 40
0.5242977443795882
 50
91.6132386692330414
 51
175.5355097553675989
  0
LINE
  5
8DB
  8
0
 10
-7.3569390444846601
 20
0.2412108084884039
 30
0.0
 11
-4.8913013479999989
 21
0.2565483815
 31
0.0
  0
ARC
  5
8DC
  8
0
 10
-4.8980930038947159
 20
-0.2588248368141467
 30
0.0
 40
0.5154179670376978
 50
4.2636074330986533
 51
89.2449924032536472
  0
LINE
  5
8DD
  8
0
 10
-4.3841014269
 20
-0.2205059182
 30
0.0
 11
-4.4058987165999994
 21
-0.4209849962999996
 31
0.0
  0
ARC
  5
8DF
  8
0
 10
-4.887821916297554
 20
0.6020889307395247
 30
0.0
 40
1.1986538421526829
 50
274.8384259032079058
 51
285.264358088910285
  0
LINE
  5
8E0
  8
0
 10
-4.5722487497199369
 20
-0.5542780567880367
 30
0.0
 11
-4.5355696043878773
 21
-0.542090739008625
 31
0.0
  0
ARC
  5
8E8
  8
0
 10
-4.5200051791339764
 20
-0.4041809766990668
 30
0.0
 40
0.1153371573551491
 50
305.5936813150659077
 51
351.6224866653225831
  0
ARC
  5
8E9
  8
0
 10
-4.6349443356054794
 20
-0.2562832599584557
 30
0.0
 40
0.302590899211433
 50
289.1724685512472206
 51
306.9918144232062218
  0
ARC
  5
8EA
  8
0
 10
-4.5555125711334821
 20
-0.8477736160572646
 30
0.0
 40
0.3445678426340192
 50
132.1448549281556097
 51
175.7525831937309988
  0
LINE
  5
8EB
  8
0
 10
-4.8991340669000003
 20
-0.8222537056999998
 30
0.0
 11
-4.9115938541858171
 21
-0.9646700122125544
 31
0.0
  0
ARC
  5
8EC
  8
0
 10
-11.3923935634352702
 20
1.4718499297719081
 30
0.0
 40
2.3711628666503639
 50
197.8382454248902036
 51
268.4835290580177798
  0
ARC
  5
8ED
  8
0
 10
-11.55102830502077
 20
-5.7408240414101321
 30
0.0
 40
4.8432907891101724
 50
86.0749284488085067
 51
88.8656307125774561
  0
ARC
  5
8EE
  8
0
 10
-11.2282982152565403
 20
-1.047281811013786
 30
0.0
 40
0.1386678838447115
 50
78.1967094935161811
 51
86.3606249738210892
  0
ARC
  5
8EF
  8
0
 10
-11.2001151297706301
 20
-0.9136025998336826
 30
0.0
 40
0.0020646426587585
 50
43.6956326764926715
 51
84.949521684069822
  0
ARC
  5
8F0
  8
0
 10
-11.2001490494565399
 20
-1.1777375957721981
 30
0.0
 40
0.2609951134994585
 50
89.7853981211753052
 51
125.1978624065051946
  0
LINE
  5
8F1
  8
0
 10
-11.1985622703000001
 20
-0.9123670070000001
 30
0.0
 11
-11.1991714920999996
 21
-0.9167443129999981
 31
0.0
  0
ARC
  5
8F2
  8
0
 10
-11.1988160861556896
 20
-0.912342114261939
 30
0.0
 40
0.000255011911877
 50
354.4625455516638226
 51
40.5617678166084872
  0
ARC
  5
952
  8
0
 10
22.4248805873286408
 20
0.8335940866329801
 30
0.0
 40
0.708024339536764
 50
247.1060535239209912
 51
271.1917560603599782
  0
ARC
  5
953
  8
0
 10
22.1894799832609486
 20
0.2839522949980191
 30
0.0
 40
0.1101443861679588
 50
191.2071233326377921
 51
248.6834566326309073
  0
LINE
  5
954
  8
0
 10
22.0814359404518505
 20
0.2625450388034131
 30
0.0
 11
22.0595107532000085
 21
0.4861111427000005
 31
0.0
  0
ARC
  5
955
  8
0
 10
22.5206954975808813
 20
0.4724896845106143
 30
0.0
 40
0.4613858884437093
 50
122.7381430367950941
 51
178.3082158614303978
  0
ARC
  5
956
  8
0
 10
22.5934928540145883
 20
0.4483449170658144
 30
0.0
 40
0.523286492587742
 50
92.40919760786079
 51
128.0205256004489911
  0
LINE
  5
957
  8
0
 10
22.5714959616000002
 20
0.9711688740999981
 30
0.0
 11
25.1714625872206987
 21
1.0538789319231661
 31
0.0
  0
ARC
  5
958
  8
0
 10
25.1877165477890799
 20
0.561023192517573
 30
0.0
 40
0.4931236874245582
 50
4.9299949797684812
 51
91.8888811836253154
  0
LINE
  5
959
  8
0
 10
25.6790158959991217
 20
0.6034015071087048
 30
0.0
 11
25.6532157776000105
 21
0.3746806760000005
 31
0.0
  0
ARC
  5
95A
  8
0
 10
25.5416329039715393
 20
0.3974124345834175
 30
0.0
 40
0.1138748020216926
 50
295.4217651996730183
 51
348.4852251932596801
  0
ARC
  5
95B
  8
0
 10
25.3428208433883704
 20
0.7536635927562334
 30
0.0
 40
0.5216568631244122
 50
265.4988122273035742
 51
298.3479959714442202
  0
ARC
  5
9A3
  8
0
 10
22.218594851551039
 20
-0.1727354530524829
 30
0.0
 40
0.3713805723253627
 50
26.7323586752369913
 51
53.4796534612921519
  0
ARC
  5
A67
  8
0
 10
-4.4673412408845028
 20
-0.8253961459113854
 30
0.0
 40
0.3953981384771775
 50
101.7549782347171998
 51
143.8756997862016078
  0
ARC
  5
A68
  8
0
 10
-4.411523235712786
 20
-0.9660448923062709
 30
0.0
 40
0.5450889151777144
 50
89.4087809953650634
 51
104.4882577424354935
  0
ARC
  5
A69
  8
0
 10
22.11847710041474
 20
-0.2264434680636202
 30
0.0
 40
0.4903894446044401
 50
16.536669188507549
 51
94.3319150880745241
  0
ARC
  5
A6A
  8
0
 10
25.638344708051271
 20
-0.0963283739503273
 30
0.0
 40
0.4712437520483787
 50
88.1916131505664112
 51
157.1060640336716858
  0
LINE
  5
AB1
  8
0
 10
-22.2203101261988394
 20
21.296486637600001
 30
0.0
 11
40.1989405281079826
 21
21.296486637600001
 31
0.0
  0
ATTDEF
  5
DE9
  8
DEFPOINTS
 10
8.9873945703647564
 20
21.2883271667682088
 30
0.0
 40
0.001
  1
K-855T
  3

  2
MODELNUMBER
 70
     0
1001
ACDBATTR
1070
     0
1070
     1
  0
ATTDEF
  5
DEA
  8
DEFPOINTS
 10
8.9873945703647564
 20
21.2866605001015401
 30
0.0
 40
0.001
  1
TEA-FOR-TWO
  3

  2
TRADENAME
 70
     0
1001
ACDBATTR
1070
     0
1070
     1
  0
ATTDEF
  5
DEB
  8
DEFPOINTS
 10
8.9873945703647564
 20
21.2849938334348785
 30
0.0
 40
0.001
  1
BATH
  3

  2
PRODUCT
 70
     0
1001
ACDBATTR
1070
     0
1070
     1
  0
ARC
  5
E94
  8
0
 10
9.1454030762077494
 20
22.9973770302262395
 30
0.0
 40
30.0087515578999984
 50
187.6502843559999008
 51
193.6244739623847124
  0
ARC
  5
E95
  8
0
 10
-30.5031955971444688
 20
13.7705578317556103
 30
0.0
 40
11.2035767637086998
 50
18.0344887425895912
 51
38.7100949362434221
  0
ARC
  5
E96
  8
0
 10
-15.5974611318704905
 20
18.0467367176098001
 30
0.0
 40
4.3286043912967056
 50
190.7537899749756036
 51
202.1081148501739051
  0
ARC
  5
E97
  8
0
 10
-19.4248471179356699
 20
16.4660762967566399
 30
0.0
 40
0.1892614319849619
 50
194.8274160825602905
 51
249.3538306901509998
  0
ARC
  5
E98
  8
0
 10
-19.6351543875126886
 20
16.4577120771761294
 30
0.0
 40
0.2215570014621512
 50
310.3928618387307097
 51
358.3998997049818058
  0
ARC
  5
E99
  8
0
 10
-23.6449174385623593
 20
16.9728856784626814
 30
0.0
 40
4.2632329009421648
 50
352.9755882566392984
 51
6.7377285855315137
  0
ARC
  5
E9A
  8
0
 10
26.3884239302258905
 20
21.6464414712025217
 30
0.0
 40
45.989303214146581
 50
181.0121884216763135
 51
185.2065603317608122
  0
ARC
  5
E9B
  8
0
 10
-20.7094881429044797
 20
20.6970340202288199
 30
0.0
 40
1.1241644522965999
 50
7.000028115084957
 51
32.2248217733794533
  0
ARC
  5
E9C
  8
0
 10
51.6995843144647012
 20
11.8901870936765999
 30
0.0
 40
14.9159206865470999
 50
153.7189790046205928
 51
164.2345576069151036
  0
ARC
  5
E9D
  8
0
 10
35.9400170820245606
 20
16.2611905042399805
 30
0.0
 40
1.440374197844507
 50
323.0443340093892175
 51
347.2311067831312812
  0
ARC
  5
E9E
  8
0
 10
37.5826912949829079
 20
15.5247840141858902
 30
0.0
 40
0.5084489693267776
 50
174.7137616965320035
 51
194.7604742707046057
  0
ARC
  5
E9F
  8
0
 10
53.2339069053266627
 20
14.9088157422515195
 30
0.0
 40
16.1710912900335586
 50
171.7738135208068968
 51
177.6509319190134022
  0
ARC
  5
EA0
  8
0
 10
1.7860560036281361
 20
22.3021161376770714
 30
0.0
 40
35.8052795653181022
 50
351.844213592137578
 51
357.6621828036678039
  0
ARC
  5
EA1
  8
0
 10
38.6824418884572765
 20
20.6852789529826993
 30
0.0
 40
1.1317514032565981
 50
147.3126362039510013
 51
172.0621401557496881
  0
LINE
  5
1237
  8
0
 10
41.1595401470514304
 20
22.0243267960534013
 30
0.0
 11
-23.1695310033515405
 21
22.0243267960534013
 31
0.0
  0
ENDSEC
  0
EOF
