  0
SECTION
  2
HEADER
  9
$ACADVER
  1
AC1009
  9
$INSBASE
 10
69.9341823078000004
 20
21.296486637600001
 30
0.0
  9
$EXTMIN
 10
51.9341827316999911
 20
-1.9535133626309811
 30
0.0
  9
$EXTMAX
 10
87.9341818839000098
 20
22.0243266376000015
 30
0.0
  9
$LIMMIN
 10
0.0
 20
0.0
  9
$LIMMAX
 10
22.0
 20
17.0
  9
$ORTHOMODE
 70
     1
  9
$REGENMODE
 70
     1
  9
$FILLMODE
 70
     1
  9
$QTEXTMODE
 70
     0
  9
$MIRRTEXT
 70
     0
  9
$DRAGMODE
 70
     2
  9
$LTSCALE
 40
1.2099999999999991
  9
$OSMODE
 70
  3839
  9
$ATTMODE
 70
     1
  9
$TEXTSIZE
 40
0.2
  9
$TRACEWID
 40
0.05
  9
$TEXTSTYLE
  7
STANDARD
  9
$CLAYER
  8
0
  9
$CELTYPE
  6
BYLAYER
  9
$CECOLOR
 62
   256
  9
$DIMSCALE
 40
1.0
  9
$DIMASZ
 40
0.1875
  9
$DIMEXO
 40
0.0625
  9
$DIMDLI
 40
0.8359999999999999
  9
$DIMRND
 40
0.0
  9
$DIMDLE
 40
0.0
  9
$DIMEXE
 40
0.125
  9
$DIMTP
 40
0.0
  9
$DIMTM
 40
0.0
  9
$DIMTXT
 40
2.5
  9
$DIMCEN
 40
0.198
  9
$DIMTSZ
 40
0.0
  9
$DIMTOL
 70
     0
  9
$DIMLIM
 70
     0
  9
$DIMTIH
 70
     1
  9
$DIMTOH
 70
     1
  9
$DIMSE1
 70
     0
  9
$DIMSE2
 70
     0
  9
$DIMTAD
 70
     0
  9
$DIMZIN
 70
     0
  9
$DIMBLK
  1

  9
$DIMASO
 70
     1
  9
$DIMSHO
 70
     1
  9
$DIMPOST
  1

  9
$DIMAPOST
  1

  9
$DIMALT
 70
     1
  9
$DIMALTD
 70
     4
  9
$DIMALTF
 40
25.3999999999999986
  9
$DIMLFAC
 40
1.0
  9
$DIMTOFL
 70
     0
  9
$DIMTVP
 40
0.0
  9
$DIMTIX
 70
     0
  9
$DIMSOXD
 70
     0
  9
$DIMSAH
 70
     0
  9
$DIMBLK1
  1

  9
$DIMBLK2
  1

  9
$DIMSTYLE
  2
STANDARD
  9
$DIMCLRD
 70
     0
  9
$DIMCLRE
 70
     0
  9
$DIMCLRT
 70
     0
  9
$DIMTFAC
 40
1.0
  9
$DIMGAP
 40
0.09
  9
$LUNITS
 70
     2
  9
$LUPREC
 70
     4
  9
$SKETCHINC
 40
0.1
  9
$FILLETRAD
 40
0.0
  9
$AUNITS
 70
     0
  9
$AUPREC
 70
     0
  9
$MENU
  1
.
  9
$ELEVATION
 40
0.0
  9
$PELEVATION
 40
0.0
  9
$THICKNESS
 40
0.0
  9
$LIMCHECK
 70
     0
  9
$BLIPMODE
 70
     0
  9
$CHAMFERA
 40
0.0
  9
$CHAMFERB
 40
0.0
  9
$SKPOLY
 70
     0
  9
$TDCREATE
 40
2457564.4891319437883794
  9
$TDUPDATE
 40
2459022.8167476849630475
  9
$TDINDWG
 40
0.1958122569
  9
$TDUSRTIMER
 40
0.1958122569
  9
$USRTIMER
 70
     1
  9
$ANGBASE
 50
0.0
  9
$ANGDIR
 70
     0
  9
$PDMODE
 70
     0
  9
$PDSIZE
 40
0.3125
  9
$PLINEWID
 40
0.0
  9
$COORDS
 70
     1
  9
$SPLFRAME
 70
     0
  9
$SPLINETYPE
 70
     6
  9
$SPLINESEGS
 70
     8
  9
$ATTDIA
 70
     1
  9
$ATTREQ
 70
     1
  9
$HANDLING
 70
     1
  9
$HANDSEED
  5
10A6
  9
$SURFTAB1
 70
     6
  9
$SURFTAB2
 70
     6
  9
$SURFTYPE
 70
     6
  9
$SURFU
 70
     6
  9
$SURFV
 70
     6
  9
$UCSNAME
  2

  9
$UCSORG
 10
0.0
 20
0.0
 30
0.0
  9
$UCSXDIR
 10
1.0
 20
0.0
 30
0.0
  9
$UCSYDIR
 10
0.0
 20
1.0
 30
0.0
  9
$PUCSNAME
  2

  9
$PUCSORG
 10
0.0
 20
0.0
 30
0.0
  9
$PUCSXDIR
 10
1.0
 20
0.0
 30
0.0
  9
$PUCSYDIR
 10
0.0
 20
1.0
 30
0.0
  9
$USERI1
 70
     0
  9
$USERI2
 70
     0
  9
$USERI3
 70
     0
  9
$USERI4
 70
     0
  9
$USERI5
 70
     0
  9
$USERR1
 40
0.0
  9
$USERR2
 40
0.0
  9
$USERR3
 40
0.0
  9
$USERR4
 40
0.0
  9
$USERR5
 40
0.0
  9
$WORLDVIEW
 70
     1
  9
$SHADEDGE
 70
     3
  9
$SHADEDIF
 70
    70
  9
$TILEMODE
 70
     1
  9
$MAXACTVP
 70
    64
  9
$PLIMCHECK
 70
     0
  9
$PEXTMIN
 10
1.0000000000000000E+20
 20
1.0000000000000000E+20
 30
1.0000000000000000E+20
  9
$PEXTMAX
 10
-1.0000000000000000E+20
 20
-1.0000000000000000E+20
 30
-1.0000000000000000E+20
  9
$PLIMMIN
 10
0.0
 20
0.0
  9
$PLIMMAX
 10
12.0
 20
9.0
  9
$UNITMODE
 70
     0
  9
$VISRETAIN
 70
     1
  9
$PLINEGEN
 70
     0
  9
$PSLTSCALE
 70
     1
  0
ENDSEC
  0
SECTION
  2
TABLES
  0
TABLE
  2
VPORT
 70
     1
  0
VPORT
  2
*ACTIVE
 70
     0
 10
0.0
 20
0.0
 11
1.0
 21
1.0
 12
0.0
 22
0.0
 13
0.0
 23
0.0
 14
1.0
 24
1.0
 15
0.0
 25
0.0
 16
-0.0000000000000284
 26
0.0
 36
144.279173776764793
 17
69.9341812133789063
 27
10.03540647029876
 37
0.0
 40
43.2543269174111913
 41
2.5834609494640119
 42
50.0
 43
0.0
 44
0.0
 50
0.0
 51
0.0
 71
     0
 72
   100
 73
     1
 74
     1
 75
     0
 76
     0
 77
     0
 78
     0
  0
ENDTAB
  0
TABLE
  2
LTYPE
 70
     1
  0
LTYPE
  2
CONTINUOUS
 70
     0
  3
Solid line
 72
    65
 73
     0
 40
0.0
  0
ENDTAB
  0
TABLE
  2
LAYER
 70
     2
  0
LAYER
  2
0
 70
     0
 62
     7
  6
CONTINUOUS
  0
LAYER
  2
DEFPOINTS
 70
     0
 62
     7
  6
CONTINUOUS
  0
ENDTAB
  0
TABLE
  2
STYLE
 70
     1
  0
STYLE
  2
STANDARD
 70
     0
 40
0.0
 41
0.8
 50
0.0
 71
     0
 42
0.2
  3
txt
  4

  0
ENDTAB
  0
TABLE
  2
VIEW
 70
     0
  0
ENDTAB
  0
TABLE
  2
UCS
 70
     0
  0
ENDTAB
  0
TABLE
  2
APPID
 70
     7
  0
APPID
  2
ACAD
 70
     0
  0
APPID
  2
ACAD_MLEADERVER
 70
     0
  0
APPID
  2
ACAD_EXEMPT_FROM_CAD_STANDARDS
 70
     0
  0
APPID
  2
ACAD_NAV_VCDISPLAY
 70
     0
  0
APPID
  2
ACDBATTR
 70
     0
  0
APPID
  2
ACAD_DSTYLE_DIMJAG
 70
     0
  0
APPID
  2
ACAD_DSTYLE_DIMTALN
 70
     0
  0
ENDTAB
  0
TABLE
  2
DIMSTYLE
 70
     1
  0
DIMSTYLE
  2
STANDARD
 70
     0
  3

  4

  5

  6

  7

 40
1.0
 41
0.1875
 42
0.0625
 43
0.38
 44
0.125
 45
0.0
 46
0.0
 47
0.01
 48
0.01
140
0.15625
141
0.09
142
0.0
143
25.3999999999999986
144
1.0
145
0.0
146
1.0
147
0.09
 71
     0
 72
     0
 73
     1
 74
     1
 75
     0
 76
     0
 77
     0
 78
     4
170
     0
171
     2
172
     0
173
     0
174
     0
175
     0
176
     0
177
     0
178
     0
  0
ENDTAB
  0
ENDSEC
  0
SECTION
  2
BLOCKS
  0
BLOCK
  8
0
  2
$MODEL_SPACE
 70
     0
 10
0.0
 20
0.0
 30
0.0
  3
$MODEL_SPACE
  1

  0
ENDBLK
  5
21
  8
0
  0
BLOCK
 67
     1
  8
0
  2
$PAPER_SPACE
 70
     0
 10
0.0
 20
0.0
 30
0.0
  3
$PAPER_SPACE
  1

  0
ENDBLK
  5
1D
 67
     1
  8
0
  0
ENDSEC
  0
SECTION
  2
ENTITIES
  0
LINE
  5
32D
  8
0
 10
51.9341827316999911
 20
21.296486637600001
 30
0.0
 11
87.9341818838999956
 21
21.296486637600001
 31
0.0
  0
ARC
  5
761
  8
0
 10
52.80495222464058
 20
21.1404351169868008
 30
0.0
 40
0.8846420671218842
 50
98.7567741597706856
 51
169.8398168195905953
  0
LINE
  5
762
  8
0
 10
52.6702741036000717
 20
22.0147653696000098
 30
0.0
 11
52.7297708927999977
 21
22.0217026352000005
 31
0.0
  0
LINE
  5
763
  8
0
 10
52.7297708927999977
 20
22.0217026352000005
 30
0.0
 11
52.7591103355499982
 21
22.0243266376000015
 31
0.0
  0
ARC
  5
812
  8
0
 10
53.5244972413998994
 20
21.111198465999891
 30
0.0
 40
0.2082658606001445
 50
42.3931170030937992
 51
62.831979239691357
  0
LINE
  5
813
  8
0
 10
53.6783091478114329
 20
21.2516141564962595
 30
0.0
 11
54.4481451445999909
 21
20.3474288924
 31
0.0
  0
LINE
  5
814
  8
0
 10
54.4481451445999909
 20
20.3474288924
 30
0.0
 11
55.2323254097999978
 21
19.1085881865999987
 31
0.0
  0
LINE
  5
815
  8
0
 10
55.2323254097999978
 20
19.1085881865999987
 30
0.0
 11
55.3802692109000105
 21
18.7616541412000011
 31
0.0
  0
LINE
  5
816
  8
0
 10
55.3802692109000105
 20
18.7616541412000011
 30
0.0
 11
56.8092212749352967
 21
2.4286573111731919
 31
0.0
  0
LINE
  5
817
  8
0
 10
56.8092212749352967
 20
2.4286573111731919
 30
0.0
 11
56.8124985200925821
 21
2.391198227614316
 31
0.0
  0
LINE
  5
818
  8
0
 10
56.8124985200925821
 20
2.391198227614316
 30
0.0
 11
56.8954380321000031
 21
1.4431952675999999
 31
0.0
  0
LINE
  5
819
  8
0
 10
56.8954380321000031
 20
1.4431952675999999
 30
0.0
 11
56.8973833987853013
 21
1.4343327196595961
 31
0.0
  0
LINE
  5
81A
  8
0
 10
56.8973833987853013
 20
1.4343327196595961
 30
0.0
 11
57.0248794717999985
 21
0.8534961772000002
 31
0.0
  0
LINE
  5
81B
  8
0
 10
57.0248794717999985
 20
0.8534961772000002
 30
0.0
 11
57.3001247130000024
 21
0.3164828586000006
 31
0.0
  0
LINE
  5
81C
  8
0
 10
57.3001247130000024
 20
0.3164828586000006
 30
0.0
 11
57.4435994051732735
 21
0.1565349363298019
 31
0.0
  0
LINE
  5
81D
  8
0
 10
57.4435994051732735
 20
0.1565349363298019
 30
0.0
 11
57.5512024525986874
 21
-1.8966535197751671
 31
0.0
  0
LINE
  5
81F
  8
0
 10
57.3533450298399217
 20
0.2571519830834588
 30
0.0
 11
57.3547401147000002
 21
0.2412060903999986
 31
0.0
  0
ARC
  5
820
  8
0
 10
56.948544931093231
 20
-0.0604373625823086
 30
0.0
 40
0.5059479221347047
 50
4.6760202709818683
 51
36.5978441403183012
  0
ARC
  5
821
  8
0
 10
57.6111202251111223
 20
-1.893513362210471
 30
0.0
 40
0.0600000004204744
 50
183.0000001604921067
 51
269.9999996074092792
  0
LINE
  5
822
  8
0
 10
57.6111202247000023
 20
-1.95351336263095
 30
0.0
 11
57.8772444766999996
 21
-1.95351336263095
 31
0.0
  0
ARC
  5
823
  8
0
 10
57.8772444762771698
 20
-1.8935133621812521
 30
0.0
 40
0.0600000004497294
 50
270.0000004037657959
 51
356.9999997890199097
  0
LINE
  5
824
  8
0
 10
57.9371622488
 20
-1.8966535198000001
 30
0.0
 11
57.9812711882473195
 21
-1.058389773923053
 31
0.0
  0
ARC
  5
825
  8
0
 10
58.4880177267273211
 20
-1.1038022831785761
 30
0.0
 40
0.5087773091032691
 50
74.2330065518864757
 51
174.8790709185107062
  0
LINE
  5
826
  8
0
 10
57.9812711882473195
 20
-1.058389773923053
 30
0.0
 11
58.0189458528827728
 21
-0.3361288546392139
 31
0.0
  0
ARC
  5
827
  8
0
 10
58.5221057995735308
 20
-0.3670182780108726
 30
0.0
 40
0.504107219180689
 50
77.3287208916257072
 51
176.4869715657806069
  0
LINE
  5
828
  8
0
 10
58.6326853308000011
 20
0.1248112206000016
 30
0.0
 11
58.6346668576000098
 21
0.202224933
 31
0.0
  0
LINE
  5
829
  8
0
 10
57.4435994051732735
 20
0.1565349363298037
 30
0.0
 11
57.4148640155576118
 21
0.7048388334053507
 31
0.0
  0
ARC
  5
82A
  8
0
 10
56.9011758528588487
 20
0.6586609748251693
 30
0.0
 40
0.5157595594071714
 50
5.1367814255651254
 51
37.2949152665853205
  0
LINE
  5
82B
  8
0
 10
57.3114766400999969
 20
0.9711688740999999
 30
0.0
 11
57.3067674301114423
 21
1.0538789327991649
 31
0.0
  0
ARC
  5
82C
  8
0
 10
57.3078565148121086
 20
1.0543323055001901
 30
0.0
 40
0.0011796831317247
 50
179.5489111980573966
 51
202.6013673715127084
  0
ARC
  5
835
  8
0
 10
57.3068029844044986
 20
1.054348051559991
 30
0.0
 40
0.0001262814290262
 50
126.5460186848636965
 51
182.9316102314600982
  0
ARC
  5
836
  8
0
 10
57.3067909667095705
 20
1.05431097410426
 30
0.0
 40
0.0001522561486584
 50
78.9533741289215811
 51
114.5162440578632044
  0
ARC
  5
837
  8
0
 10
57.3060944163531687
 20
1.0523249141959401
 30
0.0
 40
0.0022554409580081
 50
50.3423091056706795
 51
71.2302519809987729
  0
ARC
  5
839
  8
0
 10
57.2978531174929131
 20
1.0422105645064521
 30
0.0
 40
0.0153021756228039
 50
43.973891236697277
 51
50.7550666398542205
  0
ARC
  5
83A
  8
0
 10
59.3245973482897995
 20
2.736116573943713
 30
0.0
 40
2.6261399296358592
 50
219.8643111568979123
 51
254.7686845827610114
  0
ARC
  5
83B
  8
0
 10
59.4513427767590628
 20
2.033054770600554
 30
0.0
 40
2.7728216582558729
 50
238.8904608955431002
 51
255.9703989190383879
  0
LINE
  5
83C
  8
0
 10
58.7791466068000119
 20
-0.6570553122000029
 30
0.0
 11
59.1544822953821026
 21
-0.700557241419448
 31
0.0
  0
LINE
  5
83D
  8
0
 10
59.1544822953821026
 20
-0.700557241419448
 30
0.0
 11
66.188479552432895
 21
-0.9461898382223843
 31
0.0
  0
ARC
  5
83E
  8
0
 10
66.0386121519467935
 20
-1.1514495021600359
 30
0.0
 40
0.2541491045985709
 50
6.0246440628585596
 51
53.8654855175211793
  0
LINE
  5
83F
  8
0
 10
66.2913575512887547
 20
-1.124774973490656
 30
0.0
 11
66.3043926283177143
 21
-1.2737665308380759
 31
0.0
  0
ARC
  5
840
  8
0
 10
66.3641622210999884
 20
-1.268513362400018
 30
0.0
 40
0.0599999999999779
 50
185.0228374360598025
 51
270.0000000000134719
  0
LINE
  5
841
  8
0
 10
66.3641622211000026
 20
-1.3285133623999981
 30
0.0
 11
66.5042024802000071
 21
-1.328513362399965
 31
0.0
  0
ARC
  5
842
  8
0
 10
66.504202480200064
 20
-1.26851336240004
 30
0.0
 40
0.059999999999925
 50
269.9999999999593001
 51
354.999999999934289
  0
LINE
  5
843
  8
0
 10
66.5639741620855006
 20
-1.2737427069649629
 30
0.0
 11
66.5753065159227759
 21
-1.144213309893243
 31
0.0
  0
ARC
  5
844
  8
0
 10
66.8381549906787171
 20
-1.1757992663876411
 30
0.0
 40
0.2647394819991728
 50
126.6357563895301013
 51
173.1477418143614955
  0
LINE
  5
845
  8
0
 10
66.6801781193000096
 20
-0.9633603306000001
 30
0.0
 11
67.4986774044160285
 21
-0.9919429554239616
 31
0.0
  0
ARC
  5
846
  8
0
 10
67.4550530336000094
 20
-2.2411814891999788
 30
0.0
 40
1.2499999999999789
 50
46.8976709684999307
 51
88.0000000000008669
  0
LINE
  5
847
  8
0
 10
68.3091823506979807
 20
-1.328513362401587
 30
0.0
 11
71.5591823507020166
 21
-1.3285133624015859
 31
0.0
  0
ARC
  5
848
  8
0
 10
72.4133116678000164
 20
-2.2411814891999962
 30
0.0
 40
1.2500000000000051
 50
92.0000000000003979
 51
133.1023290315004033
  0
LINE
  5
84A
  8
0
 10
72.3696872968999969
 20
-0.9919429554
 30
0.0
 11
73.1878260574000024
 21
-0.9633729204000012
 31
0.0
  0
ARC
  5
84B
  8
0
 10
73.0305566164976057
 20
-1.1759385255660599
 30
0.0
 40
0.2644197676741109
 50
6.9424556779884483
 51
53.5036287605906224
  0
LINE
  5
84C
  8
0
 10
73.2930376714000005
 20
-1.143977465599999
 30
0.0
 11
73.3043905391999999
 21
-1.273742707
 31
0.0
  0
ARC
  5
84D
  8
0
 10
73.3641622211399778
 20
-1.268513362380288
 30
0.0
 40
0.0600000000415389
 50
185.000000015525103
 51
270.0015457064611724
  0
LINE
  5
84E
  8
0
 10
73.3641638397999998
 20
-1.3285133623999981
 30
0.0
 11
73.5042010833621475
 21
-1.3285094913674751
 31
0.0
  0
ARC
  5
84F
  8
0
 10
73.5042095686305146
 20
-1.268516858000186
 30
0.0
 40
0.0599926339673607
 50
269.9918961706640061
 51
355.0027357005424165
  0
LINE
  5
850
  8
0
 10
73.5639741620999956
 20
-1.273742707
 30
0.0
 11
73.5770422678999978
 21
-1.1235482880000001
 31
0.0
  0
LINE
  5
851
  8
0
 10
73.5770422678999978
 20
-1.1235482880000001
 30
0.0
 11
73.5770612717000034
 21
-1.1218837331
 31
0.0
  0
ARC
  5
852
  8
0
 10
73.8192705331696857
 20
-1.145748855768044
 30
0.0
 40
0.2433821489379402
 50
124.9201719637324999
 51
174.3727526333115065
  0
LINE
  5
853
  8
0
 10
73.6799501733681552
 20
-0.9461875675219985
 30
0.0
 11
80.7138935803199473
 21
-0.7005666036882517
 31
0.0
  0
LINE
  5
91D
  8
0
 10
55.2323254097999978
 20
19.1085881865999987
 30
0.0
 11
55.4496978682999995
 21
18.7392249381000013
 31
0.0
  0
LINE
  5
91E
  8
0
 10
55.4496978682999995
 20
18.7392249381000013
 30
0.0
 11
56.1305463947999925
 21
17.0327552874999988
 31
0.0
  0
ARC
  5
91F
  8
0
 10
62.02531615187889
 20
18.1573175922771384
 30
0.0
 40
6.0010791418125526
 50
190.8007018270081119
 51
206.1432599978759015
  0
ARC
  5
920
  8
0
 10
54.7725699039288827
 20
20.2802998163981414
 30
0.0
 40
1.5116983610358969
 50
359.1900113956095879
 51
42.2382765823911228
  0
ARC
  5
921
  8
0
 10
90.8970213925963293
 20
22.5304068587377913
 30
0.0
 40
34.6873571288204303
 50
183.7546605046732111
 51
189.2077634063429059
  0
LINE
  5
922
  8
0
 10
56.6566249923626302
 20
16.9799114810988101
 30
0.0
 11
56.7666882740276719
 21
16.2027972752833413
 31
0.0
  0
LINE
  5
923
  8
0
 10
56.7666882740276719
 20
16.2027972752833413
 30
0.0
 11
56.7994022443189479
 21
15.8828470461462903
 31
0.0
  0
ARC
  5
924
  8
0
 10
54.4876827550660465
 20
15.6243446411324101
 30
0.0
 40
2.3261277889208261
 50
356.4418609485202865
 51
6.3804548399598326
  0
ARC
  5
925
  8
0
 10
56.5850821983113406
 20
15.4977807478670595
 30
0.0
 40
0.2249496055791857
 50
340.2203334179951071
 51
355.4618397134649967
  0
ARC
  5
926
  8
0
 10
56.7533290107945021
 20
15.4308241965326705
 30
0.0
 40
0.0443879349749707
 50
234.4183235920633877
 51
348.0811147777080237
  0
ARC
  5
927
  8
0
 10
57.0467179520238332
 20
15.7284180344789597
 30
0.0
 40
0.461790992368913
 50
207.7867139083382142
 51
226.2702412402084917
  0
ATTDEF
  5
B42
  8
DEFPOINTS
 10
69.9278498396951136
 20
21.3054499049982304
 30
0.0
 40
0.001
  1
K-855T
  3

  2
MODELNUMBER
 70
     0
1001
ACDBATTR
1070
     0
1070
     1
  0
ATTDEF
  5
B43
  8
DEFPOINTS
 10
69.9278498396951136
 20
21.3037832383315617
 30
0.0
 40
0.001
  1
TEA-FOR-TWO
  3

  2
TRADENAME
 70
     0
1001
ACDBATTR
1070
     0
1070
     1
  0
ATTDEF
  5
B44
  8
DEFPOINTS
 10
69.9278498396951136
 20
21.3021165716648895
 30
0.0
 40
0.001
  1
BATH
  3

  2
PRODUCT
 70
     0
1001
ACDBATTR
1070
     0
1070
     1
  0
ARC
  5
C49
  8
0
 10
87.063412390959428
 20
21.1404351169868008
 30
0.0
 40
0.8846420671218842
 50
10.16018318040949
 51
81.2432258402287317
  0
LINE
  5
C4A
  8
0
 10
87.1980905119999363
 20
22.0147653696000098
 30
0.0
 11
87.1385937228000103
 21
22.0217026352000005
 31
0.0
  0
LINE
  5
C4B
  8
0
 10
87.1385937228000103
 20
22.0217026352000005
 30
0.0
 11
87.1092542800500098
 21
22.0243266376000015
 31
0.0
  0
ARC
  5
C4F
  8
0
 10
86.3438673742001015
 20
21.111198465999891
 30
0.0
 40
0.2082658606001445
 50
117.1680207603084938
 51
137.6068829969065916
  0
LINE
  5
C50
  8
0
 10
86.1900554677885538
 20
21.2516141564962595
 30
0.0
 11
85.4202194709999958
 21
20.3474288924
 31
0.0
  0
LINE
  5
C51
  8
0
 10
85.4202194709999958
 20
20.3474288924
 30
0.0
 11
84.6360392058000031
 21
19.1085881865999987
 31
0.0
  0
LINE
  5
C52
  8
0
 10
84.6360392058000031
 20
19.1085881865999987
 30
0.0
 11
84.4880954047000046
 21
18.7616541412000011
 31
0.0
  0
LINE
  5
C53
  8
0
 10
84.4880954047000046
 20
18.7616541412000011
 30
0.0
 11
83.0591433406647042
 21
2.4286573111731919
 31
0.0
  0
LINE
  5
C54
  8
0
 10
83.0591433406647042
 20
2.4286573111731919
 30
0.0
 11
83.0558660955074259
 21
2.391198227614316
 31
0.0
  0
LINE
  5
C55
  8
0
 10
83.0558660955074259
 20
2.391198227614316
 30
0.0
 11
82.9729265834999978
 21
1.4431952675999999
 31
0.0
  0
LINE
  5
C56
  8
0
 10
82.9729265834999978
 20
1.4431952675999999
 30
0.0
 11
82.9709812168147067
 21
1.4343327196595961
 31
0.0
  0
LINE
  5
C57
  8
0
 10
82.9709812168147067
 20
1.4343327196595961
 30
0.0
 11
82.8434851437999953
 21
0.8534961772000002
 31
0.0
  0
LINE
  5
C58
  8
0
 10
82.8434851437999953
 20
0.8534961772000002
 30
0.0
 11
82.5682399025999985
 21
0.3164828586000006
 31
0.0
  0
LINE
  5
C59
  8
0
 10
82.5682399025999985
 20
0.3164828586000006
 30
0.0
 11
82.4247652104267274
 21
0.1565349363298019
 31
0.0
  0
LINE
  5
C5A
  8
0
 10
82.4247652104267274
 20
0.1565349363298019
 30
0.0
 11
82.3171621630013135
 21
-1.8966535197751671
 31
0.0
  0
LINE
  5
C5B
  8
0
 10
82.5150195857600863
 20
0.2571519830834588
 30
0.0
 11
82.5136245008999936
 21
0.2412060903999986
 31
0.0
  0
ARC
  5
C5C
  8
0
 10
82.9198196845067486
 20
-0.0604373625823086
 30
0.0
 40
0.5059479221347047
 50
143.4021558596816988
 51
175.3239797290181912
  0
ARC
  5
C5D
  8
0
 10
82.2572443904889212
 20
-1.893513362210502
 30
0.0
 40
0.0600000004204417
 50
270.0000003925634928
 51
356.9999998395351213
  0
LINE
  5
C5E
  8
0
 10
82.2572443908999844
 20
-1.95351336263095
 30
0.0
 11
81.9911201388999871
 21
-1.953513362630918
 31
0.0
  0
ARC
  5
C5F
  8
0
 10
81.9911201393227458
 20
-1.8935133621812861
 30
0.0
 40
0.0600000004496552
 50
183.0000002109505886
 51
269.9999995963087258
  0
LINE
  5
C60
  8
0
 10
81.9312023667999938
 20
-1.8966535198000001
 30
0.0
 11
81.8870934273526814
 21
-1.058389773923053
 31
0.0
  0
ARC
  5
C61
  8
0
 10
81.3803405218847331
 20
-1.103806001129491
 30
0.0
 40
0.5087839825445459
 50
5.1212821018778261
 51
105.7461936264749056
  0
LINE
  5
C62
  8
0
 10
81.8870934273526814
 20
-1.058389773923053
 30
0.0
 11
81.8494187627172352
 21
-0.3361288546392139
 31
0.0
  0
ARC
  5
C63
  8
0
 10
81.3462588160264772
 20
-0.3670182780108726
 30
0.0
 40
0.504107219180689
 50
3.5130284342193931
 51
102.671279108374506
  0
LINE
  5
C64
  8
0
 10
81.2356792847999856
 20
0.1248112206000016
 30
0.0
 11
81.2336977579999768
 21
0.202224933
 31
0.0
  0
LINE
  5
C65
  8
0
 10
82.4247652104267274
 20
0.1565349363298037
 30
0.0
 11
82.4535006000423891
 21
0.7048388334053507
 31
0.0
  0
ARC
  5
C66
  8
0
 10
82.9671887627411593
 20
0.6586609748251693
 30
0.0
 40
0.5157595594071714
 50
142.7050847334149921
 51
174.8632185744347964
  0
LINE
  5
C67
  8
0
 10
82.5568879754999756
 20
0.9711688740999999
 30
0.0
 11
82.5615971854885657
 21
1.0538789327991649
 31
0.0
  0
ARC
  5
C68
  8
0
 10
82.5605081007878852
 20
1.0543323055001901
 30
0.0
 40
0.0011796831317247
 50
337.398632628487519
 51
0.4510888019426237
  0
ARC
  5
C69
  8
0
 10
82.5615616311955023
 20
1.054348051559991
 30
0.0
 40
0.0001262814290262
 50
357.0683897685398733
 51
53.4539813151357208
  0
ARC
  5
C6A
  8
0
 10
82.5615736488904304
 20
1.05431097410426
 30
0.0
 40
0.0001522561486584
 50
65.4837559421361988
 51
101.0466258710784047
  0
ARC
  5
C6B
  8
0
 10
82.5622701992468251
 20
1.0523249141959401
 30
0.0
 40
0.0022554409580081
 50
108.7697480190005024
 51
129.6576908943293915
  0
ARC
  5
C6C
  8
0
 10
82.5705114981070949
 20
1.0422105645064521
 30
0.0
 40
0.0153021756228039
 50
129.2449333601460921
 51
136.0261087633028012
  0
ARC
  5
C6D
  8
0
 10
80.5437672673101872
 20
2.736116573943713
 30
0.0
 40
2.6261399296358592
 50
285.2313154172397276
 51
320.1356888431022867
  0
ARC
  5
C6E
  8
0
 10
80.4170218388409381
 20
2.033054770600554
 30
0.0
 40
2.7728216582558729
 50
284.0296010809619247
 51
301.109539104457383
  0
LINE
  5
C6F
  8
0
 10
81.0892180088000032
 20
-0.6570553122000029
 30
0.0
 11
80.7138935803199473
 21
-0.7005666036882517
 31
0.0
  0
LINE
  5
C70
  8
0
 10
84.6360392058000031
 20
19.1085881865999987
 30
0.0
 11
84.4186667472999943
 21
18.7392249381000013
 31
0.0
  0
LINE
  5
C71
  8
0
 10
84.4186667472999943
 20
18.7392249381000013
 30
0.0
 11
83.7378182208000084
 21
17.0327552874999988
 31
0.0
  0
ARC
  5
C72
  8
0
 10
77.843048463721118
 20
18.1573175922771384
 30
0.0
 40
6.0010791418125526
 50
333.8567400021238996
 51
349.1992981729919734
  0
ARC
  5
C73
  8
0
 10
85.0957947116711182
 20
20.2802998163981414
 30
0.0
 40
1.5116983610358969
 50
137.7617234176092893
 51
180.8099886043904121
  0
ARC
  5
C74
  8
0
 10
48.9713432230036574
 20
22.5304068587377913
 30
0.0
 40
34.6873571288204303
 50
350.7922365936572078
 51
356.2453394953266752
  0
LINE
  5
C75
  8
0
 10
83.2117396232373778
 20
16.9799114810988101
 30
0.0
 11
83.101676341572329
 21
16.2027972752833413
 31
0.0
  0
LINE
  5
C76
  8
0
 10
83.101676341572329
 20
16.2027972752833413
 30
0.0
 11
83.0689623712810459
 21
15.8828470461462903
 31
0.0
  0
ARC
  5
C77
  8
0
 10
85.3806818605339544
 20
15.6243446411324101
 30
0.0
 40
2.3261277889208261
 50
173.6195451600401896
 51
183.5581390514797135
  0
ARC
  5
C78
  8
0
 10
83.2832824172886745
 20
15.4977807478670595
 30
0.0
 40
0.2249496055791857
 50
184.5381602865350033
 51
199.779666582004694
  0
ARC
  5
C79
  8
0
 10
83.1150356048054988
 20
15.4308241965326705
 30
0.0
 40
0.0443879349749707
 50
191.9188852222918911
 51
305.5816764079366976
  0
ARC
  5
C7A
  8
0
 10
82.8216466635761606
 20
15.7284180344789597
 30
0.0
 40
0.461790992368913
 50
313.729758759791423
 51
332.2132860916620984
  0
LINE
  5
DE1
  8
0
 10
52.7591103355499413
 20
22.0243266376000015
 30
0.0
 11
87.1092542800500098
 21
22.0243266376000015
 31
0.0
  0
ENDSEC
  0
EOF
