  0
SECTION
  2
HEADER
  9
$ACADVER
  1
AC1009
  9
$INSBASE
 10
4288.0444912385110001
 20
227.0014009389952889
 30
0.0
  9
$EXTMIN
 10
4285.2882652229473024
 20
223.7423816531928082
 30
0.0
  9
$EXTMAX
 10
4290.8007172540756073
 20
227.0057923584537036
 30
0.0
  9
$LIMMIN
 10
0.0
 20
0.0
  9
$LIMMAX
 10
11.6929133858000007
 20
8.2677165353999982
  9
$ORTHOMODE
 70
     0
  9
$REGENMODE
 70
     1
  9
$FILLMODE
 70
     1
  9
$QTEXTMODE
 70
     0
  9
$MIRRTEXT
 70
     0
  9
$DRAGMODE
 70
     2
  9
$LTSCALE
 40
0.6431102362
  9
$OSMODE
 70
   695
  9
$ATTMODE
 70
     1
  9
$TEXTSIZE
 40
0.2
  9
$TRACEWID
 40
0.05
  9
$TEXTSTYLE
  7
STANDARD
  9
$CLAYER
  8
0
  9
$CELTYPE
  6
BYLAYER
  9
$CECOLOR
 62
   256
  9
$DIMSCALE
 40
1.0
  9
$DIMASZ
 40
0.1875
  9
$DIMEXO
 40
0.0625
  9
$DIMDLI
 40
0.4443307087
  9
$DIMRND
 40
0.0
  9
$DIMDLE
 40
0.0
  9
$DIMEXE
 40
0.125
  9
$DIMTP
 40
0.01
  9
$DIMTM
 40
0.01
  9
$DIMTXT
 40
2.0
  9
$DIMCEN
 40
0.1052362205
  9
$DIMTSZ
 40
0.0
  9
$DIMTOL
 70
     1
  9
$DIMLIM
 70
     0
  9
$DIMTIH
 70
     1
  9
$DIMTOH
 70
     1
  9
$DIMSE1
 70
     0
  9
$DIMSE2
 70
     0
  9
$DIMTAD
 70
     0
  9
$DIMZIN
 70
     0
  9
$DIMBLK
  1

  9
$DIMASO
 70
     1
  9
$DIMSHO
 70
     1
  9
$DIMPOST
  1
\X
  9
$DIMAPOST
  1

  9
$DIMALT
 70
     1
  9
$DIMALTD
 70
     2
  9
$DIMALTF
 40
25.3999999999999986
  9
$DIMLFAC
 40
1.0
  9
$DIMTOFL
 70
     0
  9
$DIMTVP
 40
0.0
  9
$DIMTIX
 70
     0
  9
$DIMSOXD
 70
     0
  9
$DIMSAH
 70
     0
  9
$DIMBLK1
  1

  9
$DIMBLK2
  1

  9
$DIMSTYLE
  2
STANDARD
  9
$DIMCLRD
 70
     0
  9
$DIMCLRE
 70
     0
  9
$DIMCLRT
 70
     0
  9
$DIMTFAC
 40
1.0
  9
$DIMGAP
 40
0.09
  9
$LUNITS
 70
     2
  9
$LUPREC
 70
     4
  9
$SKETCHINC
 40
0.1
  9
$FILLETRAD
 40
0.0
  9
$AUNITS
 70
     0
  9
$AUPREC
 70
     0
  9
$MENU
  1
.
  9
$ELEVATION
 40
0.0
  9
$PELEVATION
 40
0.0
  9
$THICKNESS
 40
0.0
  9
$LIMCHECK
 70
     0
  9
$BLIPMODE
 70
     0
  9
$CHAMFERA
 40
0.0
  9
$CHAMFERB
 40
0.0
  9
$SKPOLY
 70
     0
  9
$TDCREATE
 40
2458060.468368056230247
  9
$TDUPDATE
 40
2459345.6355324070900679
  9
$TDINDWG
 40
0.6391042823999999
  9
$TDUSRTIMER
 40
0.6391042823999999
  9
$USRTIMER
 70
     1
  9
$ANGBASE
 50
0.0
  9
$ANGDIR
 70
     0
  9
$PDMODE
 70
     0
  9
$PDSIZE
 40
0.3125
  9
$PLINEWID
 40
0.0
  9
$COORDS
 70
     1
  9
$SPLFRAME
 70
     0
  9
$SPLINETYPE
 70
     6
  9
$SPLINESEGS
 70
     8
  9
$ATTDIA
 70
     1
  9
$ATTREQ
 70
     1
  9
$HANDLING
 70
     1
  9
$HANDSEED
  5
138E2
  9
$SURFTAB1
 70
     6
  9
$SURFTAB2
 70
     6
  9
$SURFTYPE
 70
     6
  9
$SURFU
 70
     6
  9
$SURFV
 70
     6
  9
$UCSNAME
  2

  9
$UCSORG
 10
0.0
 20
0.0
 30
0.0
  9
$UCSXDIR
 10
1.0
 20
0.0
 30
0.0
  9
$UCSYDIR
 10
0.0
 20
1.0
 30
0.0
  9
$PUCSNAME
  2

  9
$PUCSORG
 10
0.0
 20
0.0
 30
0.0
  9
$PUCSXDIR
 10
1.0
 20
0.0
 30
0.0
  9
$PUCSYDIR
 10
0.0
 20
1.0
 30
0.0
  9
$USERI1
 70
     0
  9
$USERI2
 70
     0
  9
$USERI3
 70
     0
  9
$USERI4
 70
     0
  9
$USERI5
 70
     0
  9
$USERR1
 40
0.0
  9
$USERR2
 40
0.0
  9
$USERR3
 40
0.0
  9
$USERR4
 40
0.0
  9
$USERR5
 40
0.0
  9
$WORLDVIEW
 70
     1
  9
$SHADEDGE
 70
     3
  9
$SHADEDIF
 70
    70
  9
$TILEMODE
 70
     1
  9
$MAXACTVP
 70
    64
  9
$PLIMCHECK
 70
     0
  9
$PEXTMIN
 10
1.0000000000000000E+20
 20
1.0000000000000000E+20
 30
1.0000000000000000E+20
  9
$PEXTMAX
 10
-1.0000000000000000E+20
 20
-1.0000000000000000E+20
 30
-1.0000000000000000E+20
  9
$PLIMMIN
 10
0.0
 20
0.0
  9
$PLIMMAX
 10
12.0
 20
9.0
  9
$UNITMODE
 70
     0
  9
$VISRETAIN
 70
     1
  9
$PLINEGEN
 70
     0
  9
$PSLTSCALE
 70
     1
  0
ENDSEC
  0
SECTION
  2
TABLES
  0
TABLE
  2
VPORT
 70
     1
  0
VPORT
  2
*ACTIVE
 70
     0
 10
0.0
 20
0.0
 11
1.0
 21
1.0
 12
126.4880947449184987
 22
-0.7367452123661913
 13
0.0
 23
0.0
 14
1.0
 24
1.0
 15
0.0
 25
0.0
 16
0.0
 26
0.0
 36
202.37134017897489
 17
4161.556396484375
 27
226.1108322143554972
 37
0.0
 40
4.3472223298093118
 41
2.404287901990811
 42
50.0
 43
0.0
 44
0.0
 50
0.0
 51
0.0
 71
     0
 72
   100
 73
     1
 74
     1
 75
     0
 76
     0
 77
     0
 78
     0
  0
ENDTAB
  0
TABLE
  2
LTYPE
 70
     2
  0
LTYPE
  2
CONTINUOUS
 70
     0
  3
Solid line
 72
    65
 73
     0
 40
0.0
  0
LTYPE
  2
PHANTOM2
 70
     0
  3
___ _ _ ___ _ _ ___ _ _ ___ _ _
 72
    65
 73
     6
 40
1.25
 49
0.625
 49
-0.125
 49
0.125
 49
-0.125
 49
0.125
 49
-0.125
  0
ENDTAB
  0
TABLE
  2
LAYER
 70
     2
  0
LAYER
  2
0
 70
     0
 62
   255
  6
CONTINUOUS
  0
LAYER
  2
DEFPOINTS
 70
     0
 62
     7
  6
CONTINUOUS
  0
ENDTAB
  0
TABLE
  2
STYLE
 70
     1
  0
STYLE
  2
STANDARD
 70
     0
 40
0.0
 41
0.8
 50
0.0
 71
     0
 42
0.2
  3
txt
  4

  0
ENDTAB
  0
TABLE
  2
VIEW
 70
     0
  0
ENDTAB
  0
TABLE
  2
UCS
 70
     0
  0
ENDTAB
  0
TABLE
  2
APPID
 70
     9
  0
APPID
  2
ACAD
 70
     0
  0
APPID
  2
ACAD_MLEADERVER
 70
     0
  0
APPID
  2
ACAD_EXEMPT_FROM_CAD_STANDARDS
 70
     0
  0
APPID
  2
ACAD_NAV_VCDISPLAY
 70
     0
  0
APPID
  2
ACAECLAYERSTANDARD
 70
     0
  0
APPID
  2
ACCMTRANSPARENCY
 70
     0
  0
APPID
  2
ACAD_DSTYLE_DIMJAG
 70
     0
  0
APPID
  2
ACAD_DSTYLE_DIMTALN
 70
     0
  0
APPID
  2
ACDBATTR
 70
     0
  0
ENDTAB
  0
TABLE
  2
DIMSTYLE
 70
     1
  0
DIMSTYLE
  2
STANDARD
 70
     0
  3

  4

  5

  6

  7

 40
1.0
 41
0.1875
 42
0.0625
 43
0.38
 44
0.125
 45
0.0
 46
0.0
 47
0.01
 48
0.01
140
0.15625
141
0.09
142
0.0
143
25.3999999999999986
144
1.0
145
0.0
146
1.0
147
0.09
 71
     1
 72
     0
 73
     1
 74
     1
 75
     0
 76
     0
 77
     0
 78
     4
170
     0
171
     2
172
     0
173
     0
174
     0
175
     0
176
     0
177
     0
178
     0
  0
ENDTAB
  0
ENDSEC
  0
SECTION
  2
BLOCKS
  0
BLOCK
  8
0
  2
$MODEL_SPACE
 70
     0
 10
0.0
 20
0.0
 30
0.0
  3
$MODEL_SPACE
  1

  0
ENDBLK
  5
21
  8
0
  0
BLOCK
 67
     1
  8
0
  2
$PAPER_SPACE
 70
     0
 10
0.0
 20
0.0
 30
0.0
  3
$PAPER_SPACE
  1

  0
ENDBLK
  5
1D
 67
     1
  8
0
  0
ENDSEC
  0
SECTION
  2
ENTITIES
  0
ATTDEF
  5
12CA7
  8
DEFPOINTS
 10
4288.0444899420826914
 20
227.0047923584536136
 30
0.0
 40
0.001
  1
K-8588T-4
  3

  2
MODELNUMBER
 70
     0
1001
ACDBATTR
1070
     0
1070
     1
  0
ATTDEF
  5
12CA8
  8
DEFPOINTS
 10
4288.0444899420826914
 20
227.0031256917868916
 30
0.0
 40
0.001
  1
ELOSIS
  3

  2
TRADENAME
 70
     0
1001
ACDBATTR
1070
     0
1070
     1
  0
ATTDEF
  5
12CA9
  8
DEFPOINTS
 10
4288.0444899420826914
 20
227.0014590251203117
 30
0.0
 40
0.001
  1
VALVE TRIM
  3

  2
PRODUCT
 70
     0
1001
ACDBATTR
1070
     0
1070
     1
  0
LINE
  5
136BD
  8
0
 10
4285.3011565391607292
 20
226.6414199696951925
 30
0.0
 11
4285.2882652229473024
 21
227.0014009389952889
 31
0.0
  0
LINE
  5
136BE
  8
0
 10
4287.0646013368614149
 20
225.3721507984951984
 30
0.0
 11
4287.1535277890607176
 21
224.4575046372953011
 31
0.0
  0
LINE
  5
136BF
  8
0
 10
4287.0799243093606492
 20
225.832109600395313
 30
0.0
 11
4287.0799243093606492
 21
226.5174366543056976
 31
0.0
  0
LINE
  5
136C0
  8
0
 10
4287.0996093487610779
 20
225.7469776283953138
 30
0.0
 11
4287.0996093487610779
 21
225.8202985767952953
 31
0.0
  0
LINE
  5
136C1
  8
0
 10
4287.2051880127610275
 20
225.4172216106952931
 30
0.0
 11
4287.2453230851606349
 21
225.4199032997952941
 31
0.0
  0
LINE
  5
136C2
  8
0
 10
4287.3193352652606336
 20
225.4199032997952941
 30
0.0
 11
4287.2453230851606349
 21
225.4199032997952941
 31
0.0
  0
LINE
  5
136C3
  8
0
 10
4287.1292254835843778
 20
225.7088349530953053
 30
0.0
 11
4288.9597569934376224
 21
225.7088349530953053
 31
0.0
  0
LINE
  5
136C4
  8
0
 10
4287.0917353337617897
 20
225.8202985767952953
 30
0.0
 11
4288.9972471440605659
 21
225.8202985767952953
 31
0.0
  0
LINE
  5
136C5
  8
0
 10
4287.0656093829611564
 20
226.5169936427953132
 30
0.0
 11
4287.0752020627605816
 21
226.5173449831953008
 31
0.0
  0
LINE
  5
136C6
  8
0
 10
4287.0752020627605816
 20
226.5173449831953008
 30
0.0
 11
4287.1650021927607668
 21
226.5190882376952004
 31
0.0
  0
LINE
  5
136C7
  8
0
 10
4290.8007172540756073
 20
227.0014009389952889
 30
0.0
 11
4285.2882652229473024
 21
227.0014009389952889
 31
0.0
  0
ARC
  5
136C8
  8
0
 10
4288.0446863097622554
 20
258.7054939512009923
 30
0.0
 40
32.2159040703057471
 50
265.1790547485921934
 51
268.2839203832546104
  0
ARC
  5
136C9
  8
0
 10
4288.1821795848672991
 20
225.6952664972646119
 30
0.0
 40
1.0236220564984071
 50
181.3246801048487953
 51
195.8285749912683968
  0
ARC
  5
136CA
  8
0
 10
4285.3405148291285514
 20
226.6428055738805085
 30
0.0
 40
0.0393826724357486
 50
182.0162587954463902
 51
265.1621655198783856
  0
ARC
  5
136CB
  8
0
 10
4287.1194715406609248
 20
225.6706922775952933
 30
0.0
 40
0.0393700787
 50
1.3246797043998411
 51
75.6555827455075161
  0
ARC
  5
136CC
  8
0
 10
4287.1389794274609812
 20
225.7469776283953138
 30
0.0
 40
0.0393700787
 50
180.0
 51
255.6555808182089038
  0
ARC
  5
136CD
  8
0
 10
4287.0917353329614343
 20
225.832109600395313
 30
0.0
 40
0.0118110236
 50
180.0
 51
270.0000037242123199
  0
LINE
  5
136CE
  8
0
 10
4288.0444912385110001
 20
226.604838882260708
 30
0.0
 11
4285.3371934581546157
 21
226.6035632066858909
 31
0.0
  0
ARC
  5
136CF
  8
0
 10
4287.8126178741285912
 20
71.795235007808742
 30
0.0
 40
154.725208561417702
 50
89.9141357103091394
 51
90.2398171182402962
  0
ARC
  5
136D0
  8
0
 10
4287.1022290409882771
 20
225.9429823408248126
 30
0.0
 40
0.575178210769353
 50
93.6502980466835737
 51
97.2048699727036762
  0
ARC
  5
136D1
  8
0
 10
4287.0876547111292894
 20
226.7945391115372047
 30
0.0
 40
0.2867571068872166
 50
258.4198672018032994
 51
268.4552324959303746
  0
ARC
  5
136D2
  8
0
 10
4288.0612967157203457
 20
226.6090062005200139
 30
0.0
 40
2.8666738076388971
 50
264.5044940228441988
 51
269.6641095232081966
  0
ARC
  5
136D3
  8
0
 10
4287.8118384021654492
 20
224.3892369964098918
 30
0.0
 40
0.6342244850271141
 50
230.9146679091560088
 51
267.7340115451083875
  0
ARC
  5
136D4
  8
0
 10
4287.8720864801625794
 20
224.4256859982779986
 30
0.0
 40
0.7009051970853087
 50
194.0487812573383906
 51
228.9699989990633071
  0
ARC
  5
136D5
  8
0
 10
4288.5498575294477632
 20
224.6198296082428101
 30
0.0
 40
1.4057333104398559
 50
186.6309375956558085
 51
195.0192563538280126
  0
ARC
  5
136D6
  8
0
 10
4287.2684226239543932
 20
224.4683644097387969
 30
0.0
 40
0.1154069224209706
 50
167.2548163236039045
 51
185.3995121057018025
  0
ARC
  5
136D7
  8
0
 10
4287.3120360979210091
 20
224.4563352987553912
 30
0.0
 40
0.1606134783128164
 50
144.9778345362192908
 51
166.5017650688054118
  0
ARC
  5
136D8
  8
0
 10
4287.42018387472217
 20
224.3804425559073081
 30
0.0
 40
0.2927332952480519
 50
131.2857797142461038
 51
144.9610867468880997
  0
ARC
  5
136D9
  8
0
 10
4287.6188049166457859
 20
224.1433326079119865
 30
0.0
 40
0.6020005603735546
 50
114.3800981515745008
 51
130.6005607619894135
  0
ARC
  5
136DA
  8
0
 10
4287.8920765620041493
 20
223.5610272034637944
 30
0.0
 40
1.2452126267473671
 50
102.6759167835940048
 51
114.7727975175988036
  0
ARC
  5
136DB
  8
0
 10
4288.0444912385110001
 20
222.8960956996936886
 30
0.0
 40
1.9273849728804451
 50
77.2411486527164755
 51
102.7588513472834961
  0
ARC
  5
136DC
  8
0
 10
4287.3114694775167663
 20
224.7622663628492887
 30
0.0
 40
0.6576839753654581
 50
81.8051103811132663
 51
89.3147359493958959
  0
ARC
  5
136DD
  8
0
 10
4286.9583325383082411
 20
222.4936932098509033
 30
0.0
 40
2.9535448976943162
 50
77.8512196569555215
 51
81.2974876641915785
  0
ARC
  5
136DE
  8
0
 10
4288.815968513322332
 20
231.344164542769505
 30
0.0
 40
6.0898341996934091
 50
258.2892518310192145
 51
259.5545375179979146
  0
ARC
  5
136DF
  8
0
 10
4288.1279041111883998
 20
227.6259822401896997
 30
0.0
 40
2.308525562725166
 50
259.6180019848220013
 51
262.9953985240717884
  0
ARC
  5
136E0
  8
0
 10
4288.0553764078467793
 20
227.0256583311879979
 30
0.0
 40
1.703838008363415
 50
262.9542872167386918
 51
267.8187667963670719
  0
ARC
  5
136E1
  8
0
 10
4288.0444912385110001
 20
226.7092370511917068
 30
0.0
 40
1.3872321905587139
 50
267.7706136920572249
 51
272.2293863079427751
  0
ARC
  5
136E2
  8
0
 10
4288.1158687126671794
 20
227.2150939178951887
 30
0.0
 40
1.934517789502876
 50
256.906508512724713
 51
263.7557943330205035
  0
ARC
  5
136E3
  8
0
 10
4290.4797833239417741
 20
237.135132818666392
 30
0.0
 40
12.1323008253333509
 50
255.5909773796367119
 51
256.6459881231908184
  0
ARC
  5
136E4
  8
0
 10
4287.1206884005741813
 20
224.0945754203611955
 30
0.0
 40
1.3339642763766271
 50
75.2307216555880416
 51
82.1731466747687307
  0
ARC
  5
136E5
  8
0
 10
4287.2414625613191674
 20
224.9332727308384108
 30
0.0
 40
0.4866635056879244
 50
82.8130709942879264
 51
89.3333990377522724
  0
ARC
  5
136E6
  8
0
 10
4287.3955468723988815
 20
224.105604575106014
 30
0.0
 40
1.325358722569338
 50
98.2578481300016051
 51
100.0869876718476945
  0
ARC
  5
136E7
  8
0
 10
4287.2534170216540588
 20
224.8777706094475946
 30
0.0
 40
0.5402553921096506
 50
99.5892349486107804
 51
106.4050987047967993
  0
ARC
  5
136E8
  8
0
 10
4287.1383257591969596
 20
225.2679693323615027
 30
0.0
 40
0.1334374046519864
 50
106.3178573996845984
 51
117.8577977263741019
  0
ARC
  5
136E9
  8
0
 10
4287.0919317921243419
 20
225.3560440329569872
 30
0.0
 40
0.033891043506521
 50
118.0912040444083999
 51
135.398883191128192
  0
ARC
  5
136EA
  8
0
 10
4287.0769668425291457
 20
225.3709252199444961
 30
0.0
 40
0.0127870377525737
 50
135.791833341831591
 51
158.3259726978805872
  0
ARC
  5
136EB
  8
0
 10
4287.072535045762379
 20
225.3728379070176118
 30
0.0
 40
0.0079634072510158
 50
159.3382341548698093
 51
184.9498198248518008
  0
LINE
  5
136EC
  8
0
 10
4290.7878259378612711
 20
226.6414199696951925
 30
0.0
 11
4290.8007172540756073
 21
227.0014009389952889
 31
0.0
  0
LINE
  5
136ED
  8
0
 10
4289.0243811401605853
 20
225.3721507984951984
 30
0.0
 11
4288.9354546879612826
 21
224.4575046372953011
 31
0.0
  0
LINE
  5
136EE
  8
0
 10
4289.009058167661351
 20
225.832109600395313
 30
0.0
 11
4289.009058167661351
 21
226.5174366543056976
 31
0.0
  0
LINE
  5
136EF
  8
0
 10
4288.9893731282609224
 20
225.7469776283953138
 30
0.0
 11
4288.9893731282609224
 21
225.8202985767952953
 31
0.0
  0
LINE
  5
136F0
  8
0
 10
4288.8837944642600633
 20
225.4172216106952931
 30
0.0
 11
4288.8436593918613653
 21
225.4199032997952941
 31
0.0
  0
LINE
  5
136F1
  8
0
 10
4288.7696472117613666
 20
225.4199032997952941
 30
0.0
 11
4288.8436593918613653
 21
225.4199032997952941
 31
0.0
  0
LINE
  5
136F2
  8
0
 10
4289.0233730940608439
 20
226.5169936427953132
 30
0.0
 11
4289.0137804142614186
 21
226.5173449831953008
 31
0.0
  0
LINE
  5
136F3
  8
0
 10
4289.0137804142614186
 20
226.5173449831953008
 30
0.0
 11
4288.9239802842612335
 21
226.5190882376952004
 31
0.0
  0
ARC
  5
136F4
  8
0
 10
4288.0442961672597448
 20
258.7054939512009923
 30
0.0
 40
32.2159040703057471
 50
271.7160796167453896
 51
274.8209452514079203
  0
ARC
  5
136F5
  8
0
 10
4287.9068028921537916
 20
225.6952664972646119
 30
0.0
 40
1.0236220564984071
 50
344.1714250087316032
 51
358.6753198951511763
  0
ARC
  5
136F6
  8
0
 10
4290.7484676478934489
 20
226.6428055738805085
 30
0.0
 40
0.0393826724357486
 50
274.8378344801216144
 51
357.9837412045534961
  0
ARC
  5
136F7
  8
0
 10
4288.9695109363610754
 20
225.6706922775952933
 30
0.0
 40
0.0393700787
 50
104.3444172544924982
 51
178.6753202956001019
  0
ARC
  5
136F8
  8
0
 10
4288.950003049561019
 20
225.7469776283953138
 30
0.0
 40
0.0393700787
 50
284.3444191817911815
 51
0.0
  0
ARC
  5
136F9
  8
0
 10
4288.9972471440605659
 20
225.832109600395313
 30
0.0
 40
0.0118110236
 50
269.9999962757876801
 51
0.0
  0
LINE
  5
136FA
  8
0
 10
4288.0444912385110001
 20
226.604838882260708
 30
0.0
 11
4290.7517890188673846
 21
226.6035632066858909
 31
0.0
  0
ARC
  5
136FB
  8
0
 10
4288.2763646028943185
 20
71.795235007808742
 30
0.0
 40
154.725208561417702
 50
89.7601828817597038
 51
90.0858642896908748
  0
ARC
  5
136FC
  8
0
 10
4288.9867534360337231
 20
225.9429823408248126
 30
0.0
 40
0.575178210769353
 50
82.7951300272963238
 51
86.3497019533164547
  0
ARC
  5
136FD
  8
0
 10
4289.0013277658927109
 20
226.7945391115372047
 30
0.0
 40
0.2867571068872166
 50
271.5447675040696254
 51
281.5801327981965869
  0
ARC
  5
136FE
  8
0
 10
4288.0276857613016546
 20
226.6090062005200139
 30
0.0
 40
2.8666738076388971
 50
270.3358904767918034
 51
275.4955059771558012
  0
ARC
  5
136FF
  8
0
 10
4288.277144074854732
 20
224.3892369964098918
 30
0.0
 40
0.6342244850271141
 50
272.2659884548916125
 51
309.0853320908440196
  0
ARC
  5
13700
  8
0
 10
4288.2168959968594208
 20
224.4256859982779986
 30
0.0
 40
0.7009051970853087
 50
311.0300010009368066
 51
345.9512187426599894
  0
ARC
  5
13701
  8
0
 10
4287.5391249475751465
 20
224.6198296082428101
 30
0.0
 40
1.4057333104398559
 50
344.9807436461720158
 51
353.3690624043442199
  0
ARC
  5
13702
  8
0
 10
4288.820559853069426
 20
224.4683644097387969
 30
0.0
 40
0.1154069224209706
 50
354.6004878942982259
 51
12.7451836763961399
  0
ARC
  5
13703
  8
0
 10
4288.7769463791009912
 20
224.4563352987553912
 30
0.0
 40
0.1606134783128164
 50
13.4982349311945704
 51
35.022165463781981
  0
ARC
  5
13704
  8
0
 10
4288.6687986022998302
 20
224.3804425559073081
 30
0.0
 40
0.2927332952480519
 50
35.0389132531119287
 51
48.7142202857539175
  0
ARC
  5
13705
  8
0
 10
4288.4701775603771239
 20
224.1433326079119865
 30
0.0
 40
0.6020005603735546
 50
49.3994392380106007
 51
65.619901848425485
  0
ARC
  5
13706
  8
0
 10
4288.1969059150178509
 20
223.5610272034637944
 30
0.0
 40
1.2452126267473671
 50
65.2272024824011396
 51
77.324083216405981
  0
ARC
  5
13707
  8
0
 10
4288.7775129995061434
 20
224.7622663628492887
 30
0.0
 40
0.6576839753654581
 50
90.6852640506041041
 51
98.1948896188867337
  0
ARC
  5
13708
  8
0
 10
4289.1306499387146687
 20
222.4936932098509033
 30
0.0
 40
2.9535448976943162
 50
98.7025123358084358
 51
102.1487803430445069
  0
ARC
  5
13709
  8
0
 10
4287.2730139637005777
 20
231.344164542769505
 30
0.0
 40
6.0898341996934091
 50
280.4454624820020854
 51
281.7107481689807855
  0
ARC
  5
1370A
  8
0
 10
4287.9610783658326909
 20
227.6259822401896997
 30
0.0
 40
2.308525562725166
 50
277.0046014759282116
 51
280.3819980151779987
  0
ARC
  5
1370B
  8
0
 10
4288.0336060691761304
 20
227.0256583311879979
 30
0.0
 40
1.703838008363415
 50
272.1812332036329281
 51
277.0457127832614219
  0
ARC
  5
1370C
  8
0
 10
4288.0444912385110001
 20
226.612476669526302
 30
0.0
 40
1.3277232157447221
 50
263.9892350751248955
 51
276.0107649248752182
  0
ARC
  5
1370D
  8
0
 10
4287.9731137643557304
 20
227.2150939178951887
 30
0.0
 40
1.934517789502876
 50
276.2442056669794965
 51
283.093491487275287
  0
ARC
  5
1370E
  8
0
 10
4285.6091991530802261
 20
237.135132818666392
 30
0.0
 40
12.1323008253333509
 50
283.3540118768091816
 51
284.4090226203633165
  0
ARC
  5
1370F
  8
0
 10
4288.9682940764487284
 20
224.0945754203611955
 30
0.0
 40
1.3339642763766271
 50
97.8268533252312693
 51
104.7692783444119016
  0
ARC
  5
13710
  8
0
 10
4288.8475199157028328
 20
224.9332727308384108
 30
0.0
 40
0.4866635056879244
 50
90.6666009622477418
 51
97.1869290057120878
  0
ARC
  5
13711
  8
0
 10
4288.6934356046231187
 20
224.105604575106014
 30
0.0
 40
1.325358722569338
 50
79.9130123281523055
 51
81.7421518699983807
  0
ARC
  5
13712
  8
0
 10
4288.835565455368851
 20
224.8777706094475946
 30
0.0
 40
0.5402553921096506
 50
73.594901295203158
 51
80.4107650513892338
  0
ARC
  5
13713
  8
0
 10
4288.9506567178250407
 20
225.2679693323615027
 30
0.0
 40
0.1334374046519864
 50
62.1422022736258981
 51
73.6821426003154016
  0
ARC
  5
13714
  8
0
 10
4288.9970506848985679
 20
225.3560440329569872
 30
0.0
 40
0.033891043506521
 50
44.6011168088718222
 51
61.9087959555915575
  0
ARC
  5
13715
  8
0
 10
4289.0120156344937641
 20
225.3709252199444961
 30
0.0
 40
0.0127870377525737
 50
21.6740273021193914
 51
44.2081666581683308
  0
ARC
  5
13716
  8
0
 10
4289.0164474312614402
 20
225.3728379070176118
 30
0.0
 40
0.0079634072510158
 50
355.0501801751465791
 51
20.6617658451301587
  0
ENDSEC
  0
EOF
