  0
SECTION
  2
HEADER
  9
$ACADVER
  1
AC1009
  9
$INSBASE
 10
6156.2986341513578736
 20
35.6320667993483085
 30
0.0
  9
$EXTMIN
 10
6148.9451373063093342
 20
34.1354095621030211
 30
-0.0015258207003583
  9
$EXTMAX
 10
6163.5176496517933629
 20
35.6391720408756782
 30
0.0000000349246037
  9
$LIMMIN
 10
0.0
 20
0.0
  9
$LIMMAX
 10
11.6929133858000007
 20
8.2677165353999982
  9
$ORTHOMODE
 70
     0
  9
$REGENMODE
 70
     1
  9
$FILLMODE
 70
     1
  9
$QTEXTMODE
 70
     0
  9
$MIRRTEXT
 70
     0
  9
$DRAGMODE
 70
     2
  9
$LTSCALE
 40
0.6431102362
  9
$OSMODE
 70
  4095
  9
$ATTMODE
 70
     1
  9
$TEXTSIZE
 40
0.2
  9
$TRACEWID
 40
0.05
  9
$TEXTSTYLE
  7
STANDARD
  9
$CLAYER
  8
0
  9
$CELTYPE
  6
BYLAYER
  9
$CECOLOR
 62
   256
  9
$DIMSCALE
 40
1.0
  9
$DIMASZ
 40
0.1875
  9
$DIMEXO
 40
0.0625
  9
$DIMDLI
 40
0.4443307087
  9
$DIMRND
 40
0.0
  9
$DIMDLE
 40
0.0
  9
$DIMEXE
 40
0.125
  9
$DIMTP
 40
0.01
  9
$DIMTM
 40
0.01
  9
$DIMTXT
 40
2.0
  9
$DIMCEN
 40
0.1052362205
  9
$DIMTSZ
 40
0.0
  9
$DIMTOL
 70
     1
  9
$DIMLIM
 70
     0
  9
$DIMTIH
 70
     1
  9
$DIMTOH
 70
     1
  9
$DIMSE1
 70
     0
  9
$DIMSE2
 70
     0
  9
$DIMTAD
 70
     0
  9
$DIMZIN
 70
     0
  9
$DIMBLK
  1

  9
$DIMASO
 70
     1
  9
$DIMSHO
 70
     1
  9
$DIMPOST
  1
\X
  9
$DIMAPOST
  1

  9
$DIMALT
 70
     1
  9
$DIMALTD
 70
     2
  9
$DIMALTF
 40
25.3999999999999986
  9
$DIMLFAC
 40
1.0
  9
$DIMTOFL
 70
     0
  9
$DIMTVP
 40
0.0
  9
$DIMTIX
 70
     0
  9
$DIMSOXD
 70
     0
  9
$DIMSAH
 70
     0
  9
$DIMBLK1
  1

  9
$DIMBLK2
  1

  9
$DIMSTYLE
  2
STANDARD
  9
$DIMCLRD
 70
     0
  9
$DIMCLRE
 70
     0
  9
$DIMCLRT
 70
     0
  9
$DIMTFAC
 40
1.0
  9
$DIMGAP
 40
0.09
  9
$LUNITS
 70
     2
  9
$LUPREC
 70
     4
  9
$SKETCHINC
 40
0.1
  9
$FILLETRAD
 40
0.0
  9
$AUNITS
 70
     0
  9
$AUPREC
 70
     0
  9
$MENU
  1
.
  9
$ELEVATION
 40
0.0
  9
$PELEVATION
 40
0.0
  9
$THICKNESS
 40
0.0
  9
$LIMCHECK
 70
     0
  9
$BLIPMODE
 70
     0
  9
$CHAMFERA
 40
0.0
  9
$CHAMFERB
 40
0.0
  9
$SKPOLY
 70
     0
  9
$TDCREATE
 40
2458060.468368056230247
  9
$TDUPDATE
 40
2460348.7160648149438202
  9
$TDINDWG
 40
0.5968357639
  9
$TDUSRTIMER
 40
0.5968357639
  9
$USRTIMER
 70
     1
  9
$ANGBASE
 50
0.0
  9
$ANGDIR
 70
     0
  9
$PDMODE
 70
     0
  9
$PDSIZE
 40
0.3125
  9
$PLINEWID
 40
0.0
  9
$COORDS
 70
     1
  9
$SPLFRAME
 70
     0
  9
$SPLINETYPE
 70
     6
  9
$SPLINESEGS
 70
     8
  9
$ATTDIA
 70
     1
  9
$ATTREQ
 70
     1
  9
$HANDLING
 70
     1
  9
$HANDSEED
  5
24EE2
  9
$SURFTAB1
 70
     6
  9
$SURFTAB2
 70
     6
  9
$SURFTYPE
 70
     6
  9
$SURFU
 70
     6
  9
$SURFV
 70
     6
  9
$UCSNAME
  2

  9
$UCSORG
 10
0.0
 20
0.0
 30
0.0
  9
$UCSXDIR
 10
1.0
 20
0.0
 30
0.0
  9
$UCSYDIR
 10
0.0
 20
1.0
 30
0.0
  9
$PUCSNAME
  2

  9
$PUCSORG
 10
0.0
 20
0.0
 30
0.0
  9
$PUCSXDIR
 10
1.0
 20
0.0
 30
0.0
  9
$PUCSYDIR
 10
0.0
 20
1.0
 30
0.0
  9
$USERI1
 70
     0
  9
$USERI2
 70
     0
  9
$USERI3
 70
     0
  9
$USERI4
 70
     0
  9
$USERI5
 70
     0
  9
$USERR1
 40
0.0
  9
$USERR2
 40
0.0
  9
$USERR3
 40
0.0
  9
$USERR4
 40
0.0
  9
$USERR5
 40
0.0
  9
$WORLDVIEW
 70
     1
  9
$SHADEDGE
 70
     3
  9
$SHADEDIF
 70
    70
  9
$TILEMODE
 70
     1
  9
$MAXACTVP
 70
    64
  9
$PLIMCHECK
 70
     0
  9
$PEXTMIN
 10
1.0000000000000000E+20
 20
1.0000000000000000E+20
 30
1.0000000000000000E+20
  9
$PEXTMAX
 10
-1.0000000000000000E+20
 20
-1.0000000000000000E+20
 30
-1.0000000000000000E+20
  9
$PLIMMIN
 10
0.0
 20
0.0
  9
$PLIMMAX
 10
12.0
 20
9.0
  9
$UNITMODE
 70
     0
  9
$VISRETAIN
 70
     1
  9
$PLINEGEN
 70
     0
  9
$PSLTSCALE
 70
     1
  0
ENDSEC
  0
SECTION
  2
TABLES
  0
TABLE
  2
VPORT
 70
     1
  0
VPORT
  2
*ACTIVE
 70
     0
 10
0.0
 20
0.0
 11
1.0
 21
1.0
 12
2363.8734833228008938
 22
-85.2933656316161262
 13
0.0
 23
0.0
 14
1.0
 24
1.0
 15
0.0
 25
0.0
 16
0.0
 26
0.0
 36
5.1040778033513332
 17
3792.35791015625
 27
120.1806564331053977
 37
0.0
 40
5.3256814930460123
 41
2.744927536231883
 42
50.0
 43
0.0
 44
0.0
 50
0.0
 51
0.0
 71
     0
 72
   100
 73
     1
 74
     1
 75
     0
 76
     0
 77
     0
 78
     0
  0
ENDTAB
  0
TABLE
  2
LTYPE
 70
     2
  0
LTYPE
  2
CONTINUOUS
 70
     0
  3
Solid line
 72
    65
 73
     0
 40
0.0
  0
LTYPE
  2
PHANTOM2
 70
     0
  3
___ _ _ ___ _ _ ___ _ _ ___ _ _
 72
    65
 73
     6
 40
1.25
 49
0.625
 49
-0.125
 49
0.125
 49
-0.125
 49
0.125
 49
-0.125
  0
ENDTAB
  0
TABLE
  2
LAYER
 70
     2
  0
LAYER
  2
0
 70
     0
 62
   255
  6
CONTINUOUS
  0
LAYER
  2
DEFPOINTS
 70
     0
 62
     7
  6
CONTINUOUS
  0
ENDTAB
  0
TABLE
  2
STYLE
 70
     1
  0
STYLE
  2
STANDARD
 70
     0
 40
0.0
 41
0.8
 50
0.0
 71
     0
 42
0.2
  3
txt
  4

  0
ENDTAB
  0
TABLE
  2
VIEW
 70
     0
  0
ENDTAB
  0
TABLE
  2
UCS
 70
     0
  0
ENDTAB
  0
TABLE
  2
APPID
 70
     9
  0
APPID
  2
ACAD
 70
     0
  0
APPID
  2
ACAD_MLEADERVER
 70
     0
  0
APPID
  2
ACAD_EXEMPT_FROM_CAD_STANDARDS
 70
     0
  0
APPID
  2
ACAD_NAV_VCDISPLAY
 70
     0
  0
APPID
  2
ACAECLAYERSTANDARD
 70
     0
  0
APPID
  2
ACCMTRANSPARENCY
 70
     0
  0
APPID
  2
ACAD_DSTYLE_DIMJAG
 70
     0
  0
APPID
  2
ACAD_DSTYLE_DIMTALN
 70
     0
  0
APPID
  2
ACDBATTR
 70
     0
  0
ENDTAB
  0
TABLE
  2
DIMSTYLE
 70
     1
  0
DIMSTYLE
  2
STANDARD
 70
     0
  3

  4

  5

  6

  7

 40
1.0
 41
0.1875
 42
0.0625
 43
0.38
 44
0.125
 45
0.0
 46
0.0
 47
0.01
 48
0.01
140
0.15625
141
0.09
142
0.0
143
25.3999999999999986
144
1.0
145
0.0
146
1.0
147
0.09
 71
     1
 72
     0
 73
     1
 74
     1
 75
     0
 76
     0
 77
     0
 78
     4
170
     0
171
     2
172
     0
173
     0
174
     0
175
     0
176
     0
177
     0
178
     0
  0
ENDTAB
  0
ENDSEC
  0
SECTION
  2
BLOCKS
  0
BLOCK
  8
0
  2
$MODEL_SPACE
 70
     0
 10
0.0
 20
0.0
 30
0.0
  3
$MODEL_SPACE
  1

  0
ENDBLK
  5
21
  8
0
  0
BLOCK
 67
     1
  8
0
  2
$PAPER_SPACE
 70
     0
 10
0.0
 20
0.0
 30
0.0
  3
$PAPER_SPACE
  1

  0
ENDBLK
  5
1D
 67
     1
  8
0
  0
BLOCK
  8
0
  2
_FILLED
 70
     0
 10
0.0
 20
0.0
 30
0.0
  3
_FILLED
  1

  0
SOLID
  5
21F57
  8
0
  6
BYBLOCK
 62
     0
 10
0.0
 20
0.0
 30
0.0
 11
-1.0
 21
0.1666666667
 31
0.0
 12
-1.0
 22
-0.1666666667
 32
0.0
 13
-1.0
 23
-0.1666666667
 33
0.0
  0
ENDBLK
  5
21F58
  8
0
  6
BYBLOCK
 62
     0
  0
BLOCK
  8
0
  2
A$CA2DC33A7
 70
     0
 10
0.0
 20
0.0
 30
0.0
  3
A$CA2DC33A7
  1

  0
LINE
  5
24D55
  8
0
 10
5.1867208393141828
 20
12.2637272440058798
 30
0.0
 11
7.9114563060563654
 21
12.2637272440058798
 31
0.0
  0
ARC
  5
24D56
  8
0
 10
2302.3104813001441471
 20
286.1436837394820145
 30
0.0
 40
2313.3970845369181006
 50
186.7996739875428034
 51
186.8010044453180001
  0
ARC
  5
24D57
  8
0
 10
5.2503569736295921
 20
12.1950049729559193
 30
0.0
 40
0.059
 50
186.8010044446735094
 51
231.9393246045653996
  0
ARC
  5
24D58
  8
0
 10
5.2052705855141852
 20
12.2437272440062301
 30
0.0
 40
0.02
 50
89.999999999597776
 51
186.7996739873296974
  0
ARC
  5
24D59
  8
0
 10
8.8110245979231081
 20
16.7425171271058204
 30
0.0
 40
5.8346576008999298
 50
231.9393246045677017
 51
246.649348033214892
  0
ARC
  5
24D5A
  8
0
 10
8.8110245979233071
 20
16.7425171271063
 30
0.0
 40
5.83465760090046
 50
246.649348033214892
 51
252.1178412924199961
  0
ARC
  5
24D5B
  8
0
 10
8.8114166744231284
 20
16.74563836160576
 30
0.0
 40
5.8377955025998762
 50
258.0166810940282858
 51
267.2940722486991945
  0
ARC
  5
24D5C
  8
0
 10
13.6888606898384992
 20
150.5592086609852061
 30
0.0
 40
139.7399007419020904
 50
267.8866830987831804
 51
269.4098856863532205
  0
ARC
  5
24D5D
  8
0
 10
9.8446917238637326
 20
20.6202732414736509
 30
0.0
 40
9.8446917545285402
 50
256.6016833591957038
 51
256.8160529801266989
  0
ARC
  5
24D5E
  8
0
 10
11.6478559124422407
 20
12.3169005111744099
 30
0.0
 40
3.7171160465830511
 50
181.1219312607152006
 51
185.4244655227684859
  0
ARC
  5
24D5F
  8
0
 10
8.7648993174582017
 20
12.0950602145955095
 30
0.0
 40
0.827714410978028
 50
189.0047875719876913
 51
213.4926750099623973
  0
ARC
  5
24D60
  8
0
 10
8.6471393781230574
 20
12.1228042520906101
 30
0.0
 40
0.7500125182771528
 50
220.2400832727068973
 51
263.1523550320130767
  0
ARC
  5
24D61
  8
0
 10
12.2436144730101208
 20
97.344974462687901
 30
0.0
 40
86.0458143610865136
 50
267.5448999183769274
 51
270.0040147318817958
  0
ARC
  5
24D62
  8
0
 10
7.9114563060563654
 20
12.2437272440058909
 30
0.0
 40
0.02
 50
1.1219312607184511
 51
90.0000000000016058
  0
LINE
  5
24D63
  8
0
 10
7.019623288762153
 20
11.1903951993280195
 30
0.0
 11
7.0184661769924599
 21
11.1863598709301204
 31
0.0
  0
LINE
  5
24D64
  8
0
 10
7.5948665084311688
 20
11.0254468604651201
 30
0.0
 11
7.5937093966068909
 21
11.0214115320804495
 31
0.0
  0
LINE
  5
24D65
  8
0
 10
7.0253792543962499
 20
11.1671617062901394
 30
0.0
 11
7.5776732971429039
 21
11.0087939379471909
 31
0.0
  0
LINE
  5
24D66
  8
0
 10
7.019894259739651
 20
11.1770568989285195
 30
0.0
 11
7.0203710738526377
 21
11.1787197471700903
 31
0.0
  0
ARC
  5
24D67
  8
0
 10
7.0275843532428279
 20
11.17485179985764
 30
0.0
 40
0.008
 50
163.999998328512504
 51
253.9999999996898907
  0
LINE
  5
24D68
  8
0
 10
7.5875684895689552
 20
11.01427893270988
 30
0.0
 11
7.5880453036961111
 21
11.0159417812180092
 31
0.0
  0
ARC
  5
24D69
  8
0
 10
7.579878395989482
 20
11.0164840315146897
 30
0.0
 40
0.008
 50
253.9999999996894928
 51
344.0000003108933129
  0
ARC
  5
24D6A
  8
0
 10
7.5861404069141862
 20
11.0235819050058801
 30
0.0
 40
0.0078740156999954
 50
283.999999833520576
 51
343.9999996070098973
  0
ARC
  5
24D6B
  8
0
 10
7.026035166714184
 20
11.18418949810588
 30
0.0
 40
0.0078740157000013
 50
164.0000003729425941
 51
224.0000002090351074
  0
LINE
  5
24D6C
  8
0
 10
7.019623288762153
 20
11.1903951993280195
 30
0.0
 11
7.5948665084311688
 21
11.0254468604651201
 31
0.0
  0
LINE
  5
24D6D
  8
0
 10
7.562182127054017
 20
11.0439415588380108
 30
0.0
 11
7.558709151112005
 21
11.0357696801746794
 31
0.0
  0
LINE
  5
24D6E
  8
0
 10
7.5194511526980561
 20
11.0469777238435807
 30
0.0
 11
7.5240007349472817
 21
11.0559075986647706
 31
0.0
  0
LINE
  5
24D6F
  8
0
 10
7.5289146246820851
 20
11.0442759302845204
 30
0.0
 11
7.533378403039217
 21
11.0529961134451007
 31
0.0
  0
ARC
  5
24D70
  8
0
 10
5.8521241149788148
 20
5.6543645549307842
 30
0.0
 40
5.6543645695788172
 50
72.3824298757444069
 51
77.5718720287635648
  0
LINE
  5
24D71
  8
0
 10
7.2977836614129226
 20
11.1106339960014893
 30
0.0
 11
7.300492822081929
 21
11.1200819620048694
 31
0.0
  0
LINE
  5
24D72
  8
0
 10
7.3167061358078458
 20
11.1052080637837793
 30
0.0
 11
7.3195155459118864
 21
11.1150056412989802
 31
0.0
  0
ARC
  5
24D73
  8
0
 10
7.8006127028919128
 20
12.8284990367541401
 30
0.0
 40
1.833310837054023
 50
244.9847294545016894
 51
263.0152705448717256
  0
LINE
  5
24D74
  8
0
 10
7.0203710738526368
 20
11.1787197471700903
 30
0.0
 11
7.5880453036961111
 21
11.0159417812180092
 31
0.0
  0
LINE
  5
24D75
  8
0
 10
5.1867208393141828
 20
12.3227823621058796
 30
0.0
 11
5.1867208393141828
 21
12.2637272440058798
 31
0.0
  0
LINE
  5
24D76
  8
0
 10
5.1867208393141828
 20
12.3227823621058796
 30
0.0
 11
7.8953822567141829
 21
12.3227823621058796
 31
0.0
  0
LINE
  5
24D77
  8
0
 10
7.8953822567141829
 20
12.3227823621058796
 30
0.0
 11
7.8953822567141829
 21
12.2637272440058798
 31
0.0
  0
LINE
  5
24D78
  8
0
 10
19.3125666170139496
 20
12.2637272440058798
 30
0.0
 11
16.5878311502717608
 21
12.2637272440058798
 31
0.0
  0
ARC
  5
24D79
  8
0
 10
-2277.8111938438159996
 20
286.1436837394820145
 30
0.0
 40
2313.3970845369181006
 50
353.1989955546819147
 51
353.2003260124571966
  0
ARC
  5
24D7A
  8
0
 10
19.2489304826985403
 20
12.1950049729559193
 30
0.0
 40
0.059
 50
308.0606753954346004
 51
353.198995555326519
  0
ARC
  5
24D7B
  8
0
 10
19.294016870813941
 20
12.2437272440062301
 30
0.0
 40
0.02
 50
353.2003260126703026
 51
90.000000000402224
  0
ARC
  5
24D7C
  8
0
 10
15.6882628584050199
 20
16.7425171271058204
 30
0.0
 40
5.8346576008999298
 50
293.3506519667852217
 51
308.0606753954323267
  0
ARC
  5
24D7D
  8
0
 10
15.6882628584048192
 20
16.7425171271063
 30
0.0
 40
5.83465760090046
 50
287.8821587075798902
 51
293.3506519667852217
  0
ARC
  5
24D7E
  8
0
 10
15.6878707819049996
 20
16.74563836160576
 30
0.0
 40
5.8377955025998762
 50
272.7059277513008055
 51
281.9833189059717142
  0
ARC
  5
24D7F
  8
0
 10
10.8104267664896199
 20
150.5592086609852061
 30
0.0
 40
139.7399007419020904
 50
270.5901143136467795
 51
272.1133169012167059
  0
ARC
  5
24D80
  8
0
 10
14.6545957324644007
 20
20.6202732414736509
 30
0.0
 40
9.8446917545285402
 50
283.1839470198731874
 51
283.3983166408044099
  0
ARC
  5
24D81
  8
0
 10
12.8514315438858908
 20
12.3169005111744099
 30
0.0
 40
3.7171160465830511
 50
354.5755344772314857
 51
358.8780687392847994
  0
ARC
  5
24D82
  8
0
 10
15.7343881388699298
 20
12.0950602145955095
 30
0.0
 40
0.827714410978028
 50
326.5073249900376027
 51
350.9952124280122234
  0
ARC
  5
24D83
  8
0
 10
15.8521480782050705
 20
12.1228042520906101
 30
0.0
 40
0.7500125182771528
 50
276.8476449679869233
 51
319.759916727292989
  0
ARC
  5
24D84
  8
0
 10
12.2556729833180107
 20
97.344974462687901
 30
0.0
 40
86.0458143610865136
 50
269.9959852681180905
 51
272.4551000816230726
  0
ARC
  5
24D85
  8
0
 10
16.5878311502717608
 20
12.2437272440058909
 30
0.0
 40
0.02
 50
89.9999999999983658
 51
178.8780687392815025
  0
LINE
  5
24D86
  8
0
 10
17.4796641675659785
 20
11.1903951993280195
 30
0.0
 11
17.4808212793356716
 21
11.1863598709301204
 31
0.0
  0
LINE
  5
24D87
  8
0
 10
16.9044209478969591
 20
11.0254468604651201
 30
0.0
 11
16.9055780597212397
 21
11.0214115320804495
 31
0.0
  0
LINE
  5
24D88
  8
0
 10
17.4739082019318808
 20
11.1671617062901394
 30
0.0
 11
16.9216141591852285
 21
11.0087939379471909
 31
0.0
  0
LINE
  5
24D89
  8
0
 10
17.4793931965884788
 20
11.1770568989285195
 30
0.0
 11
17.4789163824755001
 21
11.1787197471700903
 31
0.0
  0
ARC
  5
24D8A
  8
0
 10
17.4717031030853001
 20
11.17485179985764
 30
0.0
 40
0.008
 50
286.0000000003100808
 51
16.0000016714874995
  0
LINE
  5
24D8B
  8
0
 10
16.9117189667591816
 20
11.01427893270988
 30
0.0
 11
16.9112421526320205
 21
11.0159417812180092
 31
0.0
  0
ARC
  5
24D8C
  8
0
 10
16.9194090603386513
 20
11.0164840315146897
 30
0.0
 40
0.008
 50
195.9999996891066871
 51
286.0000000003104219
  0
ARC
  5
24D8D
  8
0
 10
16.9131470494139506
 20
11.0235819050058801
 30
0.0
 40
0.0078740156999954
 50
196.0000003929901027
 51
256.0000001664793103
  0
ARC
  5
24D8E
  8
0
 10
17.4732522896139493
 20
11.18418949810588
 30
0.0
 40
0.0078740157000013
 50
315.999999790964921
 51
15.9999996270573099
  0
LINE
  5
24D8F
  8
0
 10
17.4796641675659785
 20
11.1903951993280195
 30
0.0
 11
16.9044209478969591
 21
11.0254468604651201
 31
0.0
  0
LINE
  5
24D90
  8
0
 10
16.9371053292741109
 20
11.0439415588380108
 30
0.0
 11
16.9405783052161283
 21
11.0357696801746794
 31
0.0
  0
LINE
  5
24D91
  8
0
 10
16.9798363036300692
 20
11.0469777238435807
 30
0.0
 11
16.9752867213808507
 21
11.0559075986647706
 31
0.0
  0
LINE
  5
24D92
  8
0
 10
16.9703728316460385
 20
11.0442759302845204
 30
0.0
 11
16.9659090532889216
 21
11.0529961134451007
 31
0.0
  0
ARC
  5
24D93
  8
0
 10
18.6471633413493194
 20
5.6543645549307842
 30
0.0
 40
5.6543645695788172
 50
102.4281279712364068
 51
107.6175701242555931
  0
LINE
  5
24D94
  8
0
 10
17.2015037949152116
 20
11.1106339960014893
 30
0.0
 11
17.1987946342462017
 21
11.1200819620048694
 31
0.0
  0
LINE
  5
24D95
  8
0
 10
17.1825813205202813
 20
11.1052080637837793
 30
0.0
 11
17.1797719104162496
 21
11.1150056412989802
 31
0.0
  0
ARC
  5
24D96
  8
0
 10
16.6986747534362188
 20
12.8284990367541401
 30
0.0
 40
1.833310837054023
 50
276.9847294551282175
 51
295.0152705454984243
  0
LINE
  5
24D97
  8
0
 10
17.4789163824755001
 20
11.1787197471700903
 30
0.0
 11
16.9112421526320205
 21
11.0159417812180092
 31
0.0
  0
LINE
  5
24D98
  8
0
 10
19.3125666170139496
 20
12.3227823621058796
 30
0.0
 11
19.3125666170139496
 21
12.2637272440058798
 31
0.0
  0
LINE
  5
24D99
  8
0
 10
19.3125666170139496
 20
12.3227823621058796
 30
0.0
 11
16.6039051996139513
 21
12.3227823621058796
 31
0.0
  0
LINE
  5
24D9A
  8
0
 10
16.6039051996139513
 20
12.3227823621058796
 30
0.0
 11
16.6039051996139513
 21
12.2637272440058798
 31
0.0
  0
LINE
  5
24D9B
  8
0
 10
12.2496437281640702
 20
12.3227823621058796
 30
0.0
 11
14.1220216016599398
 21
16.5792274954400902
 31
0.0
  0
ENDBLK
  5
24D9F
  8
0
  0
ENDSEC
  0
SECTION
  2
ENTITIES
  0
ATTDEF
  5
3930
  8
DEFPOINTS
 10
6156.2886042650334275
 20
35.6362295830068874
 30
0.0
 40
0.001
  1
K-8599T
  3

  2
MODELNUMBER
 70
     0
1001
ACDBATTR
1070
     0
1070
     1
  0
ATTDEF
  5
3931
  8
DEFPOINTS
 10
6156.2886042650334275
 20
35.6345629163402293
 30
0.0
 40
0.001
  1
MELANIE
  3

  2
TRADENAME
 70
     0
1001
ACDBATTR
1070
     0
1070
     1
  0
ATTDEF
  5
3932
  8
DEFPOINTS
 10
6156.2886042650334275
 20
35.6328962496735713
 30
0.0
 40
0.001
  1
GRIP RAIL
  3

  2
PRODUCT
 70
     0
1001
ACDBATTR
1070
     0
1070
     1
  0
LINE
  5
24D0D
  8
0
 10
6149.2357112625077207
 20
35.5730116812483104
 30
0.0
 11
6151.9604467292501795
 21
35.5730116812483104
 31
0.0
  0
ARC
  5
24D0E
  8
0
 10
8446.3594717233372648
 20
309.4529681767244256
 30
0.0
 40
2313.3970845369181006
 50
186.7996739875439118
 51
186.8010044453151011
  0
ARC
  5
24D0F
  8
0
 10
6149.2993473968226681
 20
35.5042894101983535
 30
0.0
 40
0.059
 50
186.8010044446735094
 51
231.9393246045486876
  0
ARC
  5
24D10
  8
0
 10
6149.254261008706635
 20
35.5530116812486625
 30
0.0
 40
0.02
 50
89.9999999995831246
 51
186.7996739873275942
  0
ARC
  5
24D11
  8
0
 10
6152.8600150211168511
 20
40.0518015643482386
 30
0.0
 40
5.8346576008999298
 50
231.9393246045495118
 51
246.6493480332059107
  0
ARC
  5
24D12
  8
0
 10
6152.8600150211168511
 20
40.0518015643487288
 30
0.0
 40
5.83465760090046
 50
246.6493480332059107
 51
252.1178412923977135
  0
ARC
  5
24D13
  8
0
 10
6152.8604070976170988
 20
40.0549227988481817
 30
0.0
 40
5.8377955025998762
 50
258.0166810940252162
 51
267.2940722486781056
  0
ARC
  5
24D14
  8
0
 10
6157.7378511130318657
 20
173.8684930982275887
 30
0.0
 40
139.7399007419020904
 50
267.8866830987685717
 51
269.4098856863590186
  0
ARC
  5
24D15
  8
0
 10
6153.8936821470570067
 20
43.9295576787160726
 30
0.0
 40
9.8446917545285402
 50
256.6016833591888258
 51
256.8160529801331222
  0
ARC
  5
24D16
  8
0
 10
6155.6968463356361099
 20
35.6261849484168494
 30
0.0
 40
3.7171160465830511
 50
181.1219312607155985
 51
185.4244655227707881
  0
ARC
  5
24D17
  8
0
 10
6152.8138897406506658
 20
35.4043446518379383
 30
0.0
 40
0.827714410978028
 50
189.0047875719851902
 51
213.4926750099498918
  0
ARC
  5
24D18
  8
0
 10
6152.696129801315692
 20
35.4320886893330425
 30
0.0
 40
0.7500125182771528
 50
220.2400832727005024
 51
263.1523550320179083
  0
ARC
  5
24D19
  8
0
 10
6156.2926048962026471
 20
120.6542588999302978
 30
0.0
 40
86.0458143610865136
 50
267.5448999183752221
 51
270.00401473185741
  0
ARC
  5
24D1A
  8
0
 10
6151.9604467292501795
 20
35.5530116812483072
 30
0.0
 40
0.02
 50
1.1219312607189029
 51
90.0
  0
LINE
  5
24D1B
  8
0
 10
6151.0686137119555497
 20
34.4996796365704483
 30
0.0
 11
6151.0674566001862331
 21
34.495644308172551
 31
0.0
  0
LINE
  5
24D1C
  8
0
 10
6151.6438569316251233
 20
34.3347312977075489
 30
0.0
 11
6151.642699819801237
 21
34.3306959693228819
 31
0.0
  0
LINE
  5
24D1D
  8
0
 10
6151.074369677589857
 20
34.47644614353257
 30
0.0
 11
6151.6266637203361825
 21
34.3180783751896215
 31
0.0
  0
LINE
  5
24D1E
  8
0
 10
6151.0688846829343674
 20
34.4863413361709377
 30
0.0
 11
6151.0693614970468843
 21
34.4880041844125174
 31
0.0
  0
ARC
  5
24D1F
  8
0
 10
6151.0765747764362459
 20
34.484136237100067
 30
0.0
 40
0.008
 50
163.9999983285194958
 51
253.9999999996869917
  0
LINE
  5
24D20
  8
0
 10
6151.6365589127626663
 20
34.3235633699523106
 30
0.0
 11
6151.6370357268888256
 21
34.3252262184604291
 31
0.0
  0
ARC
  5
24D21
  8
0
 10
6151.6288688191843903
 20
34.3257684687571185
 30
0.0
 40
0.008
 50
253.9999999996869917
 51
344.0000003108884812
  0
ARC
  5
24D22
  8
0
 10
6151.6351308301082099
 20
34.3328663422483089
 30
0.0
 40
0.0078740156999954
 50
283.9999998335413807
 51
343.9999996070077941
  0
ARC
  5
24D23
  8
0
 10
6151.0750255899074546
 20
34.4934739353483124
 30
0.0
 40
0.0078740157000013
 50
164.0000003729493017
 51
224.0000002090297926
  0
LINE
  5
24D24
  8
0
 10
6151.0686137119555497
 20
34.4996796365704483
 30
0.0
 11
6151.6438569316251233
 21
34.3347312977075489
 31
0.0
  0
LINE
  5
24D25
  8
0
 10
6151.6111725502469199
 20
34.3532259960804396
 30
0.0
 11
6151.6076995743060252
 21
34.3450541174171065
 31
0.0
  0
LINE
  5
24D26
  8
0
 10
6151.5684415758923933
 20
34.3562621610860077
 30
0.0
 11
6151.5729911581411216
 21
34.3651920359071994
 31
0.0
  0
LINE
  5
24D27
  8
0
 10
6151.5779050478759018
 20
34.3535603675269599
 30
0.0
 11
6151.5823688262316864
 21
34.3622805506875295
 31
0.0
  0
ARC
  5
24D28
  8
0
 10
6149.9011145381728056
 20
28.9636489921732085
 30
0.0
 40
5.6543645695788172
 50
72.3824298757348288
 51
77.5718720287678707
  0
LINE
  5
24D29
  8
0
 10
6151.3467740846072047
 20
34.4199184332439074
 30
0.0
 11
6151.3494832452761329
 21
34.4293663992473
 31
0.0
  0
LINE
  5
24D2A
  8
0
 10
6151.365696559000753
 20
34.4144925010262099
 30
0.0
 11
6151.3685059691060815
 21
34.4242900785414108
 31
0.0
  0
ARC
  5
24D2B
  8
0
 10
6151.8496031260856398
 20
36.1377834739965706
 30
0.0
 40
1.833310837054023
 50
244.9847294545079137
 51
263.015270544872692
  0
LINE
  5
24D2C
  8
0
 10
6151.0693614970468843
 20
34.4880041844125174
 30
0.0
 11
6151.6370357268888256
 21
34.3252262184604291
 31
0.0
  0
LINE
  5
24D2D
  8
0
 10
6149.2357112625077207
 20
35.6320667993483085
 30
0.0
 11
6149.2357112625077207
 21
35.5730116812483104
 31
0.0
  0
LINE
  5
24D2E
  8
0
 10
6149.2357112625077207
 20
35.6320667993483085
 30
0.0
 11
6151.944372679908156
 21
35.6320667993483085
 31
0.0
  0
LINE
  5
24D2F
  8
0
 10
6151.944372679908156
 20
35.6320667993483085
 30
0.0
 11
6151.944372679908156
 21
35.5730116812483104
 31
0.0
  0
LINE
  5
24D30
  8
0
 10
6163.3615570402071171
 20
35.5730116812483104
 30
0.0
 11
6160.6368215734646583
 21
35.5730116812483104
 31
0.0
  0
ARC
  5
24D31
  8
0
 10
3866.2377965793780277
 20
309.4529681767244256
 30
0.0
 40
2313.3970845369181006
 50
353.1989955546848137
 51
353.2003260124560029
  0
ARC
  5
24D32
  8
0
 10
6163.2979209058921697
 20
35.5042894101983535
 30
0.0
 40
0.059
 50
308.0606753954513124
 51
353.198995555326519
  0
ARC
  5
24D33
  8
0
 10
6163.3430072940072932
 20
35.5530116812486625
 30
0.0
 40
0.02
 50
353.2003260126724058
 51
90.0000000004168754
  0
ARC
  5
24D34
  8
0
 10
6159.7372532815988961
 20
40.0518015643482386
 30
0.0
 40
5.8346576008999298
 50
293.3506519667940893
 51
308.0606753954504029
  0
ARC
  5
24D35
  8
0
 10
6159.7372532815979866
 20
40.0518015643487288
 30
0.0
 40
5.83465760090046
 50
287.8821587076022865
 51
293.3506519667940893
  0
ARC
  5
24D36
  8
0
 10
6159.736861205097739
 20
40.0549227988481817
 30
0.0
 40
5.8377955025998762
 50
272.7059277513218944
 51
281.9833189059747838
  0
ARC
  5
24D37
  8
0
 10
6154.8594171896829721
 20
173.8684930982275887
 30
0.0
 40
139.7399007419020904
 50
270.5901143136410951
 51
272.1133169012314283
  0
ARC
  5
24D38
  8
0
 10
6158.7035861556578311
 20
43.9295576787160726
 30
0.0
 40
9.8446917545285402
 50
283.1839470198668778
 51
283.3983166408111742
  0
ARC
  5
24D39
  8
0
 10
6156.9004219670796374
 20
35.6261849484168494
 30
0.0
 40
3.7171160465830511
 50
354.5755344772292119
 51
358.8780687392844015
  0
ARC
  5
24D3A
  8
0
 10
6159.783378562064172
 20
35.4043446518379383
 30
0.0
 40
0.827714410978028
 50
326.5073249900501082
 51
350.9952124280147814
  0
ARC
  5
24D3B
  8
0
 10
6159.9011385013982363
 20
35.4320886893330425
 30
0.0
 40
0.7500125182771528
 50
276.8476449679820917
 51
319.7599167272992986
  0
ARC
  5
24D3C
  8
0
 10
6156.3046634065121907
 20
120.6542588999302978
 30
0.0
 40
86.0458143610865136
 50
269.99598526814259
 51
272.4551000816247779
  0
ARC
  5
24D3D
  8
0
 10
6160.6368215734646583
 20
35.5530116812483072
 30
0.0
 40
0.02
 50
90.0
 51
178.8780687392811046
  0
LINE
  5
24D3E
  8
0
 10
6161.5286545907592881
 20
34.4996796365704483
 30
0.0
 11
6161.5298117025286047
 21
34.495644308172551
 31
0.0
  0
LINE
  5
24D3F
  8
0
 10
6160.953411371090624
 20
34.3347312977075489
 30
0.0
 11
6160.9545684829136007
 21
34.3306959693228819
 31
0.0
  0
LINE
  5
24D40
  8
0
 10
6161.5228986251258902
 20
34.47644614353257
 30
0.0
 11
6160.9706045823777458
 21
34.3180783751896215
 31
0.0
  0
LINE
  5
24D41
  8
0
 10
6161.5283836197822893
 20
34.4863413361709377
 30
0.0
 11
6161.5279068056688629
 21
34.4880041844125174
 31
0.0
  0
ARC
  5
24D42
  8
0
 10
6161.5206935262785919
 20
34.484136237100067
 30
0.0
 40
0.008
 50
286.0000000003129799
 51
16.0000016714805007
  0
LINE
  5
24D43
  8
0
 10
6160.9607093899539905
 20
34.3235633699523106
 30
0.0
 11
6160.9602325758260122
 21
34.3252262184604291
 31
0.0
  0
ARC
  5
24D44
  8
0
 10
6160.9683994835322665
 20
34.3257684687571185
 30
0.0
 40
0.008
 50
195.9999996891112914
 51
286.0000000003129799
  0
ARC
  5
24D45
  8
0
 10
6160.9621374726084468
 20
34.3328663422483089
 30
0.0
 40
0.0078740156999954
 50
196.0000003929920069
 51
256.0000001664586193
  0
ARC
  5
24D46
  8
0
 10
6161.5222427128073832
 20
34.4934739353483124
 30
0.0
 40
0.0078740157000013
 50
315.99999979096998
 51
15.9999996270507001
  0
LINE
  5
24D47
  8
0
 10
6161.5286545907592881
 20
34.4996796365704483
 30
0.0
 11
6160.953411371090624
 21
34.3347312977075489
 31
0.0
  0
LINE
  5
24D48
  8
0
 10
6160.9860957524679179
 20
34.3532259960804396
 30
0.0
 11
6160.9895687284097221
 21
34.3450541174171065
 31
0.0
  0
LINE
  5
24D49
  8
0
 10
6161.028826726823354
 20
34.3562621610860077
 30
0.0
 11
6161.0242771445746257
 21
34.3651920359071994
 31
0.0
  0
LINE
  5
24D4A
  8
0
 10
6161.0193632548398455
 20
34.3535603675269599
 30
0.0
 11
6161.0148994764822419
 21
34.3622805506875295
 31
0.0
  0
ARC
  5
24D4B
  8
0
 10
6162.6961537645420321
 20
28.9636489921732085
 30
0.0
 40
5.6543645695788172
 50
102.4281279712321009
 51
107.6175701242651996
  0
LINE
  5
24D4C
  8
0
 10
6161.2504942181076331
 20
34.4199184332439074
 30
0.0
 11
6161.2477850574396143
 21
34.4293663992473
 31
0.0
  0
LINE
  5
24D4D
  8
0
 10
6161.2315717437140847
 20
34.4144925010262099
 30
0.0
 11
6161.2287623336096658
 21
34.4242900785414108
 31
0.0
  0
ARC
  5
24D4E
  8
0
 10
6160.7476651766301075
 20
36.1377834739965706
 30
0.0
 40
1.833310837054023
 50
276.984729455127308
 51
295.0152705454921147
  0
LINE
  5
24D4F
  8
0
 10
6161.5279068056688629
 20
34.4880041844125174
 30
0.0
 11
6160.9602325758260122
 21
34.3252262184604291
 31
0.0
  0
LINE
  5
24D50
  8
0
 10
6163.3615570402071171
 20
35.6320667993483085
 30
0.0
 11
6163.3615570402071171
 21
35.5730116812483104
 31
0.0
  0
LINE
  5
24D51
  8
0
 10
6163.3615570402071171
 20
35.6320667993483085
 30
0.0
 11
6160.6528956228066818
 21
35.6320667993483085
 31
0.0
  0
LINE
  5
24D52
  8
0
 10
6160.6528956228066818
 20
35.6320667993483085
 30
0.0
 11
6160.6528956228066818
 21
35.5730116812483104
 31
0.0
  0
ENDSEC
  0
EOF
