  0
SECTION
  2
HEADER
  9
$ACADVER
  1
AC1009
  9
$INSBASE
 10
3472.9443137406037749
 20
143.8969688790473924
 30
0.0
  9
$EXTMIN
 10
3472.0212915188621992
 20
143.8969688790473924
 30
0.0
  9
$EXTMAX
 10
3473.867335962344896
 20
149.9845228266204913
 30
0.0
  9
$LIMMIN
 10
0.0
 20
0.0
  9
$LIMMAX
 10
11.6929133858000007
 20
8.2677165353999982
  9
$ORTHOMODE
 70
     0
  9
$REGENMODE
 70
     1
  9
$FILLMODE
 70
     1
  9
$QTEXTMODE
 70
     0
  9
$MIRRTEXT
 70
     0
  9
$DRAGMODE
 70
     2
  9
$LTSCALE
 40
0.6431102362
  9
$OSMODE
 70
  4095
  9
$ATTMODE
 70
     1
  9
$TEXTSIZE
 40
0.2
  9
$TRACEWID
 40
0.05
  9
$TEXTSTYLE
  7
STANDARD
  9
$CLAYER
  8
0
  9
$CELTYPE
  6
BYLAYER
  9
$CECOLOR
 62
   256
  9
$DIMSCALE
 40
1.0
  9
$DIMASZ
 40
0.1875
  9
$DIMEXO
 40
0.0625
  9
$DIMDLI
 40
0.4443307087
  9
$DIMRND
 40
0.0
  9
$DIMDLE
 40
0.0
  9
$DIMEXE
 40
0.125
  9
$DIMTP
 40
0.01
  9
$DIMTM
 40
0.01
  9
$DIMTXT
 40
2.0
  9
$DIMCEN
 40
0.1052362205
  9
$DIMTSZ
 40
0.0
  9
$DIMTOL
 70
     1
  9
$DIMLIM
 70
     0
  9
$DIMTIH
 70
     1
  9
$DIMTOH
 70
     1
  9
$DIMSE1
 70
     0
  9
$DIMSE2
 70
     0
  9
$DIMTAD
 70
     0
  9
$DIMZIN
 70
     0
  9
$DIMBLK
  1

  9
$DIMASO
 70
     1
  9
$DIMSHO
 70
     1
  9
$DIMPOST
  1
\X
  9
$DIMAPOST
  1

  9
$DIMALT
 70
     1
  9
$DIMALTD
 70
     2
  9
$DIMALTF
 40
25.3999999999999986
  9
$DIMLFAC
 40
1.0
  9
$DIMTOFL
 70
     0
  9
$DIMTVP
 40
0.0
  9
$DIMTIX
 70
     0
  9
$DIMSOXD
 70
     0
  9
$DIMSAH
 70
     0
  9
$DIMBLK1
  1

  9
$DIMBLK2
  1

  9
$DIMSTYLE
  2
STANDARD
  9
$DIMCLRD
 70
     0
  9
$DIMCLRE
 70
     0
  9
$DIMCLRT
 70
     0
  9
$DIMTFAC
 40
1.0
  9
$DIMGAP
 40
0.09
  9
$LUNITS
 70
     2
  9
$LUPREC
 70
     4
  9
$SKETCHINC
 40
0.1
  9
$FILLETRAD
 40
0.0
  9
$AUNITS
 70
     0
  9
$AUPREC
 70
     0
  9
$MENU
  1
.
  9
$ELEVATION
 40
0.0
  9
$PELEVATION
 40
0.0
  9
$THICKNESS
 40
0.0
  9
$LIMCHECK
 70
     0
  9
$BLIPMODE
 70
     0
  9
$CHAMFERA
 40
0.0
  9
$CHAMFERB
 40
0.0
  9
$SKPOLY
 70
     0
  9
$TDCREATE
 40
2458060.468368056230247
  9
$TDUPDATE
 40
2459100.7762847230769694
  9
$TDINDWG
 40
0.5679237269
  9
$TDUSRTIMER
 40
0.5679237269
  9
$USRTIMER
 70
     1
  9
$ANGBASE
 50
0.0
  9
$ANGDIR
 70
     0
  9
$PDMODE
 70
     0
  9
$PDSIZE
 40
0.3125
  9
$PLINEWID
 40
0.0
  9
$COORDS
 70
     1
  9
$SPLFRAME
 70
     0
  9
$SPLINETYPE
 70
     6
  9
$SPLINESEGS
 70
     8
  9
$ATTDIA
 70
     1
  9
$ATTREQ
 70
     1
  9
$HANDLING
 70
     1
  9
$HANDSEED
  5
1671A
  9
$SURFTAB1
 70
     6
  9
$SURFTAB2
 70
     6
  9
$SURFTYPE
 70
     6
  9
$SURFU
 70
     6
  9
$SURFV
 70
     6
  9
$UCSNAME
  2

  9
$UCSORG
 10
0.0
 20
0.0
 30
0.0
  9
$UCSXDIR
 10
1.0
 20
0.0
 30
0.0
  9
$UCSYDIR
 10
0.0
 20
1.0
 30
0.0
  9
$PUCSNAME
  2

  9
$PUCSORG
 10
0.0
 20
0.0
 30
0.0
  9
$PUCSXDIR
 10
1.0
 20
0.0
 30
0.0
  9
$PUCSYDIR
 10
0.0
 20
1.0
 30
0.0
  9
$USERI1
 70
     0
  9
$USERI2
 70
     0
  9
$USERI3
 70
     0
  9
$USERI4
 70
     0
  9
$USERI5
 70
     0
  9
$USERR1
 40
0.0
  9
$USERR2
 40
0.0
  9
$USERR3
 40
0.0
  9
$USERR4
 40
0.0
  9
$USERR5
 40
0.0
  9
$WORLDVIEW
 70
     1
  9
$SHADEDGE
 70
     3
  9
$SHADEDIF
 70
    70
  9
$TILEMODE
 70
     1
  9
$MAXACTVP
 70
    64
  9
$PLIMCHECK
 70
     0
  9
$PEXTMIN
 10
1.0000000000000000E+20
 20
1.0000000000000000E+20
 30
1.0000000000000000E+20
  9
$PEXTMAX
 10
-1.0000000000000000E+20
 20
-1.0000000000000000E+20
 30
-1.0000000000000000E+20
  9
$PLIMMIN
 10
0.0
 20
0.0
  9
$PLIMMAX
 10
12.0
 20
9.0
  9
$UNITMODE
 70
     0
  9
$VISRETAIN
 70
     1
  9
$PLINEGEN
 70
     0
  9
$PSLTSCALE
 70
     1
  0
ENDSEC
  0
SECTION
  2
TABLES
  0
TABLE
  2
VPORT
 70
     1
  0
VPORT
  2
*ACTIVE
 70
     0
 10
0.0
 20
0.0
 11
1.0
 21
1.0
 12
169.2511985062280928
 22
-48.3207657230537819
 13
0.0
 23
0.0
 14
1.0
 24
1.0
 15
0.0
 25
0.0
 16
0.0
 26
0.0
 36
96.5995694866707311
 17
3303.693115234375
 27
195.2615115758877096
 37
0.0
 40
6.1382132037248587
 41
2.6486111111111108
 42
50.0
 43
0.0
 44
0.0
 50
0.0
 51
0.0
 71
     0
 72
   100
 73
     1
 74
     1
 75
     0
 76
     0
 77
     0
 78
     0
  0
ENDTAB
  0
TABLE
  2
LTYPE
 70
     2
  0
LTYPE
  2
CONTINUOUS
 70
     0
  3
Solid line
 72
    65
 73
     0
 40
0.0
  0
LTYPE
  2
PHANTOM2
 70
     0
  3
___ _ _ ___ _ _ ___ _ _ ___ _ _
 72
    65
 73
     6
 40
1.25
 49
0.625
 49
-0.125
 49
0.125
 49
-0.125
 49
0.125
 49
-0.125
  0
ENDTAB
  0
TABLE
  2
LAYER
 70
     2
  0
LAYER
  2
0
 70
     0
 62
   255
  6
CONTINUOUS
  0
LAYER
  2
DEFPOINTS
 70
     0
 62
     7
  6
CONTINUOUS
  0
ENDTAB
  0
TABLE
  2
STYLE
 70
     1
  0
STYLE
  2
STANDARD
 70
     0
 40
0.0
 41
0.8
 50
0.0
 71
     0
 42
0.2
  3
txt
  4

  0
ENDTAB
  0
TABLE
  2
VIEW
 70
     0
  0
ENDTAB
  0
TABLE
  2
UCS
 70
     0
  0
ENDTAB
  0
TABLE
  2
APPID
 70
     9
  0
APPID
  2
ACAD
 70
     0
  0
APPID
  2
ACAD_MLEADERVER
 70
     0
  0
APPID
  2
ACAD_EXEMPT_FROM_CAD_STANDARDS
 70
     0
  0
APPID
  2
ACAD_NAV_VCDISPLAY
 70
     0
  0
APPID
  2
ACAECLAYERSTANDARD
 70
     0
  0
APPID
  2
ACCMTRANSPARENCY
 70
     0
  0
APPID
  2
ACAD_DSTYLE_DIMJAG
 70
     0
  0
APPID
  2
ACAD_DSTYLE_DIMTALN
 70
     0
  0
APPID
  2
ACDBATTR
 70
     0
  0
ENDTAB
  0
TABLE
  2
DIMSTYLE
 70
     1
  0
DIMSTYLE
  2
STANDARD
 70
     0
  3

  4

  5

  6

  7

 40
1.0
 41
0.1875
 42
0.0625
 43
0.38
 44
0.125
 45
0.0
 46
0.0
 47
0.01
 48
0.01
140
0.15625
141
0.09
142
0.0
143
25.3999999999999986
144
1.0
145
0.0
146
1.0
147
0.09
 71
     1
 72
     0
 73
     1
 74
     1
 75
     0
 76
     0
 77
     0
 78
     4
170
     0
171
     2
172
     0
173
     0
174
     0
175
     0
176
     0
177
     0
178
     0
  0
ENDTAB
  0
ENDSEC
  0
SECTION
  2
BLOCKS
  0
BLOCK
  8
0
  2
$MODEL_SPACE
 70
     0
 10
0.0
 20
0.0
 30
0.0
  3
$MODEL_SPACE
  1

  0
ENDBLK
  5
21
  8
0
  0
BLOCK
 67
     1
  8
0
  2
$PAPER_SPACE
 70
     0
 10
0.0
 20
0.0
 30
0.0
  3
$PAPER_SPACE
  1

  0
ENDBLK
  5
1D
 67
     1
  8
0
  0
BLOCK
  8
0
  2
_FILLED
 70
     0
 10
0.0
 20
0.0
 30
0.0
  3
_FILLED
  1

  0
SOLID
  5
9E2C
  8
0
  6
BYBLOCK
 62
     0
 10
0.0
 20
0.0
 30
0.0
 11
-1.0
 21
0.1666666667
 31
0.0
 12
-1.0
 22
-0.1666666667
 32
0.0
 13
-1.0
 23
-0.1666666667
 33
0.0
  0
ENDBLK
  5
9E2D
  8
0
  6
BYBLOCK
 62
     0
  0
BLOCK
  8
0
  2
A$C6B0F1CD5
 70
     2
 10
0.0
 20
0.0
 30
0.0
  3
A$C6B0F1CD5
  1

  0
ATTDEF
  5
B779
  8
DEFPOINTS
 10
0.0005209962714616
 20
0.000347009907216
 30
0.0
 40
0.001
  1
BATH FAUCET
  3

  2
PRODUCT
 70
     0
1001
ACDBATTR
1070
     0
1070
     1
  0
ATTDEF
  5
B77A
  8
DEFPOINTS
 10
0.0005209962714616
 20
0.0020136765738812
 30
0.0
 40
0.001
  1
SINGULIER
  3

  2
TRADENAME
 70
     0
1001
ACDBATTR
1070
     0
1070
     1
  0
ATTDEF
  5
B77B
  8
DEFPOINTS
 10
0.0005209962714616
 20
0.0036803432405463
 30
0.0
 40
0.001
  1
K-10873W
  3

  2
MODELNUMBER
 70
     0
1001
ACDBATTR
1070
     0
1070
     1
  0
ENDBLK
  5
B77F
  8
0
  0
ENDSEC
  0
SECTION
  2
ENTITIES
  0
ATTDEF
  5
14FC8
  8
DEFPOINTS
 10
3472.9448153596840712
 20
143.9010604214404054
 30
0.0
 40
0.001
  1
K-8623IN
  3

  2
MODELNUMBER
 70
     0
1001
ACDBATTR
1070
     0
1070
     1
  0
ATTDEF
  5
14FC9
  8
DEFPOINTS
 10
3472.9448153596840712
 20
143.8993937547737971
 30
0.0
 40
0.001
  1
EOLIA
  3

  2
TRADENAME
 70
     0
1001
ACDBATTR
1070
     0
1070
     1
  0
ATTDEF
  5
14FCA
  8
DEFPOINTS
 10
3472.9448153596840712
 20
143.8977270881071036
 30
0.0
 40
0.001
  1
KITCHEN SINK FAUCET
  3

  2
PRODUCT
 70
     0
1001
ACDBATTR
1070
     0
1070
     1
  0
LINE
  5
15BF8
  8
0
 10
3473.8301405122538199
 20
143.8969688790473924
 30
0.0
 11
3472.0584869689528205
 21
143.8969688790473924
 31
0.0
  0
LINE
  5
15BF9
  8
0
 10
3473.8301405122538199
 20
143.8969688790473924
 30
0.0
 11
3473.8301405122538199
 21
144.2001184853473887
 31
0.0
  0
LINE
  5
15BFB
  8
0
 10
3472.0584869689528205
 20
143.8969688790473924
 30
0.0
 11
3472.0584869689528205
 21
144.2001184853473887
 31
0.0
  0
LINE
  5
15BFC
  8
0
 10
3472.0584869689528205
 20
144.2001184853473887
 30
0.0
 11
3472.0702979925540603
 21
144.211929509047394
 31
0.0
  0
LINE
  5
15BFD
  8
0
 10
3472.0702979925540603
 20
144.211929509047394
 30
0.0
 11
3473.8183294886530348
 21
144.211929509047394
 31
0.0
  0
LINE
  5
15BFE
  8
0
 10
3473.8183294886530348
 20
144.211929509047394
 30
0.0
 11
3473.8301405122538199
 21
144.2001184853473887
 31
0.0
  0
LINE
  5
15BFF
  8
0
 10
3472.9443137406037749
 20
144.2504334460473956
 30
0.0
 11
3473.8183294886530348
 21
144.2504334460473956
 31
0.0
  0
LINE
  5
15C00
  8
0
 10
3473.8183294886530348
 20
144.2504334460473956
 30
0.0
 11
3473.8301405122538199
 21
144.2622444696474133
 31
0.0
  0
LINE
  5
15C01
  8
0
 10
3473.8301405122538199
 20
144.2622444696474133
 30
0.0
 11
3473.8301405122538199
 21
145.3409846271474066
 31
0.0
  0
LINE
  5
15C02
  8
0
 10
3473.8301405122538199
 20
145.3409846271474066
 30
0.0
 11
3473.8183294886530348
 21
145.3527956507473959
 31
0.0
  0
LINE
  5
15C03
  8
0
 10
3473.8183294886530348
 20
145.3527956507473959
 30
0.0
 11
3473.4954947511541832
 21
145.3527956507473959
 31
0.0
  0
LINE
  5
15C04
  8
0
 10
3473.4954947511541832
 20
145.3409846271474066
 30
0.0
 11
3473.8301405122538199
 21
145.3409846271474066
 31
0.0
  0
ARC
  5
15C05
  8
0
 10
3474.7045289715351828
 20
144.6318901961084862
 30
0.0
 40
1.209409695134068
 50
178.572248866367687
 51
179.8782104007343037
  0
LINE
  5
15C06
  8
0
 10
3473.4954947511541832
 20
144.6620243068473997
 30
0.0
 11
3473.4954947511541832
 21
149.5938388180973959
 31
0.0
  0
ARC
  5
15C07
  8
0
 10
3473.1866286419940479
 20
149.5967876653627116
 30
0.0
 40
0.3088801856506435
 50
359.4529947946675748
 51
23.76718529357343
  0
ARC
  5
15C08
  8
0
 10
3473.2515559891057819
 20
149.625379813060988
 30
0.0
 40
0.2379360434476464
 50
23.7671448655994091
 51
42.4155904158799473
  0
ARC
  5
15C09
  8
0
 10
3473.0162460437040863
 20
149.4103948610733141
 30
0.0
 40
0.5566668075511757
 50
42.4155904158799473
 51
67.9786768983719725
  0
ARC
  5
15C0A
  8
0
 10
3472.9443584114637815
 20
149.2775273234535973
 30
0.0
 40
0.7069955031669064
 50
66.6151004605765422
 51
90.003620181137066
  0
ARC
  5
15C0B
  8
0
 10
3473.0196622162388849
 20
148.0482646105604942
 30
0.0
 40
0.7374900481005059
 50
26.1749864002477217
 51
49.8189252994050875
  0
ARC
  5
15C0C
  8
0
 10
3472.2330152380109212
 20
147.7106036272413974
 30
0.0
 40
1.5930210611507869
 50
6.1992544832025143
 51
24.5934403780739714
  0
ARC
  5
15C0D
  8
0
 10
3467.6966348560340521
 20
147.135656017643214
 30
0.0
 40
6.165502471828864
 50
1.3114687834430649
 51
6.9586794495790194
  0
ARC
  5
15C0E
  8
0
 10
3457.0102923818390082
 20
146.7971149626133069
 30
0.0
 40
16.8570553382768793
 50
359.9323279542135197
 51
1.6305244814960731
  0
LINE
  5
15C0F
  8
0
 10
3473.867335962344896
 20
146.7772050990047887
 30
0.0
 11
3473.4954947511541832
 21
146.7772050990047887
 31
0.0
  0
ARC
  5
15C10
  8
0
 10
3472.7276050859900351
 20
146.7135994007574027
 30
0.0
 40
1.027746640268689
 50
0.3028643838362679
 51
3.5482173858218071
  0
LINE
  5
15C11
  8
0
 10
3473.4954947511541832
 20
146.718937383047404
 30
0.0
 11
3473.7710853941539426
 21
146.718937383047404
 31
0.0
  0
LINE
  5
15C12
  8
0
 10
3473.7710853941539426
 20
146.718937383047404
 30
0.0
 11
3473.8301405122538199
 21
145.3803547058473953
 31
0.0
  0
LINE
  5
15C13
  8
0
 10
3473.8301405122538199
 20
145.3803547058473953
 30
0.0
 11
3473.4954947511541832
 21
145.3803547058473953
 31
0.0
  0
LINE
  5
15C14
  8
0
 10
3473.7120302760531558
 20
145.3803547058473953
 30
0.0
 11
3473.7120302760531558
 21
145.3527956507473959
 31
0.0
  0
ARC
  5
15C15
  8
0
 10
3472.9641694949018529
 20
146.9138241241186051
 30
0.0
 40
2.4929511713171491
 50
82.157732444763937
 51
90.4563518796420141
  0
ARC
  5
15C16
  8
0
 10
3473.1934693943439925
 20
148.5786194662518938
 30
0.0
 40
0.8124387568813409
 50
72.1823781678526331
 51
82.157732444763937
  0
ARC
  5
15C17
  8
0
 10
3473.398088965693205
 20
149.2152620152828888
 30
0.0
 40
0.1437213993860404
 50
53.5844214484109287
 51
72.1823781678526331
  0
ARC
  5
15C18
  8
0
 10
3473.4675665472600485
 20
149.3076096716989127
 30
0.0
 40
0.0281828128635001
 50
7.707433979207428
 51
55.8005638605090866
  0
ARC
  5
15C19
  8
0
 10
3472.947118872781175
 20
146.3859382000113953
 30
0.0
 40
2.9819873817192959
 50
86.1772958145386241
 51
90.0538977000191636
  0
ARC
  5
15C1A
  8
0
 10
3473.0042634529440875
 20
147.2411661999371972
 30
0.0
 40
2.1248523661592902
 50
82.0424903972211723
 51
86.1772958145386241
  0
ARC
  5
15C1B
  8
0
 10
3473.1636909813610146
 20
148.3816884793282895
 30
0.0
 40
0.9732412310079586
 50
74.7602915421924337
 51
82.0424903972211723
  0
ARC
  5
15C1C
  8
0
 10
3473.3544053202558644
 20
149.0817160396780139
 30
0.0
 40
0.2476996785730815
 50
60.8882238318420832
 51
74.7602915421924337
  0
ARC
  5
15C1D
  8
0
 10
3473.4491694863568227
 20
149.251891324840102
 30
0.0
 40
0.0529180704659314
 50
35.9227595979265999
 51
60.8882238318428719
  0
ARC
  5
15C1E
  8
0
 10
3473.4771886041671678
 20
149.272202957792814
 30
0.0
 40
0.018311234238908
 50
1.350611798370946
 51
35.8918280234180713
  0
ARC
  5
15C1F
  8
0
 10
3472.9460338820849756
 20
146.4270668974068883
 30
0.0
 40
2.9180536213371671
 50
86.5495857403267337
 51
90.0337748600720147
  0
ARC
  5
15C20
  8
0
 10
3472.9917854678701588
 20
147.1858752420604048
 30
0.0
 40
2.157867255031114
 50
82.4247870789130275
 51
86.5495857403267337
  0
ARC
  5
15C21
  8
0
 10
3473.1389968974199292
 20
148.2928263502323034
 30
0.0
 40
1.0411703575369471
 50
76.7967611484480557
 51
82.4247870789130275
  0
ARC
  5
15C22
  8
0
 10
3473.2915669545777746
 20
148.9431467493882906
 30
0.0
 40
0.3731926304384387
 50
64.4467885720125793
 51
76.7967611484480557
  0
ARC
  5
15C23
  8
0
 10
3473.4302994226732153
 20
149.233311597016808
 30
0.0
 40
0.0515681032281987
 50
33.4369750059287227
 51
64.4467885720118829
  0
ARC
  5
15C24
  8
0
 10
3473.4603884492507859
 20
149.2531795262596859
 30
0.0
 40
0.0155114237806488
 50
346.997500415180923
 51
33.4369750059287227
  0
ARC
  5
15C25
  8
0
 10
3473.4533029133449418
 20
149.2548156767099101
 30
0.0
 40
0.0227834116354998
 50
326.5983880603178022
 51
346.997500415180923
  0
ARC
  5
15C26
  8
0
 10
3473.4452504338341896
 20
149.2601256337003122
 30
0.0
 40
0.0324290360071093
 50
310.9955378284975041
 51
326.5983880603163811
  0
ARC
  5
15C27
  8
0
 10
3473.37190289377304
 20
149.3607046202833999
 30
0.0
 40
0.1568181200722898
 50
285.6726795058642097
 51
307.1123937707594109
  0
ARC
  5
15C28
  8
0
 10
3473.4769433333681263
 20
149.2724882992988
 30
0.0
 40
0.0185694379567171
 50
347.5903467665435187
 51
357.4756310149261935
  0
ARC
  5
15C29
  8
0
 10
3473.4718118412051808
 20
149.2743848739096109
 30
0.0
 40
0.0240003180458929
 50
318.9080143811873995
 51
345.8007653097894263
  0
ARC
  5
15C2A
  8
0
 10
3472.6736853809511558
 20
150.0644569917882052
 30
0.0
 40
1.1469939242613041
 50
313.8311984382893911
 51
315.3662087859663075
  0
LINE
  5
15C2B
  8
0
 10
3473.4142039393727828
 20
149.2701090908338983
 30
0.0
 11
3473.4141952263780695
 21
149.0659218264457877
 31
0.0
  0
ARC
  5
15C2C
  8
0
 10
3473.3970053258431108
 20
149.2584988927339111
 30
0.0
 40
0.0286760777459544
 50
307.1485902809337176
 51
341.9509307077034919
  0
ARC
  5
15C2D
  8
0
 10
3473.4090286580699285
 20
149.2528480275173024
 30
0.0
 40
0.015580936170487
 50
348.0209585250461828
 51
30.6051370947517007
  0
ARC
  5
15C2E
  8
0
 10
3473.3935545648309926
 20
149.2435806705805987
 30
0.0
 40
0.0336177594449634
 50
30.7725573350187709
 51
52.1032776509123607
  0
ARC
  5
15C2F
  8
0
 10
3473.3238957332278005
 20
149.1416025399840919
 30
0.0
 40
0.1570652912277247
 50
54.9023012099921601
 51
75.7391423347831108
  0
ARC
  5
15C30
  8
0
 10
3473.1263375492740124
 20
148.4450633623071951
 30
0.0
 40
0.8810304473420369
 50
74.4457315445793739
 51
83.7838739316899535
  0
ARC
  5
15C31
  8
0
 10
3472.969338397591855
 20
147.1798671094003907
 30
0.0
 40
2.1558721981016848
 50
83.2767405180315166
 51
88.3149784412242838
  0
ARC
  5
15C32
  8
0
 10
3472.9531303427997955
 20
147.1398851486524961
 30
0.0
 40
2.1963650536753412
 50
87.9222819683595134
 51
90.229996125323666
  0
ARC
  5
15C33
  8
0
 10
3472.9487554707220625
 20
148.6682059168601882
 30
0.0
 40
0.6215975935093314
 50
90.409420817154043
 51
107.1435959882570046
  0
LINE
  5
15C34
  8
0
 10
3473.1347654030541889
 20
149.261319627147401
 30
0.0
 11
3473.1347654030541889
 21
149.1405124098473891
 31
0.0
  0
ARC
  5
15C35
  8
0
 10
3473.0091705580512098
 20
147.4588734225918074
 30
0.0
 40
1.6863225517526279
 50
81.9869508007047045
 51
85.7287388360838349
  0
ARC
  5
15C36
  8
0
 10
3473.1444217536159158
 20
148.3741854860863043
 30
0.0
 40
0.7611198310653866
 50
74.0339104134202302
 51
82.4640247726381261
  0
ARC
  5
15C37
  8
0
 10
3473.2993798759030142
 20
148.9155589644419138
 30
0.0
 40
0.1980059473161729
 50
60.6614500355808133
 51
74.0529596395905401
  0
ARC
  5
15C38
  8
0
 10
3473.3691109337319176
 20
149.0414073367560093
 30
0.0
 40
0.0541399113488601
 50
42.3657009496689625
 51
59.7359623137933866
  0
ARC
  5
15C39
  8
0
 10
3473.3920873319571001
 20
149.0628589927221128
 30
0.0
 40
0.0227111418095928
 50
21.5837750915315105
 51
41.4401298155661877
  0
ARC
  5
15C3A
  8
0
 10
3473.3991498926179702
 20
149.0658464119775886
 30
0.0
 40
0.0150459227961424
 50
0.2841748758260062
 51
20.8986844490780506
  0
ARC
  5
15C3B
  8
0
 10
3473.3991675956358449
 20
149.0659936842340869
 30
0.0
 40
0.015028210313048
 50
339.30979624729639
 51
359.7230249541539138
  0
ARC
  5
15C3C
  8
0
 10
3473.3634315313561274
 20
149.0920362661738068
 30
0.0
 40
0.0588430896989761
 50
291.0828778822984759
 51
327.8043885687631018
  0
ARC
  5
15C3D
  8
0
 10
1828.7996741496069717
 20
3186.5922245471388123
 30
0.0
 40
3454.1859407202541661
 50
298.431178483916824
 51
298.4318815992878058
  0
ARC
  5
15C3E
  8
0
 10
3473.2030797766169599
 20
149.334777370888105
 30
0.0
 40
0.3490270387376768
 50
279.2651509151539813
 51
294.4104617270239146
  0
ARC
  5
15C3F
  8
0
 10
3473.0043015063738494
 20
150.421087944556092
 30
0.0
 40
1.453325301231909
 50
272.7367628192557731
 51
280.1043233977147793
  0
ARC
  5
15C40
  8
0
 10
3472.9454632433808001
 20
151.3046185048148971
 30
0.0
 40
2.338716323763621
 50
269.9718385425219935
 51
273.1430766808932731
  0
ARC
  5
15C41
  8
0
 10
3472.9449987721718571
 20
146.7480153393528894
 30
0.0
 40
2.3648724012109721
 50
87.2227760078574192
 51
90.0165968439720672
  0
ARC
  5
15C42
  8
0
 10
3472.9670758105739878
 20
147.2031280119263101
 30
0.0
 40
1.9092245762831499
 50
83.6308969225204208
 51
87.222765792758949
  0
ARC
  5
15C43
  8
0
 10
3473.061294001035094
 20
148.0472108812475085
 30
0.0
 40
1.0598995750644049
 50
78.8767556636350093
 51
83.6308969225204208
  0
ARC
  5
15C44
  8
0
 10
3473.1799043611731577
 20
148.650477373366698
 30
0.0
 40
0.4450834415368404
 50
69.633755262568954
 51
78.8767556636350093
  0
ARC
  5
15C45
  8
0
 10
3473.3044742613060407
 20
148.9860407128184931
 30
0.0
 40
0.0871443198927239
 50
50.3926718229646298
 51
69.633755262568954
  0
ARC
  5
15C46
  8
0
 10
3473.3453898232778556
 20
149.0354862534541951
 30
0.0
 40
0.0229653147572502
 50
22.447662053123711
 51
50.3926718229646298
  0
ARC
  5
15C47
  8
0
 10
3473.3549439315002019
 20
149.039433473751501
 30
0.0
 40
0.0126279295947508
 50
342.5461559544121997
 51
22.4476620531222117
  0
ARC
  5
15C48
  8
0
 10
3473.3491452698949615
 20
149.0412566504041934
 30
0.0
 40
0.0187064532248593
 50
320.1457667809335135
 51
342.5461559544137913
  0
ARC
  5
15C49
  8
0
 10
3473.3319509676048256
 20
149.0556099977725069
 30
0.0
 40
0.0411042792785188
 50
301.0953740718607037
 51
320.1457667809335135
  0
ARC
  5
15C4A
  8
0
 10
3473.3693725976468158
 20
148.9935641271482041
 30
0.0
 40
0.031353076846023
 50
121.0953740718837963
 51
126.2193899066347029
  0
ARC
  5
15C4B
  8
0
 10
3472.9448130009091074
 20
146.8796742729167022
 30
0.0
 40
2.2285987416192938
 50
87.5686804215440588
 51
90.0125882868122602
  0
ARC
  5
15C4C
  8
0
 10
3472.959250930797225
 20
147.2197101388728981
 30
0.0
 40
1.88825649628966
 50
84.3785034842435238
 51
87.5686804215440588
  0
ARC
  5
15C4D
  8
0
 10
3473.0294165065997731
 20
147.9325600410265906
 30
0.0
 40
1.1719617308275641
 50
80.7265597835003348
 51
84.3785034842435238
  0
ARC
  5
15C4E
  8
0
 10
3473.1141240967858721
 20
148.4513462923546001
 30
0.0
 40
0.6463054263832019
 50
74.584661712021628
 51
80.7265597835003348
  0
ARC
  5
15C4F
  8
0
 10
3473.2336813673100551
 20
148.8849428106836967
 30
0.0
 40
0.1965278350760038
 50
66.3799929827959119
 51
74.584661712021628
  0
ARC
  5
15C50
  8
0
 10
3473.2721238615440598
 20
148.9728505185690892
 30
0.0
 40
0.1005820667034007
 50
51.5424072295802205
 51
66.3799929827959119
  0
ARC
  5
15C51
  8
0
 10
3473.324517315445064
 20
149.0388182786620064
 30
0.0
 40
0.0163394445736089
 50
354.8777224854728729
 51
51.5424072295802205
  0
ARC
  5
15C52
  8
0
 10
3473.3240063528642168
 20
149.0408283333428017
 30
0.0
 40
0.01713984942293
 50
317.3192940295169251
 51
348.3234782717872235
  0
ARC
  5
15C53
  8
0
 10
3473.2812106533651786
 20
149.0882574048270044
 30
0.0
 40
0.0809655582055084
 50
288.5988378477703122
 51
313.1720483134013762
  0
ARC
  5
15C54
  8
0
 10
3473.2022443697151175
 20
149.2844230291273959
 30
0.0
 40
0.2923298427379235
 50
283.0143713526807119
 51
291.0058363453441075
  0
ARC
  5
15C55
  8
0
 10
3473.0748643890051426
 20
149.8355356341330946
 30
0.0
 40
0.8579717461378951
 50
278.0235638076297278
 51
283.0143713526807119
  0
ARC
  5
15C56
  8
0
 10
3472.9559069182109852
 20
150.5841981221765877
 30
0.0
 40
1.6159642008425861
 50
269.5889476723702955
 51
278.4949363416508845
  0
ARC
  5
15C57
  8
0
 10
3472.9493068334340933
 20
150.6489185695313893
 30
0.0
 40
1.6708352768140999
 50
269.8287781113830874
 51
275.6093646575549201
  0
ARC
  5
15C58
  8
0
 10
3473.0550909789990328
 20
149.6568645396721138
 30
0.0
 40
0.6732432642850924
 50
274.9011171292232234
 51
285.439156440147201
  0
ARC
  5
15C59
  8
0
 10
3473.2046847366727889
 20
149.115213950809391
 30
0.0
 40
0.1113147521500633
 50
285.439156440147201
 51
304.2285017477663018
  0
ARC
  5
15C5A
  8
0
 10
3473.2569312508958319
 20
149.038417742586887
 30
0.0
 40
0.0184311914631019
 50
304.2285017477663018
 51
348.4973902225661959
  0
ARC
  5
15C5B
  8
0
 10
3473.2640344244109656
 20
149.0354447043440018
 30
0.0
 40
0.0109803261386389
 50
356.3324857296802861
 51
29.3581291066272314
  0
ARC
  5
15C5C
  8
0
 10
3473.2483570687049905
 20
149.0247479468519032
 30
0.0
 40
0.0299333329666891
 50
32.4929203212526971
 51
60.5246179791740389
  0
ARC
  5
15C5D
  8
0
 10
3473.2174553670201931
 20
148.9766203498701884
 30
0.0
 40
0.0870963826615524
 50
58.4053231135138873
 51
66.9337970150281336
  0
ARC
  5
15C5E
  8
0
 10
3472.9448215361871917
 20
147.3613491168611063
 30
0.0
 40
1.728172782890014
 50
89.1082325391832484
 51
90.0168354371089094
  0
ARC
  5
15C5F
  8
0
 10
3472.9378160512260365
 20
146.9112852521708987
 30
0.0
 40
2.1782911663396982
 50
87.5327575296583404
 51
89.1082325391832484
  0
ARC
  5
15C60
  8
0
 10
3472.9668662430608492
 20
147.5854891393574064
 30
0.0
 40
1.503461710000533
 50
84.2141694507100311
 51
87.5327575296583404
  0
ARC
  5
15C61
  8
0
 10
3473.0149518307321159
 20
148.0600502153625939
 30
0.0
 40
1.0264706842978291
 50
79.1914344656582045
 51
84.2141694507100311
  0
ARC
  5
15C62
  8
0
 10
3473.1440881044959497
 20
148.7364568711232096
 30
0.0
 40
0.3378473176026621
 50
71.4371008031325232
 51
79.1914344656582045
  0
ARC
  5
15C63
  8
0
 10
3473.2125342867020663
 20
148.9363443028547067
 30
0.0
 40
0.1265757355791201
 50
60.4187448830996416
 51
72.003831976676608
  0
ARC
  5
15C64
  8
0
 10
3473.2630645709350574
 20
149.021081584715489
 30
0.0
 40
0.0280185358236041
 50
27.8348850302072606
 51
64.7433757668869561
  0
ARC
  5
15C65
  8
0
 10
3473.2776683627680541
 20
149.0296534345071962
 30
0.0
 40
0.0111281002331203
 50
326.8761245157663211
 51
23.91268727071337
  0
ARC
  5
15C66
  8
0
 10
3473.2546250741352196
 20
149.0480005490300073
 30
0.0
 40
0.0405474159201212
 50
302.2574446913357065
 51
322.9539267562793725
  0
ARC
  5
15C67
  8
0
 10
3473.2133780489511992
 20
149.1210590536296934
 30
0.0
 40
0.1244124827172696
 50
287.9700396301470846
 51
300.3633003704086946
  0
ARC
  5
15C68
  8
0
 10
3473.1333833535418307
 20
149.3631746631056956
 30
0.0
 40
0.3793997010829309
 50
280.8658022706050019
 51
288.1807044801379902
  0
ARC
  5
15C69
  8
0
 10
3473.0485600718120622
 20
149.7847370440478869
 30
0.0
 40
0.8094031191369946
 50
277.2075621663772722
 51
281.1372092275798877
  0
ARC
  5
15C6A
  8
0
 10
3472.9609303427168925
 20
150.5230295175470019
 30
0.0
 40
1.5528665403527919
 50
271.2920351313882747
 51
276.9975465002218016
  0
ARC
  5
15C6B
  8
0
 10
3472.9444874434261692
 20
150.9295895129172038
 30
0.0
 40
1.9597074199697511
 50
269.9949214670618858
 51
271.5046305819352028
  0
ARC
  5
15C6C
  8
0
 10
3473.3656016483209896
 20
150.0530274512078108
 30
0.0
 40
0.9760709578825373
 50
258.9993975996213749
 51
260.8697857430601061
  0
ARC
  5
15C6D
  8
0
 10
3473.1498825593548645
 20
148.7107809905517968
 30
0.0
 40
0.3833996326371781
 50
74.2027416443300183
 51
80.8697857430601061
  0
ARC
  5
15C6E
  8
0
 10
3473.1590493335661449
 20
148.7431816014384083
 30
0.0
 40
0.3497272502553839
 50
68.990194433260001
 51
74.2027416443300183
  0
ARC
  5
15C6F
  8
0
 10
3473.2558055715521732
 20
148.9951113414443
 30
0.0
 40
0.0798562375686211
 50
52.4305969577401925
 51
68.990194433260001
  0
ARC
  5
15C70
  8
0
 10
3473.2907430628788461
 20
149.0405287498957989
 30
0.0
 40
0.0225555456814226
 50
18.2358581606935992
 51
52.4305969577391977
  0
ARC
  5
15C71
  8
0
 10
3473.293408930042915
 20
149.0445352926375051
 30
0.0
 40
0.0190034967749551
 50
350.0187490458703792
 51
9.2410790545275141
  0
ARC
  5
15C72
  8
0
 10
3473.2839033357131484
 20
149.0456361956111948
 30
0.0
 40
0.0285615902391542
 50
326.9399934340651726
 51
351.1488774828638952
  0
ARC
  5
15C73
  8
0
 10
3473.2661891447792186
 20
149.0589338295345101
 30
0.0
 40
0.0506835874871789
 50
298.6621859292458225
 51
325.2651485837312748
  0
ARC
  5
15C74
  8
0
 10
3473.1985791336851435
 20
149.1855443009864075
 30
0.0
 40
0.1942134156534654
 50
283.7284940241498816
 51
298.2483541247810876
  0
ARC
  5
15C75
  8
0
 10
3473.1083400197958326
 20
149.5133129923156048
 30
0.0
 40
0.5341251024183005
 50
280.0486618988750251
 51
284.787806692739025
  0
ARC
  5
15C76
  8
0
 10
3473.2340470815920526
 20
148.7908583318371996
 30
0.0
 40
0.1991940112778512
 50
99.3932782686959939
 51
102.1443564434654974
  0
LINE
  5
15C77
  8
0
 10
3473.3124239767539621
 20
149.0650061090474026
 30
0.0
 11
3473.3124103868399288
 21
149.0442568518427038
 31
0.0
  0
ARC
  5
15C78
  8
0
 10
3474.2103753175151724
 20
154.2931178421787024
 30
0.0
 40
5.32181323871764
 50
258.5752666983834729
 51
258.9134432852425221
  0
ARC
  5
15C79
  8
0
 10
3473.1324883058859996
 20
148.7922503452134038
 30
0.0
 40
0.2836647631128835
 50
75.161903204281046
 51
78.913443285242451
  0
ARC
  5
15C7A
  8
0
 10
3473.1524950574621471
 20
148.8486971226982121
 30
0.0
 40
0.2240300461140148
 50
68.7415244282223057
 51
76.4111433124726318
  0
ARC
  5
15C7B
  8
0
 10
3473.2060867495720231
 20
148.9821884248449066
 30
0.0
 40
0.0802060722633642
 50
54.637137339342793
 51
69.8447568248467405
  0
ARC
  5
15C7C
  8
0
 10
3473.2382684354161029
 20
149.0283686476898879
 30
0.0
 40
0.0239255886660369
 50
28.3323238191060014
 51
53.4811981747209231
  0
ARC
  5
15C7D
  8
0
 10
3473.2502891444610214
 20
149.035530619596301
 30
0.0
 40
0.0099639127086457
 50
348.3913560442749144
 51
24.8846981802060689
  0
ARC
  5
15C7E
  8
0
 10
3473.2356302299931485
 20
149.0438548171053981
 30
0.0
 40
0.0265137792067835
 50
298.4668144974341999
 51
337.0717378828441042
  0
ARC
  5
15C7F
  8
0
 10
3473.1726754823739611
 20
149.1590916095248076
 30
0.0
 40
0.1578255820640139
 50
282.662811500790383
 51
298.6176616889641764
  0
ARC
  5
15C80
  8
0
 10
3473.0479762831050721
 20
149.6616238807592936
 30
0.0
 40
0.675568424728144
 50
276.0007550849226732
 51
283.6385735392844936
  0
ARC
  5
15C81
  8
0
 10
3472.9869623160229821
 20
150.0655152605351077
 30
0.0
 40
1.0837823455184259
 50
271.685716296388307
 51
276.9765171234150785
  0
ARC
  5
15C82
  8
0
 10
3472.9447078240900737
 20
150.7572115408814
 30
0.0
 40
1.776557126428939
 50
269.9872904054931269
 51
272.3916618213063998
  0
ARC
  5
15C83
  8
0
 10
3472.9450936543280477
 20
150.7383663595076086
 30
0.0
 40
1.7503379734349991
 50
269.9744702069286859
 51
273.0594917526369159
  0
ARC
  5
15C84
  8
0
 10
3472.9650942082039364
 20
150.3641676239462868
 30
0.0
 40
1.375605114119127
 50
273.0594917526369159
 51
276.7262920952525747
  0
ARC
  5
15C85
  8
0
 10
3473.0440569259808399
 20
149.6946416417216881
 30
0.0
 40
0.7014388500027743
 50
276.7262920952525747
 51
283.361911566389324
  0
ARC
  5
15C86
  8
0
 10
3473.1606287199338112
 20
149.2038775428798942
 30
0.0
 40
0.1970199924474271
 50
283.361911566389324
 51
293.6188710662158883
  0
ARC
  5
15C87
  8
0
 10
3473.2135157811608224
 20
149.0829324397697064
 30
0.0
 40
0.0650171166773486
 50
293.6188710662158883
 51
309.0088534814938157
  0
ARC
  5
15C88
  8
0
 10
3473.2434316287672118
 20
149.0460011145036958
 30
0.0
 40
0.017489432914443
 50
309.0088534815150751
 51
337.1517631019544865
  0
ARC
  5
15C89
  8
0
 10
3472.9447521087167843
 20
150.7830962822831111
 30
0.0
 40
1.7900605765929209
 50
269.9860373813257866
 51
272.5827241189936103
  0
ARC
  5
15C8A
  8
0
 10
3472.9588302677848333
 20
150.4709945427806872
 30
0.0
 40
1.477641482485071
 50
272.5827241189936103
 51
276.120091968122324
  0
ARC
  5
15C8B
  8
0
 10
3473.0265440126199792
 20
149.839477034330713
 30
0.0
 40
0.842504084185707
 50
276.120091968122324
 51
280.2154116504084982
  0
ARC
  5
15C8C
  8
0
 10
3473.0976996248168689
 20
149.4446201995484103
 30
0.0
 40
0.4412871339936404
 50
280.2154116504084982
 51
286.9397714329539895
  0
ARC
  5
15C8D
  8
0
 10
3473.1900222887347809
 20
149.1415071370416001
 30
0.0
 40
0.1244259610248156
 50
286.9397714329539895
 51
298.6208942865703762
  0
ARC
  5
15C8E
  8
0
 10
3473.2288632377822069
 20
149.0703295691538131
 30
0.0
 40
0.0433404167318166
 50
298.6208942865703762
 51
314.7862615330490144
  0
ARC
  5
15C8F
  8
0
 10
3472.9443128294578855
 20
147.0672013794057875
 30
0.0
 40
2.023687596541615
 50
89.107594672971004
 51
89.9999742031281897
  0
ARC
  5
15C90
  8
0
 10
3472.9451716164548998
 20
147.122334276959208
 30
0.0
 40
1.9685480108727289
 50
87.5828857551475863
 51
89.107594672971004
  0
ARC
  5
15C91
  8
0
 10
3472.9551637451991155
 20
147.3590492499415916
 30
0.0
 40
1.7316222396469609
 50
85.5497154138640639
 51
87.5828857551475863
  0
ARC
  5
15C92
  8
0
 10
3472.9848224638640204
 20
147.7401261652946118
 30
0.0
 40
1.3493929171090511
 50
82.7596948091608766
 51
85.5497154138640639
  0
ARC
  5
15C93
  8
0
 10
3473.0602965673851941
 20
148.3342040289458907
 30
0.0
 40
0.7505399732382719
 50
75.9217690127327529
 51
82.7596948091608766
  0
ARC
  5
15C94
  8
0
 10
3473.198759094243087
 20
148.8863342187077876
 30
0.0
 40
0.1813127621963256
 50
65.5965209625133241
 51
75.9217690127327529
  0
ARC
  5
15C95
  8
0
 10
3473.2412773620089865
 20
148.9800500933907017
 30
0.0
 40
0.0784027614125414
 50
50.84510828326259
 51
65.5965209625133241
  0
ARC
  5
15C96
  8
0
 10
3473.2801858612951946
 20
149.0278333847942065
 30
0.0
 40
0.0167820323189162
 50
16.0497189615189413
 51
50.84510828326259
  0
ARC
  5
15C97
  8
0
 10
3473.2863284796558219
 20
149.0296005222930091
 30
0.0
 40
0.0103902770614999
 50
332.4503468802262205
 51
16.0497189615220712
  0
ARC
  5
15C98
  8
0
 10
3473.2657796150670038
 20
149.0430850706767103
 30
0.0
 40
0.0349320644106086
 50
295.5744015755900023
 51
328.4263401904805164
  0
ARC
  5
15C99
  8
0
 10
3473.2110368313019535
 20
149.1432084808810998
 30
0.0
 40
0.1490047442786995
 50
287.2057193791089276
 51
297.9429057023381802
  0
ARC
  5
15C9A
  8
0
 10
3473.1609136171500722
 20
149.2928197955772873
 30
0.0
 40
0.3067688103426087
 50
284.7143939460643196
 51
287.8827094435425806
  0
ARC
  5
15C9B
  8
0
 10
3473.1203662517978046
 20
149.4481033103220113
 30
0.0
 40
0.4672587653992943
 50
281.5637371065034813
 51
284.6868550719057112
  0
ARC
  5
15C9C
  8
0
 10
3473.3236028867268033
 20
148.3963219211148896
 30
0.0
 40
0.6040281264524929
 50
100.4513378298508002
 51
102.908834936554598
  0
ARC
  5
15C9D
  8
0
 10
3473.251078366305137
 20
149.0694512724195988
 30
0.0
 40
0.0466786360791241
 50
296.5432056083834027
 51
317.5708661850861176
  0
LINE
  5
15C9E
  8
0
 10
3473.2750193322258383
 20
149.0464217116330019
 30
0.0
 11
3473.2750147266160639
 21
149.0354676304575037
 31
0.0
  0
ARC
  5
15C9F
  8
0
 10
3472.9770385382907989
 20
149.090996509944091
 30
0.0
 40
0.005580455254252
 50
197.5630195641591911
 51
263.122142150831678
  0
ARC
  5
15CA0
  8
0
 10
3472.9757692097728068
 20
149.091027198038887
 30
0.0
 40
0.0056033144722202
 50
276.1577995472998737
 51
340.3980106818485751
  0
LINE
  5
15CA1
  8
0
 10
3472.9763702610530345
 20
149.0854562133474133
 30
0.0
 11
3472.9763548384530623
 21
149.0853568018474107
 31
0.0
  0
ARC
  5
15CA2
  8
0
 10
3472.9471174124851132
 20
149.0873941514965964
 30
0.0
 40
0.0048547979409532
 50
264.0628303655751097
 51
273.6052864591608795
  0
ARC
  5
15CA3
  8
0
 10
3472.9221443618098419
 20
149.364713898181094
 30
0.0
 40
0.283294979819703
 50
275.1192952668915268
 51
275.8871068777093001
  0
LINE
  5
15CA4
  8
0
 10
3472.9512015592558782
 20
149.0829130378778871
 30
0.0
 11
3472.9763548384530623
 21
149.0853568018474107
 31
0.0
  0
LINE
  5
15CA5
  8
0
 10
3472.9763548384530623
 20
149.0853568018474107
 30
0.0
 11
3473.0003222255541004
 21
149.0828784203474129
 31
0.0
  0
ARC
  5
15CA6
  8
0
 10
3476.2621967156060236
 20
180.6270973288239929
 30
0.0
 40
31.7124198341083101
 50
264.0962321337206049
 51
264.1041263032035999
  0
ARC
  5
15CA7
  8
0
 10
3473.0051783311851068
 20
149.0873673266993933
 30
0.0
 40
0.0049642855567008
 50
264.1041263032035999
 51
275.625726827048311
  0
LINE
  5
15CA8
  8
0
 10
3473.0057416957538408
 20
149.0885170983850969
 30
0.0
 11
3473.005664979012181
 21
149.0824269516658944
 31
0.0
  0
ARC
  5
15CA9
  8
0
 10
3472.9455890236540654
 20
149.082143984565306
 30
0.0
 40
0.00552771455868
 50
275.8761471865823864
 51
358.2337891621004928
  0
LINE
  5
15CAA
  8
0
 10
3472.9511141120528919
 20
149.0819736131473974
 30
0.0
 11
3472.9512015592558782
 21
149.0829130378778871
 31
0.0
  0
LINE
  5
15CAB
  8
0
 10
3472.9511141120528919
 20
149.0819736131473974
 30
0.0
 11
3472.9755263769529847
 21
149.0794492284474018
 31
0.0
  0
LINE
  5
15CAC
  8
0
 10
3472.9755263769529847
 20
149.0794492284474018
 30
0.0
 11
3473.0003222255541004
 21
149.0818582436473889
 31
0.0
  0
LINE
  5
15CAD
  8
0
 10
3473.0003222655750506
 20
149.0828784162395948
 30
0.0
 11
3473.0003222255541004
 21
149.0818582436473889
 31
0.0
  0
ARC
  5
15CAE
  8
0
 10
3473.0056958841601045
 20
149.0818580328347878
 30
0.0
 40
0.0053736586103763
 50
179.9977522444054898
 51
264.7552771009425214
  0
ARC
  5
15CAF
  8
0
 10
3473.0046308154810504
 20
149.0820129351770049
 30
0.0
 40
0.0055358876628597
 50
275.9501037610979779
 51
358.159832587591211
  0
LINE
  5
15CB0
  8
0
 10
3473.0101638482537965
 20
149.0818351697473929
 30
0.0
 11
3473.0102512954558733
 21
149.082774594477911
 31
0.0
  0
LINE
  5
15CB1
  8
0
 10
3473.0052046785531275
 20
149.076506871847414
 30
0.0
 11
3473.0051892565538765
 21
149.0764077340473932
 31
0.0
  0
LINE
  5
15CB2
  8
0
 10
3473.0051892565538765
 20
149.0764077340473932
 30
0.0
 11
3472.9800359766468318
 21
149.0739636963685939
 31
0.0
  0
ARC
  5
15CB3
  8
0
 10
3472.9838992599729863
 20
149.0159397733380899
 30
0.0
 40
0.0581523911968134
 50
93.8091808194964045
 51
97.2890136521465365
  0
ARC
  5
15CB4
  8
0
 10
3472.9759567543887897
 20
149.0786008071287085
 30
0.0
 40
0.005010480189749
 50
264.1913384863630085
 51
276.4683813038212179
  0
ARC
  5
15CB5
  8
0
 10
3472.9749552322650743
 20
149.0787936336926975
 30
0.0
 40
0.0052011339303304
 50
262.7664636190194756
 51
275.4548639032121855
  0
LINE
  5
15CB6
  8
0
 10
3472.9743003371190753
 20
149.0736338946963997
 30
0.0
 11
3472.946139748853966
 21
149.0765459030473892
 31
0.0
  0
LINE
  5
15CB7
  8
0
 10
3472.9461396342230728
 20
149.0765458919105981
 30
0.0
 11
3472.9461549423531324
 21
149.07664531524739
 31
0.0
  0
ARC
  5
15CB8
  8
0
 10
3472.9756576369900358
 20
149.073236270344097
 30
0.0
 40
0.005580455254252
 50
171.4678633983911027
 51
263.122142150831678
  0
ARC
  5
15CB9
  8
0
 10
3472.9743883084720437
 20
149.073266958438893
 30
0.0
 40
0.0056033144722202
 50
276.1577995472998737
 51
7.0559820125852353
  0
LINE
  5
15CBA
  8
0
 10
3472.9749893597540904
 20
149.0676959737473908
 30
0.0
 11
3472.9749739371541182
 21
149.0675965622473882
 31
0.0
  0
ARC
  5
15CBB
  8
0
 10
3472.9457365111838953
 20
149.0696339118966023
 30
0.0
 40
0.0048547979409532
 50
264.0628303655751097
 51
273.6052864591608795
  0
ARC
  5
15CBC
  8
0
 10
3472.9207634605099884
 20
149.3469536585810999
 30
0.0
 40
0.283294979819703
 50
275.1192952668915268
 51
275.8871068777093001
  0
LINE
  5
15CBD
  8
0
 10
3472.9498206579560247
 20
149.0651527982780067
 30
0.0
 11
3472.9749739371541182
 21
149.0675965622473882
 31
0.0
  0
LINE
  5
15CBE
  8
0
 10
3472.9749739371541182
 20
149.0675965622473882
 30
0.0
 11
3472.9989413242537921
 21
149.0651181807473904
 31
0.0
  0
ARC
  5
15CBF
  8
0
 10
3476.2608158143061701
 20
180.6093370892239989
 30
0.0
 40
31.7124198341083101
 50
264.0962321337206049
 51
264.1041263032035999
  0
ARC
  5
15CC0
  8
0
 10
3473.0037974298847985
 20
149.0696070870993992
 30
0.0
 40
0.0049642855567008
 50
264.1041263032035999
 51
275.625726827048311
  0
LINE
  5
15CC1
  8
0
 10
3473.0043607943539428
 20
149.0763269490535095
 30
0.0
 11
3473.0042840777118727
 21
149.0646667120659004
 31
0.0
  0
ARC
  5
15CC2
  8
0
 10
3472.9442081223542118
 20
149.0643837449653972
 30
0.0
 40
0.00552771455868
 50
275.8761471865823864
 51
358.2337891621004928
  0
LINE
  5
15CC3
  8
0
 10
3472.9497332107539478
 20
149.0642133735474033
 30
0.0
 11
3472.9498206579560247
 21
149.0651527982780067
 31
0.0
  0
LINE
  5
15CC4
  8
0
 10
3472.9497332107539478
 20
149.0642133735474033
 30
0.0
 11
3472.9741454756531311
 21
149.0616889888474077
 31
0.0
  0
LINE
  5
15CC5
  8
0
 10
3472.9741454756531311
 20
149.0616889888474077
 30
0.0
 11
3472.9989413242537921
 21
149.0640980040473949
 31
0.0
  0
LINE
  5
15CC6
  8
0
 10
3472.9989413642761065
 20
149.0651181766396007
 30
0.0
 11
3472.9989413242537921
 21
149.0640980040473949
 31
0.0
  0
ARC
  5
15CC7
  8
0
 10
3473.0043149828597961
 20
149.0640977932349074
 30
0.0
 40
0.0053736586103763
 50
179.9977522444054898
 51
264.7552771009425214
  0
ARC
  5
15CC8
  8
0
 10
3473.0032499141811968
 20
149.0642526955770109
 30
0.0
 40
0.0055358876628597
 50
275.9501037610979779
 51
358.159832587591211
  0
LINE
  5
15CC9
  8
0
 10
3473.0087829469539429
 20
149.0640749301473988
 30
0.0
 11
3473.0088703941551103
 21
149.0650143548780022
 31
0.0
  0
LINE
  5
15CCA
  8
0
 10
3473.0038237772528191
 20
149.0587466322473915
 30
0.0
 11
3473.0038083552531134
 21
149.0586474944473991
 31
0.0
  0
LINE
  5
15CCB
  8
0
 10
3473.0038083552531134
 20
149.0586474944473991
 30
0.0
 11
3472.9786550753478878
 21
149.0562034567685998
 31
0.0
  0
ARC
  5
15CCC
  8
0
 10
3472.9825183586731328
 20
148.9981795337380959
 30
0.0
 40
0.0581523911968134
 50
93.8091808194964045
 51
97.2890136521465365
  0
ARC
  5
15CCD
  8
0
 10
3472.9745758530889361
 20
149.0608405675286861
 30
0.0
 40
0.005010480189749
 50
264.1913384863630085
 51
276.4683813038212179
  0
ARC
  5
15CCE
  8
0
 10
3472.9735743309652207
 20
149.0610333940927035
 30
0.0
 40
0.0052011339303304
 50
262.7664636190194756
 51
275.4548639032121855
  0
LINE
  5
15CCF
  8
0
 10
3472.9729194358178574
 20
149.0558736550964056
 30
0.0
 11
3472.9447740410419101
 21
149.0588850756462875
 31
0.0
  0
ARC
  5
15CD0
  8
0
 10
3472.9742767356910917
 20
149.0554760308440905
 30
0.0
 40
0.005580455254252
 50
171.4678296875767103
 51
263.122142150831678
  0
ARC
  5
15CD1
  8
0
 10
3472.9730074071730996
 20
149.0555067189388865
 30
0.0
 40
0.0056033144722202
 50
276.1577995472998737
 51
7.0559820125771529
  0
LINE
  5
15CD2
  8
0
 10
3472.9736084584537821
 20
149.0499357342474127
 30
0.0
 11
3472.9735930358538099
 21
149.0498363227474101
 31
0.0
  0
ARC
  5
15CD3
  8
0
 10
3472.9443556098849513
 20
149.0518736723965958
 30
0.0
 40
0.0048547979409532
 50
264.0628303655751097
 51
273.6052864591608795
  0
ARC
  5
15CD4
  8
0
 10
3472.9193825592101348
 20
149.3291934190810935
 30
0.0
 40
0.283294979819703
 50
275.1192952668915268
 51
275.8871068777093001
  0
LINE
  5
15CD5
  8
0
 10
3472.9484397566561711
 20
149.0473925587778865
 30
0.0
 11
3472.9735930358538099
 21
149.0498363227474101
 31
0.0
  0
LINE
  5
15CD6
  8
0
 10
3472.9735930358538099
 20
149.0498363227474101
 30
0.0
 11
3472.9975604229539385
 21
149.0473579412474123
 31
0.0
  0
ARC
  5
15CD7
  8
0
 10
3476.2594349130058617
 20
180.5915768497239924
 30
0.0
 40
31.7124198341083101
 50
264.0962321337206049
 51
264.1041263032035999
  0
ARC
  5
15CD8
  8
0
 10
3473.0024165285840354
 20
149.0518468475995064
 30
0.0
 40
0.0049642855567008
 50
264.1041263032035999
 51
275.625726827048311
  0
LINE
  5
15CD9
  8
0
 10
3473.0029798930531797
 20
149.0585669962842132
 30
0.0
 11
3473.0029031764120191
 21
149.0469064725658939
 31
0.0
  0
ARC
  5
15CDA
  8
0
 10
3472.9428272210539035
 20
149.0466235054653055
 30
0.0
 40
0.00552771455868
 50
275.8761471865823864
 51
358.2337891621004928
  0
LINE
  5
15CDB
  8
0
 10
3472.9483523094531847
 20
149.0464531340473968
 30
0.0
 11
3472.9484397566561711
 21
149.0473925587778865
 31
0.0
  0
LINE
  5
15CDC
  8
0
 10
3472.9483523094531847
 20
149.0464531340473968
 30
0.0
 11
3472.9727645743528228
 21
149.0439287493474012
 31
0.0
  0
LINE
  5
15CDD
  8
0
 10
3472.9727645743528228
 20
149.0439287493474012
 30
0.0
 11
3472.9975604229539385
 21
149.0463377645473884
 31
0.0
  0
LINE
  5
15CDE
  8
0
 10
3472.9975604629757981
 20
149.0473579371395942
 30
0.0
 11
3472.9975604229539385
 21
149.0463377645473884
 31
0.0
  0
ARC
  5
15CDF
  8
0
 10
3473.0029340815599426
 20
149.0463375537347872
 30
0.0
 40
0.0053736586103763
 50
179.9977522444054898
 51
264.7552771009425214
  0
ARC
  5
15CE0
  8
0
 10
3473.0018690128808885
 20
149.0464924560770044
 30
0.0
 40
0.0055358876628597
 50
275.9501037610979779
 51
358.159832587591211
  0
LINE
  5
15CE1
  8
0
 10
3473.0074020456540893
 20
149.0463146906473924
 30
0.0
 11
3473.0074894928561662
 21
149.0472541153779957
 31
0.0
  0
LINE
  5
15CE2
  8
0
 10
3473.002442875953875
 20
149.0409863927474134
 30
0.0
 11
3473.0024274539528051
 21
149.0408872549473926
 31
0.0
  0
LINE
  5
15CE3
  8
0
 10
3473.0024274539528051
 20
149.0408872549473926
 30
0.0
 11
3472.9772741740471247
 21
149.0384432172685933
 31
0.0
  0
ARC
  5
15CE4
  8
0
 10
3472.9811374573728244
 20
148.9804192942380894
 30
0.0
 40
0.0581523911968134
 50
93.8091808194964045
 51
97.2890136521465365
  0
ARC
  5
15CE5
  8
0
 10
3472.9731949517890826
 20
149.043080328028708
 30
0.0
 40
0.005010480189749
 50
264.1913384863630085
 51
276.4683813038212179
  0
ARC
  5
15CE6
  8
0
 10
3472.9721934296649124
 20
149.043273154592697
 30
0.0
 40
0.0052011339303304
 50
262.7664636190194756
 51
275.4548639032121855
  0
LINE
  5
15CE7
  8
0
 10
3472.9715385345189134
 20
149.0381134155963991
 30
0.0
 11
3472.9433779462528946
 21
149.0410254239473886
 31
0.0
  0
LINE
  5
15CE8
  8
0
 10
3472.9433778316229109
 20
149.0410254128105976
 30
0.0
 11
3472.94339313975388
 21
149.0411248361473895
 31
0.0
  0
ARC
  5
15CE9
  8
0
 10
3473.0635222747018815
 20
149.0641030996112875
 30
0.0
 40
0.0055330764038425
 50
181.4865328012612906
 51
263.2664964416892985
  0
ARC
  5
15CEA
  8
0
 10
3473.0622724620720874
 20
149.0641791736389052
 30
0.0
 40
0.0056033144722202
 50
276.1577995472998737
 51
7.0559818754528152
  0
LINE
  5
15CEB
  8
0
 10
3473.062873513354134
 20
149.0586081889474031
 30
0.0
 11
3473.0628580907541618
 21
149.0585087774474005
 31
0.0
  0
ARC
  5
15CEC
  8
0
 10
3473.033620664783939
 20
149.0605461270965861
 30
0.0
 40
0.0048547979409532
 50
264.0628303655751097
 51
273.6052864591608795
  0
ARC
  5
15CED
  8
0
 10
3473.008647614110032
 20
149.3378658737811122
 30
0.0
 40
0.283294979819703
 50
275.1192952668915268
 51
275.8871068777093001
  0
LINE
  5
15CEE
  8
0
 10
3473.0377048115560683
 20
149.0560650134779053
 30
0.0
 11
3473.0628580907541618
 21
149.0585087774474005
 31
0.0
  0
LINE
  5
15CEF
  8
0
 10
3473.0628580907541618
 20
149.0585087774474005
 30
0.0
 11
3473.0868254778529263
 21
149.0560303959474027
 31
0.0
  0
ARC
  5
15CF0
  8
0
 10
3476.3486999679062137
 20
180.6002493044240111
 30
0.0
 40
31.7124198341083101
 50
264.0962321337206049
 51
264.1041263032035999
  0
ARC
  5
15CF1
  8
0
 10
3473.0916815834848421
 20
149.0605193022994115
 30
0.0
 40
0.0049642855567008
 50
264.1041263032035999
 51
275.625726827048311
  0
LINE
  5
15CF2
  8
0
 10
3473.0922449480531213
 20
149.0672391641566037
 30
0.0
 11
3473.0921682313119163
 21
149.0555789272659126
 31
0.0
  0
ARC
  5
15CF3
  8
0
 10
3473.0320922759538007
 20
149.0552959601654095
 30
0.0
 40
0.00552771455868
 50
275.8761471865823864
 51
358.2337891621004928
  0
LINE
  5
15CF4
  8
0
 10
3473.0376173643539914
 20
149.0551255887473872
 30
0.0
 11
3473.0377048115560683
 21
149.0560650134779053
 31
0.0
  0
LINE
  5
15CF5
  8
0
 10
3473.0376173643539914
 20
149.0551255887473872
 30
0.0
 11
3473.0620296292540843
 21
149.0526012040473915
 31
0.0
  0
LINE
  5
15CF6
  8
0
 10
3473.0620296292540843
 20
149.0526012040473915
 30
0.0
 11
3473.0868254778529263
 21
149.0550102192474071
 31
0.0
  0
LINE
  5
15CF7
  8
0
 10
3473.0868255178761501
 20
149.056030391839613
 30
0.0
 11
3473.0868254778529263
 21
149.0550102192474071
 31
0.0
  0
ARC
  5
15CF8
  8
0
 10
3473.0921991364598398
 20
149.055010008434806
 30
0.0
 40
0.0053736586103763
 50
179.9977522444054898
 51
264.7552771009425214
  0
ARC
  5
15CF9
  8
0
 10
3473.0911340677807857
 20
149.0551649107769947
 30
0.0
 40
0.0055358876628597
 50
275.9501037610979779
 51
358.159832587591211
  0
LINE
  5
15CFA
  8
0
 10
3473.0966671005539865
 20
149.0549871453474111
 30
0.0
 11
3473.0967545477560634
 21
149.0559265700779008
 31
0.0
  0
LINE
  5
15CFB
  8
0
 10
3473.091707930854227
 20
149.0496588474474038
 30
0.0
 11
3473.0916925088531571
 21
149.0495597096474114
 31
0.0
  0
LINE
  5
15CFC
  8
0
 10
3473.0916925088531571
 20
149.0495597096474114
 30
0.0
 11
3473.0665392289470219
 21
149.0471156719686121
 31
0.0
  0
ARC
  5
15CFD
  8
0
 10
3473.0704025122731764
 20
148.9890917489381081
 30
0.0
 40
0.0581523911968134
 50
93.8091808194964045
 51
97.2890136521465365
  0
ARC
  5
15CFE
  8
0
 10
3473.0624600066889798
 20
149.0517527827286983
 30
0.0
 40
0.005010480189749
 50
264.1913384863630085
 51
276.4683813038212179
  0
ARC
  5
15CFF
  8
0
 10
3473.0614584845648096
 20
149.0519456092926873
 30
0.0
 40
0.0052011339303304
 50
262.7664636190194756
 51
275.4548639032121855
  0
LINE
  5
15D00
  8
0
 10
3473.0608035894188106
 20
149.0467858702963895
 30
0.0
 11
3473.0326428865228081
 21
149.0496978675105879
 31
0.0
  0
LINE
  5
15D01
  8
0
 10
3473.0326428865228081
 20
149.0496978675105879
 30
0.0
 11
3473.0326581946537772
 21
149.0497972908474082
 31
0.0
  0
ARC
  5
15D02
  8
0
 10
3473.0621608892902259
 20
149.0463882459440867
 30
0.0
 40
0.005580455254252
 50
181.9664916542998867
 51
263.122142150831678
  0
ARC
  5
15D03
  8
0
 10
3473.0608437632317873
 20
149.046535954099113
 30
0.0
 40
0.0057248932609015
 50
276.5077814628215265
 51
5.8118842057180746
  0
LINE
  5
15D04
  8
0
 10
3473.0614926120538257
 20
149.040847949347409
 30
0.0
 11
3473.0614771894538535
 21
149.0407485378474064
 31
0.0
  0
ARC
  5
15D05
  8
0
 10
3473.0322397634840854
 20
149.0427858874965921
 30
0.0
 40
0.0048547979409532
 50
264.0628303655751097
 51
273.6052864591608795
  0
ARC
  5
15D06
  8
0
 10
3473.0072667128088142
 20
149.3201056341812034
 30
0.0
 40
0.283294979819703
 50
275.1192952668915268
 51
275.8871068777093001
  0
LINE
  5
15D07
  8
0
 10
3473.0363239102562147
 20
149.0383047738779112
 30
0.0
 11
3473.0614771894538535
 21
149.0407485378474064
 31
0.0
  0
LINE
  5
15D08
  8
0
 10
3473.0614771894538535
 20
149.0407485378474064
 30
0.0
 11
3473.0854445765539822
 21
149.0382701563474086
 31
0.0
  0
ARC
  5
15D09
  8
0
 10
3476.3473190666059054
 20
180.5824890648239887
 30
0.0
 40
31.7124198341083101
 50
264.0962321337206049
 51
264.1041263032035999
  0
ARC
  5
15D0A
  8
0
 10
3473.0903006821840791
 20
149.042759062699389
 30
0.0
 40
0.0049642855567008
 50
264.1041263032035999
 51
275.625726827048311
  0
LINE
  5
15D0B
  8
0
 10
3473.090864046752813
 20
149.0439088343850926
 30
0.0
 11
3473.0907873300120627
 21
149.0378186876658901
 31
0.0
  0
ARC
  5
15D0C
  8
0
 10
3473.0307113746539471
 20
149.0375357205653017
 30
0.0
 40
0.00552771455868
 50
275.8761471865823864
 51
358.2337891621004928
  0
LINE
  5
15D0D
  8
0
 10
3473.0362364630527736
 20
149.0373653491473931
 30
0.0
 11
3473.0363239102562147
 21
149.0383047738779112
 31
0.0
  0
LINE
  5
15D0E
  8
0
 10
3473.0362364630527736
 20
149.0373653491473931
 30
0.0
 11
3473.060648727953776
 21
149.0348409644473975
 31
0.0
  0
LINE
  5
15D0F
  8
0
 10
3473.060648727953776
 20
149.0348409644473975
 30
0.0
 11
3473.0854445765539822
 21
149.0372499796474131
 31
0.0
  0
LINE
  5
15D10
  8
0
 10
3473.0854446165758418
 20
149.0382701522395905
 30
0.0
 11
3473.0854445765539822
 21
149.0372499796474131
 31
0.0
  0
ARC
  5
15D11
  8
0
 10
3473.0908182351599862
 20
149.0372497688348972
 30
0.0
 40
0.0053736586103763
 50
179.9977522444054898
 51
264.7552771009425214
  0
ARC
  5
15D12
  8
0
 10
3473.0897531664809321
 20
149.0374046711770006
 30
0.0
 40
0.0055358876628597
 50
275.9501037610979779
 51
358.159832587591211
  0
LINE
  5
15D13
  8
0
 10
3473.0952861992532235
 20
149.0372269057473886
 30
0.0
 11
3473.0953736464562098
 21
149.0381663304779067
 31
0.0
  0
LINE
  5
15D14
  8
0
 10
3473.0903270295539187
 20
149.0318986078474097
 30
0.0
 11
3473.0903116075528487
 21
149.0317994700473889
 31
0.0
  0
LINE
  5
15D15
  8
0
 10
3473.0903116075528487
 20
149.0317994700473889
 30
0.0
 11
3473.0651583276480778
 21
149.0293554323685896
 31
0.0
  0
ARC
  5
15D16
  8
0
 10
3473.0690216109728681
 20
148.9713315093381141
 30
0.0
 40
0.0581523911968134
 50
93.8091808194964045
 51
97.2890136521465365
  0
ARC
  5
15D17
  8
0
 10
3473.0610791053891262
 20
149.0339925431287043
 30
0.0
 40
0.005010480189749
 50
264.1913384863630085
 51
276.4683813038212179
  0
ARC
  5
15D18
  8
0
 10
3473.060077583264956
 20
149.0341853696926933
 30
0.0
 40
0.0052011339303304
 50
262.7664636190194756
 51
275.4548639032121855
  0
LINE
  5
15D19
  8
0
 10
3473.059422688118957
 20
149.0290256306963954
 30
0.0
 11
3473.0312620998538478
 21
149.0319376390474133
 31
0.0
  0
LINE
  5
15D1A
  8
0
 10
3473.0312619852229545
 20
149.0319376279105938
 30
0.0
 11
3473.0312772933539236
 21
149.0320370512474142
 31
0.0
  0
ARC
  5
15D1B
  8
0
 10
3473.0607604721008101
 20
149.0285826205112869
 30
0.0
 40
0.0055330764038415
 50
181.4865328012336079
 51
263.2664964417151054
  0
ARC
  5
15D1C
  8
0
 10
3473.0595269181508229
 20
149.0286188893221038
 30
0.0
 40
0.0055620076203408
 50
276.0352649507793217
 51
357.8943641837594782
  0
LINE
  5
15D1D
  8
0
 10
3473.0601117107530627
 20
149.0230877098474025
 30
0.0
 11
3473.0600962881539999
 21
149.0229882983473999
 31
0.0
  0
ARC
  5
15D1E
  8
0
 10
3473.0308588621837771
 20
149.025025647996614
 30
0.0
 40
0.0048547979409532
 50
264.0628303655751097
 51
273.6052864591608795
  0
ARC
  5
15D1F
  8
0
 10
3473.0058858115098701
 20
149.3023453946811117
 30
0.0
 40
0.283294979819703
 50
275.1192952668915268
 51
275.8871068777093001
  0
LINE
  5
15D20
  8
0
 10
3473.0349430089559064
 20
149.0205445343779047
 30
0.0
 11
3473.0600962881539999
 21
149.0229882983473999
 31
0.0
  0
LINE
  5
15D21
  8
0
 10
3473.0600962881539999
 20
149.0229882983473999
 30
0.0
 11
3473.0840636752541286
 21
149.0205099168474021
 31
0.0
  0
ARC
  5
15D22
  8
0
 10
3476.3459381653069613
 20
180.5647288253240106
 30
0.0
 40
31.7124198341083101
 50
264.0962321337206049
 51
264.1041263032035999
  0
ARC
  5
15D23
  8
0
 10
3473.0889197808842255
 20
149.0249988231994109
 30
0.0
 40
0.0049642855567008
 50
264.1041263032035999
 51
275.625726827048311
  0
LINE
  5
15D24
  8
0
 10
3473.0894831454538689
 20
149.031718685163213
 30
0.0
 11
3473.0894064287122092
 21
149.0200584481659121
 31
0.0
  0
ARC
  5
15D25
  8
0
 10
3473.0293304733540936
 20
149.0197754810654089
 30
0.0
 40
0.00552771455868
 50
275.8761471865823864
 51
358.2337891621004928
  0
LINE
  5
15D26
  8
0
 10
3473.03485556175292
 20
149.0196051096473866
 30
0.0
 11
3473.0349430089549969
 21
149.0205445343779047
 31
0.0
  0
LINE
  5
15D27
  8
0
 10
3473.03485556175292
 20
149.0196051096473866
 30
0.0
 11
3473.0592678266530129
 21
149.017080724947391
 31
0.0
  0
LINE
  5
15D28
  8
0
 10
3473.0592678266530129
 20
149.017080724947391
 30
0.0
 11
3473.0840636752541286
 21
149.0194897401474066
 31
0.0
  0
LINE
  5
15D29
  8
0
 10
3473.0840637152759882
 20
149.0205099127396124
 30
0.0
 11
3473.0840636752541286
 21
149.0194897401474066
 31
0.0
  0
ARC
  5
15D2A
  8
0
 10
3473.0894373338601326
 20
149.0194895293348054
 30
0.0
 40
0.0053736586103763
 50
179.9977522444054898
 51
264.7552771009425214
  0
ARC
  5
15D2B
  8
0
 10
3473.0883722651810785
 20
149.0196444316769941
 30
0.0
 40
0.0055358876628597
 50
275.9501037610979779
 51
358.159832587591211
  0
LINE
  5
15D2C
  8
0
 10
3473.0939052979538246
 20
149.0194666662474106
 30
0.0
 11
3473.0939927451559015
 21
149.0204060909780139
 31
0.0
  0
LINE
  5
15D2D
  8
0
 10
3473.0889461282531556
 20
149.0141383683474032
 30
0.0
 11
3473.0889307062539046
 21
149.0140392305474109
 31
0.0
  0
LINE
  5
15D2E
  8
0
 10
3473.0889307062539046
 20
149.0140392305474109
 30
0.0
 11
3473.06377742634686
 21
149.0115951928686115
 31
0.0
  0
ARC
  5
15D2F
  8
0
 10
3473.0676407096730145
 20
148.9535712698381076
 30
0.0
 40
0.0581523911968134
 50
93.8091808194964045
 51
97.2890136521465365
  0
ARC
  5
15D30
  8
0
 10
3473.0596982040888179
 20
149.0162323036286978
 30
0.0
 40
0.005010480189749
 50
264.1913384863630085
 51
276.4683813038212179
  0
ARC
  5
15D31
  8
0
 10
3473.058696681964193
 20
149.0164251301926868
 30
0.0
 40
0.0052011339303304
 50
262.7664636190194756
 51
275.4548639032121855
  0
LINE
  5
15D32
  8
0
 10
3473.0580417868191034
 20
149.0112653911963889
 30
0.0
 11
3473.0298811985539942
 21
149.0141773995474068
 31
0.0
  0
LINE
  5
15D33
  8
0
 10
3473.0298811985539942
 20
149.0141773995474068
 30
0.0
 11
3473.0298963920531605
 21
149.0142768117474077
 31
0.0
  0
ARC
  5
15D34
  8
0
 10
3473.151537517072029
 20
149.0728516283388956
 30
0.0
 40
0.0056033144722202
 50
276.1577995472998737
 51
7.9483040025815139
  0
LINE
  5
15D35
  8
0
 10
3473.1521385683540757
 20
149.0672806436473934
 30
0.0
 11
3473.1521231457541035
 21
149.0671812321473908
 31
0.0
  0
ARC
  5
15D36
  8
0
 10
3473.1228857197838806
 20
149.0692185817966049
 30
0.0
 40
0.0048547979409532
 50
264.0628303655751097
 51
273.6052864591608795
  0
ARC
  5
15D37
  8
0
 10
3473.0979126691099736
 20
149.3465383284811026
 30
0.0
 40
0.283294979819703
 50
275.1192952668915268
 51
275.8871068777093001
  0
LINE
  5
15D38
  8
0
 10
3473.1269698665560099
 20
149.0647374681780093
 30
0.0
 11
3473.1521231457541035
 21
149.0671812321473908
 31
0.0
  0
LINE
  5
15D39
  8
0
 10
3473.1521231457541035
 20
149.0671812321473908
 30
0.0
 11
3473.1760905328537774
 21
149.064702850647393
 31
0.0
  0
ARC
  5
15D3A
  8
0
 10
3476.4379650229061554
 20
180.6089217591240015
 30
0.0
 40
31.7124198341083101
 50
264.0962321337206049
 51
264.1041263032035999
  0
ARC
  5
15D3B
  8
0
 10
3473.1809466384847838
 20
149.0691917569994018
 30
0.0
 40
0.0049642855567008
 50
264.1041263032035999
 51
275.625726827048311
  0
LINE
  5
15D3C
  8
0
 10
3473.1815099431159979
 20
149.0717069036342082
 30
0.0
 11
3473.181433286311858
 21
149.064251381965903
 31
0.0
  0
ARC
  5
15D3D
  8
0
 10
3473.1213573309541971
 20
149.0639684148652861
 30
0.0
 40
0.00552771455868
 50
275.8761471865823864
 51
358.2337891621004928
  0
LINE
  5
15D3E
  8
0
 10
3473.1268824193539331
 20
149.0637980434474059
 30
0.0
 11
3473.1269698665560099
 21
149.0647374681780093
 31
0.0
  0
LINE
  5
15D3F
  8
0
 10
3473.1268824193539331
 20
149.0637980434474059
 30
0.0
 11
3473.1512946842531164
 21
149.0612736587474103
 31
0.0
  0
LINE
  5
15D40
  8
0
 10
3473.1512946842531164
 20
149.0612736587474103
 30
0.0
 11
3473.1760905328537774
 21
149.0636826739473975
 31
0.0
  0
LINE
  5
15D41
  8
0
 10
3473.1760905728760918
 20
149.0647028465396033
 30
0.0
 11
3473.1760905328537774
 21
149.0636826739473975
 31
0.0
  0
ARC
  5
15D42
  8
0
 10
3473.1814641914597814
 20
149.0636824631347963
 30
0.0
 40
0.0053736586103763
 50
179.9977522444054898
 51
264.7552771009425214
  0
ARC
  5
15D43
  8
0
 10
3473.1803991227811821
 20
149.0638373654770135
 30
0.0
 40
0.0055358876628597
 50
275.9501037610979779
 51
358.159832587591211
  0
LINE
  5
15D44
  8
0
 10
3473.1859321555539282
 20
149.0636596000474015
 30
0.0
 11
3473.1860196027550955
 21
149.0645990247778911
 31
0.0
  0
LINE
  5
15D45
  8
0
 10
3473.1809729858528044
 20
149.0583313021473941
 30
0.0
 11
3473.1809575638530987
 21
149.0582321643474017
 31
0.0
  0
LINE
  5
15D46
  8
0
 10
3473.1809575638530987
 20
149.0582321643474017
 30
0.0
 11
3473.155804283947873
 21
149.0557881266686024
 31
0.0
  0
ARC
  5
15D47
  8
0
 10
3473.159667567273118
 20
148.9977642036380985
 30
0.0
 40
0.0581523911968134
 50
93.8091808194964045
 51
97.2890136521465365
  0
ARC
  5
15D48
  8
0
 10
3473.1517250616889214
 20
149.0604252374286887
 30
0.0
 40
0.005010480189749
 50
264.1913384863630085
 51
276.4683813038212179
  0
ARC
  5
15D49
  8
0
 10
3473.150723539565206
 20
149.0606180639927061
 30
0.0
 40
0.0052011339303304
 50
262.7664636190194756
 51
275.4548639032121855
  0
LINE
  5
15D4A
  8
0
 10
3473.1500686444178427
 20
149.0554583249964082
 30
0.0
 11
3473.1219080561531882
 21
149.0583703333473977
 31
0.0
  0
LINE
  5
15D4B
  8
0
 10
3473.1219079415232045
 20
149.0583703222106067
 30
0.0
 11
3473.1219232496528093
 21
149.0584697455473986
 31
0.0
  0
ARC
  5
15D4C
  8
0
 10
3473.1514064284729102
 20
149.0550153148770107
 30
0.0
 40
0.0055330765767267
 50
181.4865334351021033
 51
263.266495910251308
  0
ARC
  5
15D4D
  8
0
 10
3473.1501566157730849
 20
149.0550913887389015
 30
0.0
 40
0.0056033144722202
 50
276.1577995472998737
 51
7.0824269937166919
  0
LINE
  5
15D4E
  8
0
 10
3473.1507576670528579
 20
149.0495204040473993
 30
0.0
 11
3473.1507422444537951
 21
149.0494209925473967
 31
0.0
  0
ARC
  5
15D4F
  8
0
 10
3473.1215048184849365
 20
149.0514583421966108
 30
0.0
 40
0.0048547979409532
 50
264.0628303655751097
 51
273.6052864591608795
  0
ARC
  5
15D50
  8
0
 10
3473.0965317678101201
 20
149.3287780888811085
 30
0.0
 40
0.283294979819703
 50
275.1192952668915268
 51
275.8871068777093001
  0
LINE
  5
15D51
  8
0
 10
3473.1255889652561564
 20
149.0469772285779868
 30
0.0
 11
3473.1507422444537951
 21
149.0494209925473967
 31
0.0
  0
LINE
  5
15D52
  8
0
 10
3473.1507422444537951
 20
149.0494209925473967
 30
0.0
 11
3473.1747096315539238
 21
149.0469426110473989
 31
0.0
  0
ARC
  5
15D53
  8
0
 10
3476.436584121605847
 20
180.5911615195240074
 30
0.0
 40
31.7124198341083101
 50
264.0962321337206049
 51
264.1041263032035999
  0
ARC
  5
15D54
  8
0
 10
3473.1795657371840207
 20
149.0514315173994078
 30
0.0
 40
0.0049642855567008
 50
264.1041263032035999
 51
275.625726827048311
  0
LINE
  5
15D55
  8
0
 10
3473.180129101653165
 20
149.0581516661841874
 30
0.0
 11
3473.1800523850120044
 21
149.0464911423659089
 31
0.0
  0
ARC
  5
15D56
  8
0
 10
3473.1199764296538888
 20
149.0462081752652921
 30
0.0
 40
0.00552771455868
 50
275.8761471865823864
 51
358.2337891621004928
  0
LINE
  5
15D57
  8
0
 10
3473.12550151805317
 20
149.0460378038474119
 30
0.0
 11
3473.1255889652561564
 21
149.0469772285779868
 31
0.0
  0
LINE
  5
15D58
  8
0
 10
3473.12550151805317
 20
149.0460378038474119
 30
0.0
 11
3473.1499137829528081
 21
149.0435134191473878
 31
0.0
  0
LINE
  5
15D59
  8
0
 10
3473.1499137829528081
 20
149.0435134191473878
 30
0.0
 11
3473.1747096315539238
 21
149.0459224343474034
 31
0.0
  0
LINE
  5
15D5A
  8
0
 10
3473.1747096715757834
 20
149.0469426069396093
 30
0.0
 11
3473.1747096315539238
 21
149.0459224343474034
 31
0.0
  0
ARC
  5
15D5B
  8
0
 10
3473.1800832901599279
 20
149.0459222235348022
 30
0.0
 40
0.0053736586103763
 50
179.9977522444054898
 51
264.7552771009425214
  0
ARC
  5
15D5C
  8
0
 10
3473.1790182214799643
 20
149.046077125876991
 30
0.0
 40
0.0055358876628597
 50
275.9501037610979779
 51
358.159832587591211
  0
LINE
  5
15D5D
  8
0
 10
3473.1845512542540746
 20
149.0458993604474074
 30
0.0
 11
3473.1846387014561515
 21
149.0468387851780108
 31
0.0
  0
LINE
  5
15D5E
  8
0
 10
3473.1795920845538603
 20
149.0405710625474001
 30
0.0
 11
3473.1795766625527904
 21
149.0404719247474077
 31
0.0
  0
LINE
  5
15D5F
  8
0
 10
3473.1795766625527904
 20
149.0404719247474077
 30
0.0
 11
3473.15442338264711
 21
149.0380278870686084
 31
0.0
  0
ARC
  5
15D60
  8
0
 10
3473.1582866659728097
 20
148.9800039640381044
 30
0.0
 40
0.0581523911968134
 50
93.8091808194964045
 51
97.2890136521465365
  0
ARC
  5
15D61
  8
0
 10
3473.1503441603890678
 20
149.0426649978286946
 30
0.0
 40
0.005010480189749
 50
264.1913384863630085
 51
276.4683813038212179
  0
ARC
  5
15D62
  8
0
 10
3473.1493426382648977
 20
149.042857824392712
 30
0.0
 40
0.0052011339303304
 50
262.7664636190194756
 51
275.4548639032121855
  0
LINE
  5
15D63
  8
0
 10
3473.1486877431188987
 20
149.0376980853964142
 30
0.0
 11
3473.1205270402228962
 21
149.0406100826106126
 31
0.0
  0
LINE
  5
15D64
  8
0
 10
3473.1205270402228962
 20
149.0406100826106126
 30
0.0
 11
3473.1205423483538652
 21
149.0407095059474045
 31
0.0
  0
LINE
  5
15D65
  8
0
 10
3472.9700804682529451
 20
149.0730447769421119
 30
0.0
 11
3472.9453110581539477
 21
149.070638330347407
 31
0.0
  0
ARC
  5
15D66
  8
0
 10
3473.0061671830749219
 20
149.0872610051835068
 30
0.0
 40
0.0048600832893731
 50
264.0681289281445743
 51
273.4592226797174135
  0
ARC
  5
15D67
  8
0
 10
3472.9080764398790961
 20
150.1246082636355084
 30
0.0
 40
1.0468319327215401
 50
275.3927653579706885
 51
275.6012076928960823
  0
LINE
  5
15D68
  8
0
 10
3473.0102512954531448
 20
149.0827745944473861
 30
0.0
 11
3473.0354045746539668
 21
149.0852183584474062
 31
0.0
  0
LINE
  5
15D69
  8
0
 10
3473.0354045746539668
 20
149.0852183584474062
 30
0.0
 11
3473.0354199972539391
 21
149.0853177699474088
 31
0.0
  0
ARC
  5
15D6A
  8
0
 10
3473.0360550602549665
 20
149.0908037016583023
 30
0.0
 40
0.0055225674963814
 50
216.0061888773448118
 51
263.396711888383777
  0
ARC
  5
15D6B
  8
0
 10
3473.0348352224809787
 20
149.0908599835669008
 30
0.0
 40
0.0055729788568083
 50
276.0231553004350076
 51
319.1783932639689851
  0
LINE
  5
15D6C
  8
0
 10
3473.0051892565538765
 20
149.0764077340473932
 30
0.0
 11
3473.0335023489310515
 21
149.0734800049986006
 31
0.0
  0
ARC
  5
15D6D
  8
0
 10
3473.0340127306271825
 20
149.0784157363652014
 30
0.0
 40
0.0049620493345398
 50
264.096284673898424
 51
275.6284801102087272
  0
ARC
  5
15D6E
  8
0
 10
3473.0326916006411011
 20
149.1277537302194105
 30
0.0
 40
0.0543062181476017
 50
271.9076675480993117
 51
276.7617936426631786
  0
LINE
  5
15D6F
  8
0
 10
3472.9754496601622122
 20
149.073616053614586
 30
0.0
 11
3472.9755263769529847
 21
149.0852763127649894
 31
0.0
  0
LINE
  5
15D70
  8
0
 10
3472.9799861947321915
 20
149.0730203768160891
 30
0.0
 11
3473.0043575616259659
 21
149.0705002212322086
 31
0.0
  0
LINE
  5
15D71
  8
0
 10
3473.0043575616259659
 20
149.0705002212322086
 30
0.0
 11
3473.029156642954149
 21
149.0729089021473897
 31
0.0
  0
LINE
  5
15D72
  8
0
 10
3472.9425492555537858
 20
149.0351178512474064
 30
0.0
 11
3472.967345104153992
 21
149.0375268664473936
 31
0.0
  0
LINE
  5
15D73
  8
0
 10
3472.967345104153992
 20
149.0385470431781982
 30
0.0
 11
3472.967345104153992
 21
149.0375268664473936
 31
0.0
  0
ARC
  5
15D74
  8
0
 10
3472.972718993818944
 20
149.0375268664473936
 30
0.0
 40
0.0053738896656093
 50
179.9999999999967031
 51
264.7530293453373247
  0
ARC
  5
15D75
  8
0
 10
3472.9716536940418337
 20
149.0376815580121956
 30
0.0
 40
0.0055358877017822
 50
275.9501041125989786
 51
358.1598322361010105
  0
LINE
  5
15D76
  8
0
 10
3472.9771867268527785
 20
149.0375037925473976
 30
0.0
 11
3472.9772741740748643
 21
149.0384432172712934
 31
0.0
  0
LINE
  5
15D77
  8
0
 10
3472.9424725388680599
 20
149.0292846764006924
 30
0.0
 11
3472.9722123636538527
 21
149.0320760824473894
 31
0.0
  0
LINE
  5
15D78
  8
0
 10
3472.9722123636538527
 20
149.0320760824473894
 30
0.0
 11
3472.972227557153019
 21
149.0321754946473902
 31
0.0
  0
LINE
  5
15D79
  8
0
 10
3472.9722130292539077
 20
149.032076448247409
 30
0.0
 11
3473.0015222750121211
 21
149.0291462331194907
 31
0.0
  0
LINE
  5
15D7A
  8
0
 10
3473.0015222750121211
 20
149.0291462331194907
 30
0.0
 11
3473.0015989917528714
 21
149.0408064699535089
 31
0.0
  0
LINE
  5
15D7B
  8
0
 10
3472.9771867268527785
 20
149.0375037925473976
 30
0.0
 11
3473.0015606795568601
 21
149.0349833695742063
 31
0.0
  0
LINE
  5
15D7C
  8
0
 10
3473.0015606795568601
 20
149.0349833695742063
 30
0.0
 11
3473.0263948403539871
 21
149.0373884230473891
 31
0.0
  0
LINE
  5
15D7D
  8
0
 10
3473.0263948403539871
 20
149.0373884230473891
 30
0.0
 11
3473.0263948403539871
 21
149.0384085997781938
 31
0.0
  0
ARC
  5
15D7E
  8
0
 10
3473.0319312249780523
 20
149.037536679238201
 30
0.0
 40
0.0055383693093502
 50
181.5339296387795116
 51
263.2190997065603142
  0
LINE
  5
15D7F
  8
0
 10
3473.0038085837541075
 20
149.0586472201474066
 30
0.0
 11
3473.0331184950678107
 21
149.0557173706006893
 31
0.0
  0
LINE
  5
15D80
  8
0
 10
3473.0331184950678107
 20
149.0557173706006893
 30
0.0
 11
3473.0331952118531262
 21
149.0673776075566082
 31
0.0
  0
LINE
  5
15D81
  8
0
 10
3473.0340236740539694
 20
149.0674583925473939
 30
0.0
 11
3473.0050219122058479
 21
149.0646465129709952
 31
0.0
  0
ARC
  5
15D82
  8
0
 10
3473.0047853142978056
 20
149.0694899861470901
 30
0.0
 40
0.0048492484961564
 50
264.0670957135404819
 51
272.7966077240812979
  0
LINE
  5
15D83
  8
0
 10
3473.0087829469539429
 20
149.0640749301473988
 30
0.0
 11
3473.0331568996348324
 21
149.0615545071763961
 31
0.0
  0
LINE
  5
15D84
  8
0
 10
3473.0331568996348324
 20
149.0615545071763961
 30
0.0
 11
3473.0579910604528777
 21
149.0639595606473904
 31
0.0
  0
LINE
  5
15D85
  8
0
 10
3473.0579910604528777
 20
149.0649797374628065
 30
0.0
 11
3473.0579910604528777
 21
149.0639595606473904
 31
0.0
  0
LINE
  5
15D86
  8
0
 10
3473.0101638482537965
 20
149.0818351697475066
 30
0.0
 11
3473.0345761131538893
 21
149.0793107850473973
 31
0.0
  0
LINE
  5
15D87
  8
0
 10
3473.0345761131538893
 20
149.0793107850473973
 30
0.0
 11
3473.059371961753186
 21
149.0817198002474129
 31
0.0
  0
LINE
  5
15D88
  8
0
 10
3473.0354045746539668
 20
149.0852183584474062
 30
0.0
 11
3473.0637176677309981
 21
149.0822909030987091
 31
0.0
  0
ARC
  5
15D89
  8
0
 10
3473.0642280504739574
 20
149.0872271061768117
 30
0.0
 40
0.0049625186521038
 50
264.0968328325448056
 51
275.6279323552549272
  0
ARC
  5
15D8A
  8
0
 10
3473.0629069204169355
 20
149.136564616607302
 30
0.0
 40
0.0543062064011362
 50
271.9076667859819736
 51
276.7617940835596073
  0
LINE
  5
15D8B
  8
0
 10
3473.0693010316549589
 20
149.0826361510704885
 30
0.0
 11
3473.0858008621330555
 21
149.0842391751619118
 31
0.0
  0
LINE
  5
15D8C
  8
0
 10
3473.0345761131538893
 20
149.0851378471537032
 30
0.0
 11
3473.0344993964531568
 21
149.0734776102474086
 31
0.0
  0
LINE
  5
15D8D
  8
0
 10
3473.029156642954149
 20
149.0739290789474012
 30
0.0
 11
3473.029156642954149
 21
149.0729089021473897
 31
0.0
  0
ARC
  5
15D8E
  8
0
 10
3473.034530532619101
 20
149.0729089021473897
 30
0.0
 40
0.0053738896656075
 50
180.0000000000048885
 51
264.7530293453634727
  0
ARC
  5
15D8F
  8
0
 10
3473.033451321488883
 20
149.0730914938739033
 30
0.0
 40
0.0055650903974837
 50
276.0627810696852862
 51
357.8668490363783121
  0
LINE
  5
15D90
  8
0
 10
3473.0390125554167753
 20
149.0728843505943075
 30
0.0
 11
3473.0390857128541029
 21
149.0738252530474028
 31
0.0
  0
LINE
  5
15D91
  8
0
 10
3473.0390857128481912
 20
149.0738252529685894
 30
0.0
 11
3473.0642392212539562
 21
149.0762690162474087
 31
0.0
  0
LINE
  5
15D92
  8
0
 10
3473.0642392212539562
 20
149.0762690162474087
 30
0.0
 11
3473.0935491326540614
 21
149.0733391668474042
 31
0.0
  0
LINE
  5
15D93
  8
0
 10
3473.0935491326540614
 20
149.0733391668474042
 30
0.0
 11
3473.1233041510258772
 21
149.076229985039987
 31
0.0
  0
LINE
  5
15D94
  8
0
 10
3473.1233041510258772
 20
149.076229985039987
 30
0.0
 11
3473.1525988687681092
 21
149.0732007234007028
 31
0.0
  0
LINE
  5
15D95
  8
0
 10
3473.1525988687681092
 20
149.0732007234007028
 30
0.0
 11
3473.1670686613470025
 21
149.0745732779361106
 31
0.0
  0
LINE
  5
15D96
  8
0
 10
3473.059371961753186
 20
149.0827399769474084
 30
0.0
 11
3473.059371961753186
 21
149.0817198002474129
 31
0.0
  0
ARC
  5
15D97
  8
0
 10
3473.0647458514190475
 20
149.0817198002474129
 30
0.0
 40
0.0053738896656137
 50
180.0000000000536886
 51
264.7530293452850856
  0
ARC
  5
15D98
  8
0
 10
3473.0636679108138196
 20
149.0819012057330895
 30
0.0
 40
0.0055637767176621
 50
276.0510606071727011
 51
357.8785694714993042
  0
LINE
  5
15D99
  8
0
 10
3473.0692278742189956
 20
149.0816952486941034
 30
0.0
 11
3473.0693010316540494
 21
149.0826361510474101
 31
0.0
  0
LINE
  5
15D9A
  8
0
 10
3473.0642389921531503
 20
149.076269016947407
 30
0.0
 11
3473.064254411021011
 21
149.07636842883349
 31
0.0
  0
LINE
  5
15D9B
  8
0
 10
3473.0634105305530284
 20
149.0761885056533913
 30
0.0
 11
3473.0633338138532054
 21
149.0645282687474094
 31
0.0
  0
LINE
  5
15D9C
  8
0
 10
3473.0390125554167753
 20
149.0728843505943075
 30
0.0
 11
3473.0634105305530284
 21
149.070361443547398
 31
0.0
  0
LINE
  5
15D9D
  8
0
 10
3473.0634105305530284
 20
149.070361443547398
 30
0.0
 11
3473.0882063791527798
 21
149.0727704587474136
 31
0.0
  0
LINE
  5
15D9E
  8
0
 10
3473.08818962883106
 20
149.0738749084553092
 30
0.0
 11
3473.0882063791527798
 21
149.0727704587474136
 31
0.0
  0
ARC
  5
15D9F
  8
0
 10
3473.0936711079361885
 20
149.0728533380045064
 30
0.0
 40
0.0054653572287745
 50
180.8688935524253907
 51
263.8841357929067044
  0
LINE
  5
15DA0
  8
0
 10
3473.0930888321531711
 20
149.0674190869474103
 30
0.0
 11
3473.1223835501109534
 21
149.0643898253657937
 31
0.0
  0
LINE
  5
15DA1
  8
0
 10
3473.1170330398372244
 20
149.0649431023987006
 30
0.0
 11
3473.1170407966537823
 21
149.0638211172473859
 31
0.0
  0
ARC
  5
15DA2
  8
0
 10
3473.1224557175369227
 20
149.0638585531679894
 30
0.0
 40
0.0054150502876644
 50
180.3961066329281948
 51
264.3569237786227859
  0
LINE
  5
15DA3
  8
0
 10
3473.1219078269527927
 20
149.058370334047396
 30
0.0
 11
3473.0929791660009869
 21
149.0555628523210032
 31
0.0
  0
ARC
  5
15DA4
  8
0
 10
3473.0926694507070351
 20
149.0604029782805924
 30
0.0
 40
0.0048500250378406
 50
264.068252389595898
 51
273.6613134803218941
  0
LINE
  5
15DA5
  8
0
 10
3473.0966671005539865
 20
149.0549871453474111
 30
0.0
 11
3473.1210793654540794
 21
149.0524627606473871
 31
0.0
  0
LINE
  5
15DA6
  8
0
 10
3473.1210793654540794
 20
149.0524627606473871
 30
0.0
 11
3473.1458752140529214
 21
149.0548717758474027
 31
0.0
  0
LINE
  5
15DA7
  8
0
 10
3473.1458752140529214
 20
149.0558919525473982
 30
0.0
 11
3473.1458752140529214
 21
149.0548717758474027
 31
0.0
  0
LINE
  5
15DA8
  8
0
 10
3473.0647719341918673
 20
149.0857596446602997
 30
0.0
 11
3473.0647147152121761
 21
149.0822885083194933
 31
0.0
  0
LINE
  5
15DA9
  8
0
 10
3473.0692278742189956
 20
149.0816952486939897
 30
0.0
 11
3473.0936258493538844
 21
149.0791723416473928
 31
0.0
  0
LINE
  5
15DAA
  8
0
 10
3473.0936258493538844
 20
149.0791723416473928
 30
0.0
 11
3473.1169633062481807
 21
149.0814396683055918
 31
0.0
  0
ARC
  5
15DAB
  8
0
 10
3473.1239219866988606
 20
149.0817018961132021
 30
0.0
 40
0.0055066806436968
 50
184.2717548903476938
 51
263.557993969704512
  0
ARC
  5
15DAC
  8
0
 10
3473.1227002979521785
 20
149.0817951422442036
 30
0.0
 40
0.0055978221874777
 50
276.1927095823730269
 51
344.1605957955541157
  0
LINE
  5
15DAD
  8
0
 10
3473.1571354033289936
 20
149.0726050466165873
 30
0.0
 11
3473.1815067702241322
 21
149.0700848910427112
 31
0.0
  0
LINE
  5
15DAE
  8
0
 10
3473.1815067702241322
 20
149.0700848910427112
 30
0.0
 11
3473.187034691352892
 21
149.0706213021474014
 31
0.0
  0
LINE
  5
15DAF
  8
0
 10
3473.1512946842531164
 20
149.0671007207565992
 30
0.0
 11
3473.1512179675560219
 21
149.0554404839475922
 31
0.0
  0
LINE
  5
15DB0
  8
0
 10
3473.155754502032778
 20
149.0548448071160976
 30
0.0
 11
3473.1801258689251881
 21
149.0523246515321887
 31
0.0
  0
LINE
  5
15DB1
  8
0
 10
3473.1801258689251881
 20
149.0523246515321887
 30
0.0
 11
3473.204924950253826
 21
149.0547333324473982
 31
0.0
  0
LINE
  5
15DB2
  8
0
 10
3473.1809575638530987
 20
149.0582321643474017
 30
0.0
 11
3473.2092707449528461
 21
149.055304126147405
 31
0.0
  0
ARC
  5
15DB3
  8
0
 10
3473.2097795184258757
 20
149.0602238008451934
 30
0.0
 40
0.0049459124110611
 50
264.0956840506523235
 51
275.6645913062332056
  0
ARC
  5
15DB4
  8
0
 10
3473.2107698735530903
 20
149.0601307905473902
 30
0.0
 40
0.0048547915999478
 50
264.0628199884162086
 51
275.4920168821076913
  0
LINE
  5
15DB5
  8
0
 10
3473.2112345113910123
 20
149.0552982846591874
 30
0.0
 11
3473.2337229537538406
 21
149.0574828751474001
 31
0.0
  0
ARC
  5
15DB6
  8
0
 10
3473.1819623158448849
 20
149.0704549234762908
 30
0.0
 40
0.006226052263996
 50
265.1256835068047053
 51
277.904837703656824
  0
LINE
  5
15DB7
  8
0
 10
3473.1828185734689214
 20
149.0642880320652921
 30
0.0
 11
3473.2051316055531061
 21
149.0664558317473904
 31
0.0
  0
LINE
  5
15DB8
  8
0
 10
3473.034039092220155
 20
149.0675575307334952
 30
0.0
 11
3473.0340236740539694
 21
149.0674583925473939
 31
0.0
  0
LINE
  5
15DB9
  8
0
 10
3473.0340236740539694
 20
149.0674583925473939
 30
0.0
 11
3473.0579910604528777
 21
149.0649797374474019
 31
0.0
  0
LINE
  5
15DBA
  8
0
 10
3473.0579910604528777
 20
149.0649797374474019
 30
0.0
 11
3473.062303918653015
 21
149.0645337602925906
 31
0.0
  0
ARC
  5
15DBB
  8
0
 10
3473.0628468781519587
 20
149.0697844941057042
 30
0.0
 40
0.0052787319115705
 50
264.0962326088280747
 51
275.2927634617893773
  0
ARC
  5
15DBC
  8
0
 10
3473.0638878271161047
 20
149.0722093224719913
 30
0.0
 40
0.0077010074563351
 50
265.874557189531572
 51
278.7540276261336771
  0
LINE
  5
15DBD
  8
0
 10
3473.0650598654901842
 20
149.0645980254803931
 30
0.0
 11
3473.0678333404212026
 21
149.0648674795787088
 31
0.0
  0
LINE
  5
15DBE
  8
0
 10
3473.0678333404212026
 20
149.0648674795787088
 30
0.0
 11
3473.0930734102539645
 21
149.0673199491473895
 31
0.0
  0
LINE
  5
15DBF
  8
0
 10
3473.0930734102539645
 20
149.0673199491473895
 30
0.0
 11
3473.093083716439196
 21
149.0674196159451128
 31
0.0
  0
LINE
  5
15DC0
  8
0
 10
3473.0678703483290519
 20
149.0639325919268003
 30
0.0
 11
3473.0922066358571101
 21
149.0614160637742032
 31
0.0
  0
LINE
  5
15DC1
  8
0
 10
3473.0922066358571101
 20
149.0614160637742032
 30
0.0
 11
3473.1170407966537823
 21
149.0638211172476133
 31
0.0
  0
LINE
  5
15DC2
  8
0
 10
3472.9741454756531311
 20
149.0675160509566126
 30
0.0
 11
3472.9741454756531311
 21
149.0616889888474077
 31
0.0
  0
LINE
  5
15DC3
  8
0
 10
3472.9741454756531311
 20
149.0616889888474077
 30
0.0
 11
3472.9740687588500805
 21
149.055855814002598
 31
0.0
  0
LINE
  5
15DC4
  8
0
 10
3472.9740687588500805
 20
149.055855814002598
 30
0.0
 11
3472.9736084583641968
 21
149.0499357342386872
 31
0.0
  0
LINE
  5
15DC5
  8
0
 10
3472.9727645743528228
 20
149.0497558114632
 30
0.0
 11
3472.9726878574920192
 21
149.0380955745085885
 31
0.0
  0
LINE
  5
15DC6
  8
0
 10
3472.9713836730538787
 20
149.0319955718661049
 30
0.0
 11
3472.9713069562499186
 21
149.0203353349025974
 31
0.0
  0
LINE
  5
15DC7
  8
0
 10
3472.946985697818036
 20
149.0286914168044916
 30
0.0
 11
3472.9713453608260352
 21
149.0261724714773095
 31
0.0
  0
LINE
  5
15DC8
  8
0
 10
3472.9713453608260352
 20
149.0261724714773095
 30
0.0
 11
3472.9961795216531755
 21
149.0285775249473943
 31
0.0
  0
LINE
  5
15DC9
  8
0
 10
3472.9961361175569436
 20
149.0296847184897899
 30
0.0
 11
3472.9961795216531755
 21
149.0285775249473943
 31
0.0
  0
ARC
  5
15DCA
  8
0
 10
3473.0017946772800315
 20
149.0287976497461955
 30
0.0
 40
0.0056194686257138
 50
182.2449541827992903
 51
262.508073993955179
  0
ARC
  5
15DCB
  8
0
 10
3473.0004742021628772
 20
149.0287601147385885
 30
0.0
 40
0.0055650882541069
 50
276.0627619486867843
 51
357.8668682582670044
  0
LINE
  5
15DCC
  8
0
 10
3473.0060354340180311
 20
149.0285529734046008
 30
0.0
 11
3473.0061085914539944
 21
149.0294938758474075
 31
0.0
  0
ARC
  5
15DCD
  8
0
 10
3473.0020469016280913
 20
149.0403874189435101
 30
0.0
 40
0.0112534244824276
 50
267.3279430696672989
 51
278.8056046921893767
  0
LINE
  5
15DCE
  8
0
 10
3473.0037696040308219
 20
149.0292666339437062
 30
0.0
 11
3473.0312619852229545
 21
149.0319376279105938
 31
0.0
  0
LINE
  5
15DCF
  8
0
 10
3473.0304334092538738
 20
149.0318571284659868
 30
0.0
 11
3473.0303566924549159
 21
149.0201968916138924
 31
0.0
  0
ARC
  5
15DD0
  8
0
 10
3473.0298701278538829
 20
149.0251771587466862
 30
0.0
 40
0.0050039789992749
 50
269.9999999997655209
 51
275.5800026661784159
  0
ARC
  5
15DD1
  8
0
 10
3473.0484608202427808
 20
149.2350104032850027
 30
0.0
 40
0.2156400854684297
 50
263.7788316104599744
 51
265.0542956278015936
  0
LINE
  5
15DD2
  8
0
 10
3473.0250926275571146
 20
149.0206402233824861
 30
0.0
 11
3473.0010467811539456
 21
149.0231267410474061
 31
0.0
  0
LINE
  5
15DD3
  8
0
 10
3473.0010467811539456
 20
149.0231267410474061
 30
0.0
 11
3473.0010619745530676
 21
149.023226153147391
 31
0.0
  0
LINE
  5
15DD4
  8
0
 10
3473.0010467811539456
 20
149.0231267410474061
 30
0.0
 11
3472.9722742073299742
 21
149.0203318044783884
 31
0.0
  0
ARC
  5
15DD5
  8
0
 10
3472.9718080889028897
 20
149.0251302771874862
 30
0.0
 40
0.0048210586729463
 50
264.033520957317478
 51
275.5482424700406909
  0
LINE
  5
15DD6
  8
0
 10
3472.9713069562499186
 20
149.0203353347696122
 30
0.0
 11
3472.9420122386550247
 21
149.0233645965161884
 31
0.0
  0
LINE
  5
15DD7
  8
0
 10
3472.9470627487589809
 20
149.0297155175283876
 30
0.0
 11
3472.946985697818036
 21
149.0286914168044916
 31
0.0
  0
ARC
  5
15DD8
  8
0
 10
3472.9411783494970223
 20
149.0291283481028017
 30
0.0
 40
0.0058237619698373
 50
278.232327845834277
 51
355.6973061650767249
  0
ARC
  5
15DD9
  8
0
 10
3472.942666819058104
 20
149.0288648166441874
 30
0.0
 40
0.0055390339374967
 50
181.5398724878135965
 51
263.2131588832901912
  0
LINE
  5
15DDA
  8
0
 10
3472.9371297854531804
 20
149.0287159683473988
 30
0.0
 11
3472.9371297854531804
 21
149.0297361451540894
 31
0.0
  0
LINE
  5
15DDB
  8
0
 10
3472.9443137406037749
 20
149.0118374769662069
 30
0.0
 11
3472.9708466558531654
 21
149.0144152551474122
 31
0.0
  0
ARC
  5
15DDC
  8
0
 10
3472.9703022106641583
 20
149.0200191966266061
 30
0.0
 40
0.0056303268702827
 50
275.5490973365556897
 51
6.7705683615637851
  0
LINE
  5
15DDD
  8
0
 10
3472.9759251676878193
 20
149.0197312123056008
 30
0.0
 11
3473.0002180904539273
 21
149.0172191683473955
 31
0.0
  0
LINE
  5
15DDE
  8
0
 10
3473.0002180904539273
 20
149.0172191683473955
 30
0.0
 11
3473.0250139390541335
 21
149.019628183547411
 31
0.0
  0
LINE
  5
15DDF
  8
0
 10
3473.0250139390541335
 20
149.0206483602474066
 30
0.0
 11
3473.0250139390541335
 21
149.019628183547411
 31
0.0
  0
ARC
  5
15DE0
  8
0
 10
3473.0305503236081677
 20
149.0197764396748994
 30
0.0
 40
0.0055383692382696
 50
181.5339290031101029
 51
263.2191003422702238
  0
LINE
  5
15DE1
  8
0
 10
3473.0298811985539942
 20
149.0141773995474921
 30
0.0
 11
3473.0001413737531948
 21
149.0113859935474068
 31
0.0
  0
LINE
  5
15DE2
  8
0
 10
3473.0001413737118128
 20
149.0113859935194967
 30
0.0
 11
3472.9708466558531654
 21
149.0144152551474122
 31
0.0
  0
LINE
  5
15DE3
  8
0
 10
3472.9786052934327927
 20
149.055260137316111
 30
0.0
 11
3473.0029415799631352
 21
149.0527436092665994
 31
0.0
  0
LINE
  5
15DE4
  8
0
 10
3473.0029415799631352
 20
149.0527436092665994
 30
0.0
 11
3473.0277757416538407
 21
149.0551486626474116
 31
0.0
  0
LINE
  5
15DE5
  8
0
 10
3473.0277593191799497
 20
149.0562530794562974
 30
0.0
 11
3473.0277757416538407
 21
149.0551486626474116
 31
0.0
  0
ARC
  5
15DE6
  8
0
 10
3473.0332386657100869
 20
149.0552298953197123
 30
0.0
 40
0.0054635279811149
 50
180.8519148790508098
 51
263.9011144662794095
  0
LINE
  5
15DE7
  8
0
 10
3473.0326428865228081
 20
149.0496978675105879
 30
0.0
 11
3473.0036734621021424
 21
149.0468879676824088
 31
0.0
  0
ARC
  5
15DE8
  8
0
 10
3473.0034044256572088
 20
149.0517291629494139
 30
0.0
 40
0.0048486649938781
 50
264.0662291034371947
 51
273.1807876138341271
  0
LINE
  5
15DE9
  8
0
 10
3473.0074020456540893
 20
149.0463146906473924
 30
0.0
 11
3473.0318143105541822
 21
149.0437903059473967
 31
0.0
  0
LINE
  5
15DEA
  8
0
 10
3473.0318143105541822
 20
149.0437903059473967
 30
0.0
 11
3473.0565837205540447
 21
149.0461967525324098
 31
0.0
  0
LINE
  5
15DEB
  8
0
 10
3473.0565837205540447
 20
149.0461967525324098
 30
0.0
 11
3473.0566101591539336
 21
149.0472194978474079
 31
0.0
  0
LINE
  5
15DEC
  8
0
 10
3473.0318143105541822
 20
149.0496174994839862
 30
0.0
 11
3473.03173759375386
 21
149.0379571311474081
 31
0.0
  0
ARC
  5
15DED
  8
0
 10
3473.0312510291519175
 20
149.0429373980190064
 30
0.0
 40
0.0050039787719026
 50
266.4162318445880828
 51
275.5800022136979237
  0
ARC
  5
15DEE
  8
0
 10
3477.8126717702070891
 20
195.4890759536689018
 30
0.0
 40
46.6966027587292416
 50
264.0874401464769221
 51
264.1226082781465152
  0
LINE
  5
15DEF
  8
0
 10
3473.0060354340180311
 20
149.0285529734046008
 30
0.0
 11
3473.0303950970278493
 21
149.0260340280771061
 31
0.0
  0
LINE
  5
15DF0
  8
0
 10
3473.0303950970278493
 20
149.0260340280771061
 30
0.0
 11
3473.0552292578531706
 21
149.0284390815473898
 31
0.0
  0
LINE
  5
15DF1
  8
0
 10
3473.0552292578531706
 20
149.0284390815473898
 30
0.0
 11
3473.0552292578531706
 21
149.0294592583474014
 31
0.0
  0
LINE
  5
15DF2
  8
0
 10
3473.0650851702180262
 20
149.0284145300045964
 30
0.0
 11
3473.065158327654899
 21
149.0293554324694014
 31
0.0
  0
LINE
  5
15DF3
  8
0
 10
3473.0650851702180262
 20
149.0284145300045111
 30
0.0
 11
3473.0894799126249382
 21
149.0258919573425089
 31
0.0
  0
LINE
  5
15DF4
  8
0
 10
3473.0894799126249382
 20
149.0258919573425089
 30
0.0
 11
3473.1142789940531657
 21
149.0283006381474138
 31
0.0
  0
LINE
  5
15DF5
  8
0
 10
3473.1142789940531657
 20
149.0293208149473969
 30
0.0
 11
3473.1142789940531657
 21
149.0283006381474138
 31
0.0
  0
ARC
  5
15DF6
  8
0
 10
3473.1196528836198922
 20
149.0283006381474138
 30
0.0
 40
0.0053738895660675
 50
180.0000000000065086
 51
264.7530292429808014
  0
ARC
  5
15DF7
  8
0
 10
3473.1186292875017898
 20
149.0284313043243003
 30
0.0
 40
0.0055078065475356
 50
275.544517608852118
 51
358.3851106281662737
  0
LINE
  5
15DF8
  8
0
 10
3473.1241349064889619
 20
149.0282760865972023
 30
0.0
 11
3473.1242080638548941
 21
149.029216989069397
 31
0.0
  0
LINE
  5
15DF9
  8
0
 10
3473.0903116075528487
 20
149.0317994700473889
 30
0.0
 11
3473.1142789940531657
 21
149.0293208149693953
 31
0.0
  0
LINE
  5
15DFA
  8
0
 10
3473.1142789940531657
 20
149.0293208149693953
 30
0.0
 11
3473.1186246999309333
 21
149.0288717410986123
 31
0.0
  0
ARC
  5
15DFB
  8
0
 10
3473.1191350895328469
 20
149.0338108017649859
 30
0.0
 40
0.0049653618006603
 50
264.1001454015433865
 51
275.6246210192489912
  0
ARC
  5
15DFC
  8
0
 10
3473.1201253359481598
 20
149.0337379771401913
 30
0.0
 40
0.0048946059577816
 50
264.0945916051766744
 51
275.4322238207428768
  0
LINE
  5
15DFD
  8
0
 10
3473.1205886995539913
 20
149.0288653534474008
 30
0.0
 11
3473.1493613431539416
 21
149.0316607530473902
 31
0.0
  0
LINE
  5
15DFE
  8
0
 10
3473.1493615722538379
 20
149.031660752347392
 30
0.0
 11
3473.1776745248539555
 21
149.0287329885474037
 31
0.0
  0
ARC
  5
15DFF
  8
0
 10
3473.1781832998522077
 20
149.033653099387692
 30
0.0
 40
0.0049463463970329
 50
264.096186153154008
 51
275.6640761405113267
  0
ARC
  5
15E00
  8
0
 10
3473.1792027665119349
 20
149.034416594398607
 30
0.0
 40
0.0057104597368718
 50
264.6616643172412182
 51
278.0202259024633804
  0
LINE
  5
15E01
  8
0
 10
3473.1799995050751022
 20
149.0287619893665862
 30
0.0
 11
3473.2084110793539367
 21
149.0315223096474142
 31
0.0
  0
LINE
  5
15E02
  8
0
 10
3473.2084110800537928
 20
149.0315225832474084
 30
0.0
 11
3473.2084265019539089
 21
149.0316217210474008
 31
0.0
  0
LINE
  5
15E03
  8
0
 10
3473.2084110800537928
 20
149.0315225832474084
 30
0.0
 11
3473.233761591253824
 21
149.028900904147406
 31
0.0
  0
ARC
  5
15E04
  8
0
 10
3473.233590706582163
 20
149.0306856092504972
 30
0.0
 40
0.0017928675009644
 50
275.4693701820094134
 51
310.5521536713196724
  0
ARC
  5
15E05
  8
0
 10
3473.2293856039550519
 20
149.0345514546457935
 30
0.0
 40
0.0074951686016097
 50
315.7709672070316742
 51
359.7632293130952803
  0
LINE
  5
15E06
  8
0
 10
3473.2368807085590561
 20
149.0345204814888973
 30
0.0
 11
3473.2368834426538342
 21
149.0401638496473993
 31
0.0
  0
LINE
  5
15E07
  8
0
 10
3473.0665566517091065
 20
149.0461654030320062
 30
0.0
 11
3473.0908608139247917
 21
149.043652196842487
 31
0.0
  0
LINE
  5
15E08
  8
0
 10
3473.0908608139247917
 20
149.043652196842487
 30
0.0
 11
3473.1156598953530192
 21
149.0460608777474079
 31
0.0
  0
LINE
  5
15E09
  8
0
 10
3473.1156598953530192
 20
149.0470810544694018
 30
0.0
 11
3473.1156598953530192
 21
149.0460608777474079
 31
0.0
  0
ARC
  5
15E0A
  8
0
 10
3473.1210337850188807
 20
149.0460608777474079
 30
0.0
 40
0.0053738896651785
 50
180.0000000000081002
 51
264.753029350177826
  0
LINE
  5
15E0B
  8
0
 10
3473.1205270402210772
 20
149.0406100826004092
 30
0.0
 11
3473.0917545810298179
 21
149.037815157278402
 31
0.0
  0
ARC
  5
15E0C
  8
0
 10
3473.091288603141038
 20
149.0426411690278883
 30
0.0
 40
0.0048484559190234
 50
264.0656893900106184
 51
275.5151248915788074
  0
LINE
  5
15E0D
  8
0
 10
3473.0952861992532235
 20
149.0372269057473886
 30
0.0
 11
3473.1196984641542258
 21
149.034702521047393
 31
0.0
  0
LINE
  5
15E0E
  8
0
 10
3473.1196984641542258
 20
149.034702521047393
 30
0.0
 11
3473.1444943127539773
 21
149.0371115362474086
 31
0.0
  0
LINE
  5
15E0F
  8
0
 10
3473.1444943127539773
 20
149.0381317129782133
 30
0.0
 11
3473.1444943127539773
 21
149.0371115362474086
 31
0.0
  0
ARC
  5
15E10
  8
0
 10
3473.1498682024189293
 20
149.0371115362474086
 30
0.0
 40
0.0053738896656093
 50
179.9999999999967031
 51
264.7530293453374952
  0
ARC
  5
15E11
  8
0
 10
3473.148788991289166
 20
149.0372941279738086
 30
0.0
 40
0.0055650903974723
 50
276.0627810696328197
 51
357.866849036494898
  0
LINE
  5
15E12
  8
0
 10
3473.1543502252170583
 20
149.0370869846942981
 30
0.0
 11
3473.1544233797881134
 21
149.0380278868782966
 31
0.0
  0
LINE
  5
15E13
  8
0
 10
3473.1543502252270628
 20
149.0370869848225936
 30
0.0
 11
3473.1787482003528567
 21
149.0345640776473886
 31
0.0
  0
LINE
  5
15E14
  8
0
 10
3473.1787482003528567
 20
149.0345640776473886
 30
0.0
 11
3473.2035440489530629
 21
149.0369730928474041
 31
0.0
  0
LINE
  5
15E15
  8
0
 10
3473.2035440489530629
 20
149.0379932696473873
 30
0.0
 11
3473.2035440489530629
 21
149.0369730928474041
 31
0.0
  0
ARC
  5
15E16
  8
0
 10
3473.2089179386189244
 20
149.0369730928474041
 30
0.0
 40
0.0053738896656093
 50
179.9999999999967031
 51
264.7530293453374952
  0
ARC
  5
15E17
  8
0
 10
3473.207852638841814
 20
149.0371277844122062
 30
0.0
 40
0.0055358877017834
 50
275.9501041126251835
 51
358.1598322360928819
  0
LINE
  5
15E18
  8
0
 10
3473.2133856716532136
 20
149.0369500189474081
 30
0.0
 11
3473.2134731188539263
 21
149.0378894437567112
 31
0.0
  0
LINE
  5
15E19
  8
0
 10
3473.1795766625527904
 20
149.0404719247474077
 30
0.0
 11
3473.2035440489530629
 21
149.0379932695782088
 31
0.0
  0
LINE
  5
15E1A
  8
0
 10
3473.2035440489530629
 20
149.0379932695782088
 30
0.0
 11
3473.2078898436529926
 21
149.0375438865474109
 31
0.0
  0
ARC
  5
15E1B
  8
0
 10
3473.2083986181801265
 20
149.0424640314826092
 30
0.0
 40
0.0049463802626214
 50
264.0962322064090131
 51
275.6640415570922755
  0
ARC
  5
15E1C
  8
0
 10
3473.2093880390539198
 20
149.0423650697474898
 30
0.0
 40
0.0048492433000541
 50
264.0670881521285764
 51
273.5455418788295106
  0
LINE
  5
15E1D
  8
0
 10
3473.2096879254409032
 20
149.0375251081011925
 30
0.0
 11
3473.2134731188539263
 21
149.0378894437567112
 31
0.0
  0
LINE
  5
15E1E
  8
0
 10
3473.2134731188539263
 20
149.0378894437473889
 30
0.0
 11
3473.2386266272528701
 21
149.0403332069473947
 31
0.0
  0
LINE
  5
15E1F
  8
0
 10
3473.2386266272528701
 20
149.0403332069473947
 30
0.0
 11
3473.2546074120541562
 21
149.038681442947393
 31
0.0
  0
ARC
  5
15E20
  8
0
 10
3473.2545247394818944
 20
149.0393254881487906
 30
0.0
 40
0.0006493296354902
 50
277.314745758210222
 51
317.5357084075743046
  0
ARC
  5
15E21
  8
0
 10
3473.248333915485091
 20
149.0439723974888011
 30
0.0
 40
0.0083873039547242
 50
322.6769581154929938
 51
357.5062833156263764
  0
LINE
  5
15E22
  8
0
 10
3473.2559533466687753
 20
149.0444831662051115
 30
0.0
 11
3473.243615280218819
 21
149.0457594393940042
 31
0.0
  0
LINE
  5
15E23
  8
0
 10
3473.2436884376538728
 20
149.0467003417473961
 30
0.0
 11
3473.2436152802238212
 21
149.0457594393934926
 31
0.0
  0
ARC
  5
15E24
  8
0
 10
3473.2377908694347752
 20
149.0462123013953999
 30
0.0
 40
0.0058419898181187
 50
278.375570395290481
 51
355.5540596238342914
  0
ARC
  5
15E25
  8
0
 10
3473.2392957523470614
 20
149.0459322471099881
 30
0.0
 40
0.0055383692777069
 50
181.5339293557912015
 51
263.2190999895701111
  0
LINE
  5
15E26
  8
0
 10
3473.2386418207529459
 20
149.0404326191473956
 30
0.0
 11
3473.2386263987541497
 21
149.0403334813474032
 31
0.0
  0
LINE
  5
15E27
  8
0
 10
3473.2337593677539189
 20
149.0457839909473989
 30
0.0
 11
3473.2337593677539189
 21
149.0468041676473945
 31
0.0
  0
LINE
  5
15E28
  8
0
 10
3473.2525516482091916
 20
149.0475630121052006
 30
0.0
 11
3473.2436884376538728
 21
149.0467003417473961
 31
0.0
  0
LINE
  5
15E29
  8
0
 10
3473.2436884376538728
 20
149.0467003417473961
 30
0.0
 11
3473.2400690732529256
 21
149.0463487061473984
 31
0.0
  0
ARC
  5
15E2A
  8
0
 10
3473.2396053006300463
 20
149.05112229028461
 30
0.0
 40
0.0047960598996093
 50
263.9777193195973268
 51
275.5490967415346972
  0
ARC
  5
15E2B
  8
0
 10
3473.2386155564558976
 20
149.0513329661978901
 30
0.0
 40
0.0050039790504313
 50
264.1447631250155723
 51
275.5800026893995209
  0
LINE
  5
15E2C
  8
0
 10
3473.2381050736321413
 20
149.0463550937986099
 30
0.0
 11
3473.2337593677539189
 21
149.0468041676473945
 31
0.0
  0
LINE
  5
15E2D
  8
0
 10
3473.2337593677539189
 20
149.0468041676473945
 30
0.0
 11
3473.2097919806537902
 21
149.0492825491473923
 31
0.0
  0
LINE
  5
15E2E
  8
0
 10
3473.2097919806537902
 20
149.0492825491473923
 30
0.0
 11
3473.2098024167680705
 21
149.0493824788453878
 31
0.0
  0
LINE
  5
15E2F
  8
0
 10
3473.2148540201551441
 20
149.0556496832712128
 30
0.0
 11
3473.2147808627191807
 21
149.0547087808940887
 31
0.0
  0
ARC
  5
15E30
  8
0
 10
3473.2089580349820608
 20
149.0551615198390891
 30
0.0
 40
0.0058404019903449
 50
278.3127253661619989
 51
355.5540593372318199
  0
ARC
  5
15E31
  8
0
 10
3473.2104455764160775
 20
149.0548671451743985
 30
0.0
 40
0.0055222476468137
 50
181.3885025599307141
 51
263.311753082271423
  0
LINE
  5
15E32
  8
0
 10
3473.204924950253826
 20
149.0547333324473982
 30
0.0
 11
3473.204924950253826
 21
149.0557535511995013
 31
0.0
  0
LINE
  5
15E33
  8
0
 10
3473.1859464453182227
 20
149.0636581222942993
 30
0.0
 11
3473.2103444204531115
 21
149.0611352153474058
 31
0.0
  0
LINE
  5
15E34
  8
0
 10
3473.2103444204531115
 20
149.0611352153474058
 30
0.0
 11
3473.2205825986570744
 21
149.0621298950078994
 31
0.0
  0
LINE
  5
15E35
  8
0
 10
3473.2103420188759628
 20
149.0651300005540918
 30
0.0
 11
3473.2102677037528338
 21
149.0553020404474012
 31
0.0
  0
LINE
  5
15E36
  8
0
 10
3473.2147808627191807
 20
149.0547087808940887
 30
0.0
 11
3473.2391788378540696
 21
149.0521858738474066
 31
0.0
  0
LINE
  5
15E37
  8
0
 10
3473.2391788378540696
 20
149.0521858738474066
 30
0.0
 11
3473.2443220404329622
 21
149.0526942867336118
 31
0.0
  0
LINE
  5
15E38
  8
0
 10
3473.2391692730429895
 20
149.0552538795325006
 30
0.0
 11
3473.2391021211528823
 21
149.0463526990050127
 31
0.0
  0
LINE
  5
15E39
  8
0
 10
3473.2337593677539189
 20
149.0457839909473989
 30
0.0
 11
3473.2089635191541674
 21
149.0433749757474118
 31
0.0
  0
LINE
  5
15E3A
  8
0
 10
3473.2089635191541674
 20
149.0433749757474118
 30
0.0
 11
3473.1845512542540746
 21
149.0458993604474074
 31
0.0
  0
ARC
  5
15E3B
  8
0
 10
3473.1805558766191098
 20
149.0513310293115978
 30
0.0
 40
0.0048660011039356
 50
264.0608998410590971
 51
275.4653994438152154
  0
ARC
  5
15E3C
  8
0
 10
3472.2386036806651646
 20
158.8961912261131033
 30
0.0
 40
9.8946863348628078
 50
275.4653994438152154
 51
275.6327950278353001
  0
LINE
  5
15E3D
  8
0
 10
3473.2088868023679424
 20
149.0375418009006978
 30
0.0
 11
3473.2089635191541674
 21
149.049200850918794
 31
0.0
  0
LINE
  5
15E3E
  8
0
 10
3473.1787482003528567
 20
149.0403911397563945
 30
0.0
 11
3473.1786714836121064
 21
149.0287309029195058
 31
0.0
  0
LINE
  5
15E3F
  8
0
 10
3473.2133856716532136
 20
149.0369500189474081
 30
0.0
 11
3473.2368807085590561
 21
149.0345204814888973
 31
0.0
  0
LINE
  5
15E40
  8
0
 10
3473.2368808763089874
 20
149.0348667300858949
 30
0.0
 11
3473.247519841853773
 21
149.0394137005474136
 31
0.0
  0
LINE
  5
15E41
  8
0
 10
3473.2225334128379473
 20
149.0300619698004141
 30
0.0
 11
3473.2074466626168032
 21
149.025802841523813
 31
0.0
  0
LINE
  5
15E42
  8
0
 10
3473.2074473436509834
 20
149.0314286559369918
 30
0.0
 11
3473.2074466626168032
 21
149.025802841523813
 31
0.0
  0
ARC
  5
15E43
  8
0
 10
3473.2012933604519276
 20
149.0258035864133035
 30
0.0
 40
0.0061533022102427
 50
292.7273992747639113
 51
359.9930640452693069
  0
ARC
  5
15E44
  8
0
 10
3473.2033733595490048
 20
149.0229352413581125
 30
0.0
 40
0.0028228748557495
 50
269.0433551984671112
 51
276.0457376284429074
  0
LINE
  5
15E45
  8
0
 10
3473.2033262293221014
 20
149.0201127599688107
 30
0.0
 11
3473.1781959897539309
 21
149.0227114108473927
 31
0.0
  0
LINE
  5
15E46
  8
0
 10
3473.1781959897539309
 20
149.0227114108473927
 30
0.0
 11
3473.1496412412197969
 21
149.0199372035768022
 31
0.0
  0
ARC
  5
15E47
  8
0
 10
3473.1489733576331673
 20
149.0251202565627864
 30
0.0
 40
0.0052259072649473
 50
264.3203059319207
 51
277.3426208773485087
  0
ARC
  5
15E48
  8
0
 10
3473.1479682850481367
 20
149.0249877640044076
 30
0.0
 40
0.0050911894392353
 50
264.2612825070747817
 51
275.4989921721070232
  0
LINE
  5
15E49
  8
0
 10
3473.1474592061531439
 20
149.0199220904474089
 30
0.0
 11
3473.119146024353995
 21
149.0228498549473954
 31
0.0
  0
LINE
  5
15E4A
  8
0
 10
3473.119146024353995
 20
149.0228498549473954
 30
0.0
 11
3473.1191614469539672
 21
149.022949266447398
 31
0.0
  0
LINE
  5
15E4B
  8
0
 10
3473.1191460250538512
 20
149.0228501286474057
 30
0.0
 11
3473.0903733808531797
 21
149.020054455347406
 31
0.0
  0
ARC
  5
15E4C
  8
0
 10
3473.0899100967039885
 20
149.024946386392287
 30
0.0
 40
0.0049138194463307
 50
264.116832561346996
 51
275.4099892229722855
  0
LINE
  5
15E4D
  8
0
 10
3473.0939052979538246
 20
149.0194666662474106
 30
0.0
 11
3473.1183175628539175
 21
149.0169422815473865
 31
0.0
  0
LINE
  5
15E4E
  8
0
 10
3473.1183175628539175
 20
149.0169422815473865
 30
0.0
 11
3473.1431134114532142
 21
149.0193512967474021
 31
0.0
  0
LINE
  5
15E4F
  8
0
 10
3473.1431134114532142
 20
149.0203714734473976
 30
0.0
 11
3473.1431134114532142
 21
149.0193512967474021
 31
0.0
  0
ARC
  5
15E50
  8
0
 10
3473.1484873011190757
 20
149.0193512967474021
 30
0.0
 40
0.0053738896656093
 50
180.0000000000081002
 51
264.7530293453374952
  0
ARC
  5
15E51
  8
0
 10
3473.1474220015247738
 20
149.0195059881422139
 30
0.0
 40
0.0055358875137421
 50
275.9501024145329211
 51
358.1598339341737756
  0
LINE
  5
15E52
  8
0
 10
3473.1529550341538197
 20
149.0193282228474061
 30
0.0
 11
3473.1530424813549871
 21
149.0202676475693977
 31
0.0
  0
LINE
  5
15E53
  8
0
 10
3473.1529550341538197
 20
149.0193282228474061
 30
0.0
 11
3473.1685327909672196
 21
149.0177173829461026
 31
0.0
  0
LINE
  5
15E54
  8
0
 10
3473.1685355731538039
 20
149.0217728629930036
 30
0.0
 11
3473.1685327909672196
 21
149.0177173829461026
 31
0.0
  0
ARC
  5
15E55
  8
0
 10
3473.1630158449238479
 20
149.017721167744611
 30
0.0
 40
0.0055169473411525
 50
297.1546095650114125
 51
359.9606932990828909
  0
ARC
  5
15E56
  8
0
 10
3473.1634067578229406
 20
149.0169590490311009
 30
0.0
 40
0.0046604207342967
 50
270.8232357114134174
 51
297.1546095650122083
  0
LINE
  5
15E57
  8
0
 10
3473.1634737172530549
 20
149.0122991093473956
 30
0.0
 11
3473.1479804425530347
 21
149.0139007871474064
 31
0.0
  0
LINE
  5
15E58
  8
0
 10
3473.1479804418531785
 20
149.0139005134473962
 30
0.0
 11
3473.1479958605141292
 21
149.0139999253549092
 31
0.0
  0
LINE
  5
15E59
  8
0
 10
3473.1479804836449148
 20
149.0139007828994124
 30
0.0
 11
3473.1192080972300573
 21
149.0111055762783963
 31
0.0
  0
ARC
  5
15E5A
  8
0
 10
3473.1187419777597825
 20
149.0159035648798067
 30
0.0
 40
0.0048205769342701
 50
264.0329345630424882
 51
275.5488111224341878
  0
ARC
  5
15E5B
  8
0
 10
3473.1177231652268347
 20
149.0174153535895982
 30
0.0
 40
0.0063274594494877
 50
261.3179161539487154
 51
274.6928977288372948
  0
LINE
  5
15E5C
  8
0
 10
3473.1167680243729592
 20
149.0111603996303984
 30
0.0
 11
3473.0889307062539046
 21
149.0140392305474109
 31
0.0
  0
LINE
  5
15E5D
  8
0
 10
3473.089785387126085
 20
149.0139505773038877
 30
0.0
 11
3473.0897823502891697
 21
149.0079576497437017
 31
0.0
  0
ARC
  5
15E5E
  8
0
 10
3473.0838477317038269
 20
149.0088469452859954
 30
0.0
 40
0.0060008786292139
 50
282.0807903035745881
 51
351.4777064202746146
  0
ARC
  5
15E5F
  8
0
 10
3473.0833074066240442
 20
149.0090317026435969
 30
0.0
 40
0.0063136482952845
 50
264.945788830032825
 51
286.5291565445048718
  0
LINE
  5
15E60
  8
0
 10
3473.0827511851539384
 20
149.0027426031473965
 30
0.0
 11
3473.0587156160531777
 21
149.0052280580474076
 31
0.0
  0
LINE
  5
15E61
  8
0
 10
3473.0587156160531777
 20
149.0052280580474076
 30
0.0
 11
3473.0587308094541186
 21
149.0053274702474084
 31
0.0
  0
ARC
  5
15E62
  8
0
 10
3473.0581330041600268
 20
149.010880669054302
 30
0.0
 40
0.0055852831762412
 50
276.1442645011499053
 51
357.6671254536415745
  0
LINE
  5
15E63
  8
0
 10
3473.0637136582768107
 20
149.0106533195846907
 30
0.0
 11
3473.063777426354136
 21
149.011595192847409
 31
0.0
  0
LINE
  5
15E64
  8
0
 10
3473.0637136582768107
 20
149.0106533195846907
 30
0.0
 11
3473.0897823502527899
 21
149.0079576497473965
 31
0.0
  0
LINE
  5
15E65
  8
0
 10
3473.0897853789538203
 20
149.0083052991473949
 30
0.0
 11
3473.1128716460561918
 21
149.010548204579095
 31
0.0
  0
LINE
  5
15E66
  8
0
 10
3473.1128716460539181
 20
149.0115633484460886
 30
0.0
 11
3473.1128716460539181
 21
149.010548204578896
 31
0.0
  0
ARC
  5
15E67
  8
0
 10
3473.117403828544866
 20
149.010548204578896
 30
0.0
 40
0.0045321824912765
 50
179.9999999999917861
 51
271.3036999279028123
  0
ARC
  5
15E68
  8
0
 10
3473.1173830810971594
 20
149.0114598683869076
 30
0.0
 40
0.005444082351742
 50
271.3036999279028123
 51
359.971544565200702
  0
LINE
  5
15E69
  8
0
 10
3473.1183175628539175
 20
149.0227693436534935
 30
0.0
 11
3473.1182408460422266
 21
149.0111091067138034
 31
0.0
  0
LINE
  5
15E6A
  8
0
 10
3473.0936258493538844
 20
149.0835976519994119
 30
0.0
 11
3473.0935491326508782
 21
149.0733391668233878
 31
0.0
  0
LINE
  5
15E6B
  8
0
 10
3473.0935491326508782
 20
149.0733391668233878
 30
0.0
 11
3473.093083716439196
 21
149.0674196159451128
 31
0.0
  0
LINE
  5
15E6C
  8
0
 10
3473.1210793654540794
 20
149.0582899331423903
 30
0.0
 11
3473.1210026487528921
 21
149.0466295858473984
 31
0.0
  0
ARC
  5
15E6D
  8
0
 10
3473.1206035825689469
 20
149.0569739210046976
 30
0.0
 40
0.0103520299560462
 50
262.6856422899924723
 51
272.2092741950178265
  0
LINE
  5
15E6E
  8
0
 10
3473.1192856328948437
 20
149.0467061299634963
 30
0.0
 11
3473.1156598953530192
 21
149.0470810544694018
 31
0.0
  0
LINE
  5
15E6F
  8
0
 10
3473.1156598953530192
 20
149.0470810544694018
 30
0.0
 11
3473.0916925088531571
 21
149.0495597096474114
 31
0.0
  0
LINE
  5
15E70
  8
0
 10
3473.090864046752813
 20
149.0494792114938889
 30
0.0
 11
3473.090864046752813
 21
149.0439088343850926
 31
0.0
  0
LINE
  5
15E71
  8
0
 10
3473.1196984641542258
 20
149.0405295956244061
 30
0.0
 11
3473.1196217467040697
 21
149.0288693462497918
 31
0.0
  0
LINE
  5
15E72
  8
0
 10
3473.1241349064889619
 20
149.0282760865972875
 30
0.0
 11
3473.148532881653864
 21
149.0257531796474098
 31
0.0
  0
LINE
  5
15E73
  8
0
 10
3473.148532881653864
 20
149.0257531796474098
 30
0.0
 11
3473.1733287302531608
 21
149.0281621947474093
 31
0.0
  0
LINE
  5
15E74
  8
0
 10
3473.1733287302531608
 20
149.0291823715473924
 30
0.0
 11
3473.1733287302531608
 21
149.0281621947474093
 31
0.0
  0
ARC
  5
15E75
  8
0
 10
3473.1787026198098829
 20
149.0281621947474093
 30
0.0
 40
0.0053738895560054
 50
179.9999999999934914
 51
264.753030411524378
  0
LINE
  5
15E76
  8
0
 10
3473.1782111832530973
 20
149.0228108230473936
 30
0.0
 11
3473.1781959897539309
 21
149.0227114108473927
 31
0.0
  0
ARC
  5
15E77
  8
0
 10
3473.1776342248558649
 20
149.0283197672702897
 30
0.0
 40
0.0055390746017267
 50
275.9788599655437906
 51
358.1310753107616165
  0
LINE
  5
15E78
  8
0
 10
3473.183170352954221
 20
149.0281391208474133
 30
0.0
 11
3473.1832578002617993
 21
149.0290785483223033
 31
0.0
  0
LINE
  5
15E79
  8
0
 10
3473.183170352954221
 20
149.0281391208474133
 30
0.0
 11
3473.2074441868539907
 21
149.0256290508432926
 31
0.0
  0
LINE
  5
15E7A
  8
0
 10
3473.1881552001550517
 20
149.021681338965692
 30
0.0
 11
3473.1685355722529494
 21
149.0180624109474081
 31
0.0
  0
LINE
  5
15E7B
  8
0
 10
3473.1499137829528081
 20
149.0493404812631866
 30
0.0
 11
3473.1498370661688568
 21
149.0376802443007023
 31
0.0
  0
LINE
  5
15E7C
  8
0
 10
3473.148532881653864
 20
149.0315802417632085
 30
0.0
 11
3473.1484561650709111
 21
149.0199200047808006
 31
0.0
  0
LINE
  5
15E7D
  8
0
 10
3473.0538483565528622
 20
149.0116990187474073
 30
0.0
 11
3473.0538483565528622
 21
149.0106788420474118
 31
0.0
  0
ARC
  5
15E7E
  8
0
 10
3473.0592222462291829
 20
149.0106788420474118
 30
0.0
 40
0.0053738896756732
 50
180.0000000000015916
 51
264.7530281767678275
  0
LINE
  5
15E7F
  8
0
 10
3473.0587156160531777
 20
149.0052280580474076
 30
0.0
 11
3473.0299427432541961
 21
149.002432659147388
 31
0.0
  0
ARC
  5
15E80
  8
0
 10
3473.0294793569651119
 20
149.0072996552027007
 30
0.0
 40
0.0048890057736652
 50
264.0880715041997178
 51
275.4387320224710152
  0
ARC
  5
15E81
  8
0
 10
3473.0286515798347864
 20
149.0167520791871141
 30
0.0
 40
0.0143190979166117
 50
261.7042863427283237
 51
271.2973953567449144
  0
LINE
  5
15E82
  8
0
 10
3473.0289757911550623
 20
149.0024366521138859
 30
0.0
 11
3473.0290525079531108
 21
149.0140968889631949
 31
0.0
  0
LINE
  5
15E83
  8
0
 10
3473.0265855892657783
 20
149.0025828079243979
 30
0.0
 11
3472.9996658798540921
 21
149.005366501447412
 31
0.0
  0
LINE
  5
15E84
  8
0
 10
3472.9996658798540921
 20
149.005366501447412
 30
0.0
 11
3472.999681073253214
 21
149.0054659136474129
 31
0.0
  0
ARC
  5
15E85
  8
0
 10
3472.9990931719489708
 20
149.0109999956027877
 30
0.0
 40
0.0055652215618344
 50
276.063950852062419
 51
357.8656793275080759
  0
LINE
  5
15E86
  8
0
 10
3473.0046545327199965
 20
149.0107927339043101
 30
0.0
 11
3473.0047341779650196
 21
149.0118170781728111
 31
0.0
  0
LINE
  5
15E87
  8
0
 10
3473.0046545327199965
 20
149.0107927339043101
 30
0.0
 11
3473.0290141495538592
 21
149.0082667705385973
 31
0.0
  0
LINE
  5
15E88
  8
0
 10
3473.0290141495538592
 20
149.0082667705385973
 30
0.0
 11
3473.0538483565528622
 21
149.0106788420447117
 31
0.0
  0
LINE
  5
15E89
  8
0
 10
3473.0620296292540843
 20
149.0584282883648939
 30
0.0
 11
3473.0619529125119698
 21
149.0467680292194927
 31
0.0
  0
LINE
  5
15E8A
  8
0
 10
3473.060648727953776
 20
149.0406680487650135
 30
0.0
 11
3473.0605719764557762
 21
149.0290077863245131
 31
0.0
  0
LINE
  5
15E8B
  8
0
 10
3473.0592678266530129
 20
149.0229077870534127
 30
0.0
 11
3473.0591911099131721
 21
149.0112475501194922
 31
0.0
  0
ARC
  5
15E8C
  8
0
 10
3473.0286610532430132
 20
149.0041510635165878
 30
0.0
 40
0.0049894139727309
 50
194.9667551396408953
 51
343.9607429353862926
  0
ARC
  5
15E8D
  8
0
 10
3472.8825128057901566
 20
147.4342608911437082
 30
0.0
 40
1.711120808731043
 50
93.920195295571375
 51
97.9994911430826363
  0
ARC
  5
15E8E
  8
0
 10
3472.7442057275911793
 20
148.3741854860863043
 30
0.0
 40
0.7611198310653866
 50
97.5359752273618454
 51
105.9660895865797983
  0
ARC
  5
15E8F
  8
0
 10
3472.5892476053031714
 20
148.9155589644419138
 30
0.0
 40
0.1980059473161729
 50
105.9470403604094031
 51
119.3385499644192009
  0
ARC
  5
15E90
  8
0
 10
3472.5195165474751775
 20
149.0414073367560093
 30
0.0
 40
0.0541399113488601
 50
120.2640376862066063
 51
137.6342990503322028
  0
ARC
  5
15E91
  8
0
 10
3472.496540149249995
 20
149.0628589927221128
 30
0.0
 40
0.0227111418095928
 50
138.5598701844338052
 51
158.4162249084700136
  0
ARC
  5
15E92
  8
0
 10
3472.4894775885891249
 20
149.0658464119775886
 30
0.0
 40
0.0150459227961424
 50
159.1013155509218961
 51
179.715825124173989
  0
ARC
  5
15E93
  8
0
 10
3472.4894598855707954
 20
149.0659936842340869
 30
0.0
 40
0.015028210313048
 50
180.2769750458460862
 51
200.69020375270361
  0
ARC
  5
15E94
  8
0
 10
3472.5251959498509677
 20
149.0920362661738068
 30
0.0
 40
0.0588430896989761
 50
212.1956114312368129
 51
248.9171221177014104
  0
ARC
  5
15E95
  8
0
 10
5117.0889533315994413
 20
3186.5922245471388123
 30
0.0
 40
3454.1859407202541661
 50
241.5681184007123079
 51
241.5688215160832044
  0
ARC
  5
15E96
  8
0
 10
3472.6855477045910447
 20
149.334777370888105
 30
0.0
 40
0.3490270387376768
 50
245.5895382729761991
 51
260.7348490848460187
  0
ARC
  5
15E97
  8
0
 10
3472.884325974832791
 20
150.421087944556092
 30
0.0
 40
1.453325301231909
 50
259.895676602285107
 51
267.2632371807442269
  0
ARC
  5
15E98
  8
0
 10
3472.9431642378272045
 20
151.3046185048150107
 30
0.0
 40
2.3387163237637401
 50
266.8569233191066132
 51
270.0281614574781202
  0
ARC
  5
15E99
  8
0
 10
3472.9436287090347832
 20
146.7480153393574938
 30
0.0
 40
2.3648724012063291
 50
89.983403156027947
 51
92.7772239921425808
  0
ARC
  5
15E9A
  8
0
 10
3472.9215516706331073
 20
147.2031280119263101
 30
0.0
 40
1.9092245762831499
 50
92.7772342072410652
 51
96.3691030774795792
  0
ARC
  5
15E9B
  8
0
 10
3472.8273334801720011
 20
148.0472108812475085
 30
0.0
 40
1.0598995750644049
 50
96.3691030774795792
 51
101.1232443363650049
  0
ARC
  5
15E9C
  8
0
 10
3472.7087231200339374
 20
148.650477373366698
 30
0.0
 40
0.4450834415368404
 50
101.1232443363650049
 51
110.3662447374310034
  0
ARC
  5
15E9D
  8
0
 10
3472.5841532199010544
 20
148.9860407128184931
 30
0.0
 40
0.0871443198927239
 50
110.3662447374310034
 51
129.6073281770354129
  0
ARC
  5
15E9E
  8
0
 10
3472.5432376579287848
 20
149.0354862534541951
 30
0.0
 40
0.0229653147572502
 50
129.6073281770354129
 51
157.5523379468762926
  0
ARC
  5
15E9F
  8
0
 10
3472.5336835497068932
 20
149.039433473751501
 30
0.0
 40
0.0126279295947508
 50
157.5523379468777989
 51
197.4538440455876867
  0
ARC
  5
15EA0
  8
0
 10
3472.5394822113121336
 20
149.0412566504041934
 30
0.0
 40
0.0187064532248593
 50
197.4538440455862087
 51
219.8542332190664013
  0
ARC
  5
15EA1
  8
0
 10
3472.556676513603179
 20
149.0556099977725069
 30
0.0
 40
0.0411042792785188
 50
219.8542332190664013
 51
238.9046259281392963
  0
ARC
  5
15EA2
  8
0
 10
3472.5192548835598245
 20
148.9935641271482041
 30
0.0
 40
0.031353076846023
 50
53.7806100933652687
 51
58.904625928116161
  0
ARC
  5
15EA3
  8
0
 10
3472.9438144802988973
 20
146.8796742729167022
 30
0.0
 40
2.2285987416192938
 50
89.987411713187754
 51
92.4313195784559412
  0
ARC
  5
15EA4
  8
0
 10
3472.9293765504107796
 20
147.2197101388728981
 30
0.0
 40
1.88825649628966
 50
92.4313195784559412
 51
95.621496515756462
  0
ARC
  5
15EA5
  8
0
 10
3472.8592109746068672
 20
147.9325600410265906
 30
0.0
 40
1.1719617308275641
 50
95.621496515756462
 51
99.2734402164996652
  0
ARC
  5
15EA6
  8
0
 10
3472.774503384421223
 20
148.4513462923546001
 30
0.0
 40
0.6463054263832019
 50
99.2734402164996652
 51
105.415338287978301
  0
ARC
  5
15EA7
  8
0
 10
3472.65494611389704
 20
148.8849428106836967
 30
0.0
 40
0.1965278350760038
 50
105.415338287978301
 51
113.6200070172041023
  0
ARC
  5
15EA8
  8
0
 10
3472.6165036196639448
 20
148.9728505185690892
 30
0.0
 40
0.1005820667034007
 50
113.6200070172041023
 51
128.4575927704198079
  0
ARC
  5
15EA9
  8
0
 10
3472.5641101657620311
 20
149.0388182786620064
 30
0.0
 40
0.0163394445736089
 50
128.4575927704198079
 51
185.1222775145270134
  0
ARC
  5
15EAA
  8
0
 10
3472.5646211283437879
 20
149.0408283333428017
 30
0.0
 40
0.01713984942293
 50
191.6765217282128049
 51
222.6807059704831033
  0
ARC
  5
15EAB
  8
0
 10
3472.6074168278419165
 20
149.0882574048270044
 30
0.0
 40
0.0809655582055084
 50
226.8279516865985954
 51
251.4011621522296025
  0
ARC
  5
15EAC
  8
0
 10
3472.6863831114919776
 20
149.2844230291273959
 30
0.0
 40
0.2923298427379235
 50
248.9941636546558925
 51
256.9856286473192881
  0
ARC
  5
15EAD
  8
0
 10
3472.813763092202862
 20
149.8355356341330946
 30
0.0
 40
0.8579717461378951
 50
256.9856286473192881
 51
261.9764361923702722
  0
ARC
  5
15EAE
  8
0
 10
3472.9327205629961099
 20
150.5841981221765877
 30
0.0
 40
1.6159642008425861
 50
261.5050636583490018
 51
270.4110523276295908
  0
ARC
  5
15EAF
  8
0
 10
3472.9393206477739113
 20
150.6489185695313893
 30
0.0
 40
1.6708352768140999
 50
264.3906353424450231
 51
270.1712218886167989
  0
ARC
  5
15EB0
  8
0
 10
3472.8335365022080623
 20
149.6568645396721138
 30
0.0
 40
0.6732432642850924
 50
254.560843559852799
 51
265.0988828707767766
  0
ARC
  5
15EB1
  8
0
 10
3472.6839427445338515
 20
149.115213950809391
 30
0.0
 40
0.1113147521500633
 50
235.7714982522336982
 51
254.560843559852799
  0
ARC
  5
15EB2
  8
0
 10
3472.631696230309899
 20
149.038417742586887
 30
0.0
 40
0.0184311914631019
 50
191.5026097774338041
 51
235.7714982522336982
  0
ARC
  5
15EB3
  8
0
 10
3472.6245930567961295
 20
149.0354447043440018
 30
0.0
 40
0.0109803261386389
 50
150.6418708933726975
 51
183.6675142703197139
  0
ARC
  5
15EB4
  8
0
 10
3472.6402704125011951
 20
149.0247479468519032
 30
0.0
 40
0.0299333329666891
 50
119.4753820208259043
 51
147.5070796787472887
  0
ARC
  5
15EB5
  8
0
 10
3472.671172114186902
 20
148.9766203498701884
 30
0.0
 40
0.0870963826615524
 50
113.0662029849717953
 51
121.5946768864860985
  0
ARC
  5
15EB6
  8
0
 10
3472.9438059450199034
 20
147.3613491168611063
 30
0.0
 40
1.728172782890014
 50
89.9831645628910763
 51
90.8917674608167658
  0
ARC
  5
15EB7
  8
0
 10
3472.9508114299810586
 20
146.9112852521708987
 30
0.0
 40
2.1782911663396982
 50
90.8917674608167658
 51
92.467242470341688
  0
ARC
  5
15EB8
  8
0
 10
3472.9217612381457911
 20
147.5854891393574064
 30
0.0
 40
1.503461710000533
 50
92.467242470341688
 51
95.7858305492899973
  0
ARC
  5
15EB9
  8
0
 10
3472.8736756504749792
 20
148.0600502153625939
 30
0.0
 40
1.0264706842978291
 50
95.7858305492899973
 51
100.8085655343417955
  0
ARC
  5
15EBA
  8
0
 10
3472.7445393767120549
 20
148.7364568711232096
 30
0.0
 40
0.3378473176026621
 50
100.8085655343417955
 51
108.5628991968675052
  0
ARC
  5
15EBB
  8
0
 10
3472.6760931945041193
 20
148.9363443028547067
 30
0.0
 40
0.1265757355791201
 50
107.9961680233234063
 51
119.5812551169002944
  0
ARC
  5
15EBC
  8
0
 10
3472.6255629102720377
 20
149.021081584715489
 30
0.0
 40
0.0280185358236041
 50
115.2566242331130013
 51
152.165114969792711
  0
ARC
  5
15EBD
  8
0
 10
3472.610959118439041
 20
149.0296534345071962
 30
0.0
 40
0.0111281002331203
 50
156.0873127292865945
 51
213.1238754842337926
  0
ARC
  5
15EBE
  8
0
 10
3472.6340024070718755
 20
149.0480005490300073
 30
0.0
 40
0.0405474159201212
 50
217.0460732437205991
 51
237.7425553086642935
  0
ARC
  5
15EBF
  8
0
 10
3472.675249432255896
 20
149.1210590536296934
 30
0.0
 40
0.1244124827172696
 50
239.6366996295913054
 51
252.029960369852887
  0
ARC
  5
15EC0
  8
0
 10
3472.7552441276648096
 20
149.3631746631056956
 30
0.0
 40
0.3793997010829309
 50
251.8192955198618961
 51
259.1341977293949981
  0
ARC
  5
15EC1
  8
0
 10
3472.8400674093950329
 20
149.7847370440478869
 30
0.0
 40
0.8094031191369946
 50
258.8627907724201123
 51
262.7924378336227278
  0
ARC
  5
15EC2
  8
0
 10
3472.9276971384902026
 20
150.5230295175470019
 30
0.0
 40
1.5528665403527919
 50
263.0024534997783121
 51
268.7079648686117253
  0
ARC
  5
15EC3
  8
0
 10
3472.9441400377809259
 20
150.9295895129172038
 30
0.0
 40
1.9597074199697511
 50
268.4953694180646835
 51
270.0050785329381142
  0
ARC
  5
15EC4
  8
0
 10
3472.523025832887015
 20
150.0530274512078108
 30
0.0
 40
0.9760709578825373
 50
279.1302142569398939
 51
281.0006024003786251
  0
ARC
  5
15EC5
  8
0
 10
3472.7387449218531401
 20
148.7107809905517968
 30
0.0
 40
0.3833996326371781
 50
99.1302142569398939
 51
105.7972583556699959
  0
ARC
  5
15EC6
  8
0
 10
3472.7295781476409502
 20
148.7431816014384083
 30
0.0
 40
0.3497272502553839
 50
105.7972583556699959
 51
111.009805566739999
  0
ARC
  5
15EC7
  8
0
 10
3472.6328219096549219
 20
148.9951113414443
 30
0.0
 40
0.0798562375686211
 50
111.009805566739999
 51
127.5694030422597933
  0
ARC
  5
15EC8
  8
0
 10
3472.5978844183268848
 20
149.0405287498957989
 30
0.0
 40
0.0225555456814226
 50
127.5694030422608023
 51
161.7641418393064043
  0
ARC
  5
15EC9
  8
0
 10
3472.5952185511641801
 20
149.0445352926375051
 30
0.0
 40
0.0190034967749551
 50
170.7589209454725108
 51
189.9812509541295071
  0
ARC
  5
15ECA
  8
0
 10
3472.6047241454939467
 20
149.0456361956111948
 30
0.0
 40
0.0285615902391542
 50
188.8511225171361048
 51
213.060006565934799
  0
ARC
  5
15ECB
  8
0
 10
3472.6224383364278765
 20
149.0589338295345101
 30
0.0
 40
0.0506835874871789
 50
214.7348514162686968
 51
241.3378140707542059
  0
ARC
  5
15ECC
  8
0
 10
3472.6900483475219517
 20
149.1855443009864075
 30
0.0
 40
0.1942134156534654
 50
241.7516458752189124
 51
256.2715059758501184
  0
ARC
  5
15ECD
  8
0
 10
3472.7802874614108077
 20
149.5133129923156048
 30
0.0
 40
0.5341251024183005
 50
255.2121933072610034
 51
259.9513381011249749
  0
ARC
  5
15ECE
  8
0
 10
3472.6545803996150426
 20
148.7908583318371996
 30
0.0
 40
0.1991940112778512
 50
77.8556435565345026
 51
80.6067217313040345
  0
LINE
  5
15ECF
  8
0
 10
3472.5762035044531331
 20
149.0650061090474026
 30
0.0
 11
3472.5762170943671663
 21
149.0442568518427038
 31
0.0
  0
ARC
  5
15ED0
  8
0
 10
3471.6782521636919228
 20
154.2931178421787024
 30
0.0
 40
5.32181323871764
 50
281.0865567147574779
 51
281.4247333016165271
  0
ARC
  5
15ED1
  8
0
 10
3472.756139175320186
 20
148.7922503452134038
 30
0.0
 40
0.2836647631128835
 50
101.0865567147575064
 51
104.8380967957188972
  0
ARC
  5
15ED2
  8
0
 10
3472.7361324237458575
 20
148.8486971226982121
 30
0.0
 40
0.2240300461140148
 50
103.5888566875272971
 51
111.2584755717776943
  0
ARC
  5
15ED3
  8
0
 10
3472.682540731635072
 20
148.9821884248449066
 30
0.0
 40
0.0802060722633642
 50
110.1552431751533021
 51
125.3628626606571999
  0
ARC
  5
15ED4
  8
0
 10
3472.6503590457909922
 20
149.0283686476898879
 30
0.0
 40
0.0239255886660369
 50
126.5188018252790982
 51
151.6676761808940057
  0
ARC
  5
15ED5
  8
0
 10
3472.6383383367460738
 20
149.035530619596301
 30
0.0
 40
0.0099639127086457
 50
155.1153018197938991
 51
191.6086439557250003
  0
ARC
  5
15ED6
  8
0
 10
3472.6529972512130371
 20
149.0438548171053981
 30
0.0
 40
0.0265137792067835
 50
202.9282621171558958
 51
241.5331855025656864
  0
ARC
  5
15ED7
  8
0
 10
3472.715951998833134
 20
149.1590916095248076
 30
0.0
 40
0.1578255820640139
 50
241.3823383110357099
 51
257.3371884992095033
  0
ARC
  5
15ED8
  8
0
 10
3472.840651198102023
 20
149.6616238807592936
 30
0.0
 40
0.675568424728144
 50
256.3614264607155064
 51
263.9992449150773268
  0
ARC
  5
15ED9
  8
0
 10
3472.901665165184113
 20
150.0655152605351077
 30
0.0
 40
1.0837823455184259
 50
263.0234828765849215
 51
268.314283703611693
  0
ARC
  5
15EDA
  8
0
 10
3472.9439196571179309
 20
150.7572115408814
 30
0.0
 40
1.776557126428939
 50
267.6083381786936002
 51
270.0127095945068731
  0
ARC
  5
15EDB
  8
0
 10
3472.9435338268790474
 20
150.7383663595076086
 30
0.0
 40
1.7503379734349991
 50
266.9405082473630841
 51
270.0255297930713141
  0
ARC
  5
15EDC
  8
0
 10
3472.9235332730040682
 20
150.3641676239462868
 30
0.0
 40
1.375605114119127
 50
263.2737079047474253
 51
266.9405082473630841
  0
ARC
  5
15EDD
  8
0
 10
3472.8445705552258005
 20
149.6946416417216881
 30
0.0
 40
0.7014388500027743
 50
256.638088433610676
 51
263.2737079047474253
  0
ARC
  5
15EDE
  8
0
 10
3472.7279987612741934
 20
149.2038775428798942
 30
0.0
 40
0.1970199924474271
 50
246.3811289337841117
 51
256.638088433610676
  0
ARC
  5
15EDF
  8
0
 10
3472.675111700045818
 20
149.0829324397697064
 30
0.0
 40
0.0650171166773486
 50
230.9911465185062127
 51
246.3811289337841117
  0
ARC
  5
15EE0
  8
0
 10
3472.6451958524398833
 20
149.0460011145036958
 30
0.0
 40
0.017489432914443
 50
202.8482368980453998
 51
230.9911465184848964
  0
ARC
  5
15EE1
  8
0
 10
3472.9438753724912203
 20
150.7830962822831111
 30
0.0
 40
1.7900605765929209
 50
267.4172758810063897
 51
270.0139626186742134
  0
ARC
  5
15EE2
  8
0
 10
3472.9297972134208976
 20
150.4709945427806872
 30
0.0
 40
1.477641482485071
 50
263.8799080318777897
 51
267.4172758810063897
  0
ARC
  5
15EE3
  8
0
 10
3472.8620834685871159
 20
149.839477034330713
 30
0.0
 40
0.842504084185707
 50
259.7845883495915018
 51
263.8799080318777897
  0
ARC
  5
15EE4
  8
0
 10
3472.7909278563911357
 20
149.4446201995484103
 30
0.0
 40
0.4412871339936404
 50
253.0602285670460105
 51
259.7845883495915018
  0
ARC
  5
15EE5
  8
0
 10
3472.6986051924718595
 20
149.1415071370416001
 30
0.0
 40
0.1244259610248156
 50
241.3791057134295954
 51
253.0602285670460105
  0
ARC
  5
15EE6
  8
0
 10
3472.6597642434248883
 20
149.0703295691538131
 30
0.0
 40
0.0433404167318166
 50
225.2137384669509004
 51
241.3791057134295954
  0
ARC
  5
15EE7
  8
0
 10
3472.9443146517492096
 20
147.0672013794057875
 30
0.0
 40
2.023687596541615
 50
90.0000257968718245
 51
90.8924053270289818
  0
ARC
  5
15EE8
  8
0
 10
3472.9434558647521953
 20
147.122334276959208
 30
0.0
 40
1.9685480108727289
 50
90.8924053270289818
 51
92.4171142448524137
  0
ARC
  5
15EE9
  8
0
 10
3472.9334637360079796
 20
147.3590492499415916
 30
0.0
 40
1.7316222396469609
 50
92.4171142448524137
 51
94.4502845861359646
  0
ARC
  5
15EEA
  8
0
 10
3472.9038050173421652
 20
147.7401261652946118
 30
0.0
 40
1.3493929171090511
 50
94.4502845861359646
 51
97.2403051908391234
  0
ARC
  5
15EEB
  8
0
 10
3472.828330913821901
 20
148.3342040289458907
 30
0.0
 40
0.7505399732382719
 50
97.2403051908391234
 51
104.0782309872672045
  0
ARC
  5
15EEC
  8
0
 10
3472.6898683869640081
 20
148.8863342187077876
 30
0.0
 40
0.1813127621963256
 50
104.0782309872672045
 51
114.4034790374867043
  0
ARC
  5
15EED
  8
0
 10
3472.6473501191981086
 20
148.9800500933907017
 30
0.0
 40
0.0784027614125414
 50
114.4034790374867043
 51
129.15489171673741
  0
ARC
  5
15EEE
  8
0
 10
3472.6084416199119005
 20
149.0278333847942065
 30
0.0
 40
0.0167820323189162
 50
129.15489171673741
 51
163.9502810384825864
  0
ARC
  5
15EEF
  8
0
 10
3472.6022990015521827
 20
149.0296005222930091
 30
0.0
 40
0.0103902770614999
 50
163.9502810384778968
 51
207.5496531197738079
  0
ARC
  5
15EF0
  8
0
 10
3472.6228478661410008
 20
149.0430850706767103
 30
0.0
 40
0.0349320644106086
 50
211.573659809519512
 51
244.4255984244099977
  0
ARC
  5
15EF1
  8
0
 10
3472.6775906499051416
 20
149.1432084808810998
 30
0.0
 40
0.1490047442786995
 50
242.0570942976617914
 51
252.7942806208911009
  0
ARC
  5
15EF2
  8
0
 10
3472.7277138640570229
 20
149.2928197955772873
 30
0.0
 40
0.3067688103426087
 50
252.1172905564573909
 51
255.2856060539357088
  0
ARC
  5
15EF3
  8
0
 10
3472.7682612294088358
 20
149.4481033103220113
 30
0.0
 40
0.4672587653992943
 50
255.3131449280944025
 51
258.4362628934965187
  0
ARC
  5
15EF4
  8
0
 10
3472.5650245944812013
 20
148.3963219211148896
 30
0.0
 40
0.6040281264524929
 50
77.0911650634453309
 51
79.548662170149214
  0
ARC
  5
15EF5
  8
0
 10
3472.6375491149019581
 20
149.0694512724195988
 30
0.0
 40
0.0466786360791241
 50
222.4291338149139108
 51
243.4567943916165973
  0
LINE
  5
15EF6
  8
0
 10
3472.6136081489808021
 20
149.0464217116330019
 30
0.0
 11
3472.6136127545910313
 21
149.0354676304575037
 31
0.0
  0
ARC
  5
15EF7
  8
0
 10
3472.9115889429172057
 20
149.090996509944091
 30
0.0
 40
0.005580455254252
 50
276.877857849168322
 51
342.4369804358407237
  0
ARC
  5
15EF8
  8
0
 10
3472.9128582714338336
 20
149.091027198038887
 30
0.0
 40
0.0056033144722202
 50
199.6019893181513964
 51
263.8422004527001263
  0
LINE
  5
15EF9
  8
0
 10
3472.9122572201540606
 20
149.0854562133474133
 30
0.0
 11
3472.9122726427540329
 21
149.0853568018474107
 31
0.0
  0
LINE
  5
15EFA
  8
0
 10
3472.9466152427289671
 20
149.0825653951075083
 30
0.0
 11
3472.9122726427540329
 21
149.0853568018474107
 31
0.0
  0
LINE
  5
15EFB
  8
0
 10
3472.9122726427540329
 20
149.0853568018474107
 30
0.0
 11
3472.8883052556529947
 21
149.0828784203474129
 31
0.0
  0
ARC
  5
15EFC
  8
0
 10
3469.6264307656010715
 20
180.6270973288239929
 30
0.0
 40
31.7124198341083101
 50
275.8958736967964001
 51
275.9037678662793951
  0
ARC
  5
15EFD
  8
0
 10
3472.8834491500219883
 20
149.0873673266993933
 30
0.0
 40
0.0049642855567008
 50
264.374273172951689
 51
275.8958736967964001
  0
LINE
  5
15EFE
  8
0
 10
3472.8828857854527996
 20
149.0885170983850969
 30
0.0
 11
3472.8829625021949141
 21
149.0824269516658944
 31
0.0
  0
ARC
  5
15EFF
  8
0
 10
3472.946793007614815
 20
149.0821304671798089
 30
0.0
 40
0.0055221389877993
 50
181.3881915973917103
 51
263.3648377466665806
  0
LINE
  5
15F00
  8
0
 10
3472.9412724893541053
 20
149.0819966870473934
 30
0.0
 11
3472.9412724893541053
 21
149.082999660358098
 31
0.0
  0
LINE
  5
15F01
  8
0
 10
3472.9412724893541053
 20
149.0819966870473934
 30
0.0
 11
3472.9131011042532009
 21
149.0794492284474018
 31
0.0
  0
LINE
  5
15F02
  8
0
 10
3472.9131011042532009
 20
149.0794492284474018
 30
0.0
 11
3472.8883052556529947
 21
149.0818582436473889
 31
0.0
  0
LINE
  5
15F03
  8
0
 10
3472.8883052156320446
 20
149.0828784162395948
 30
0.0
 11
3472.8883052556529947
 21
149.0818582436473889
 31
0.0
  0
ARC
  5
15F04
  8
0
 10
3472.8829315970469906
 20
149.0818580328347878
 30
0.0
 40
0.0053736586103763
 50
275.2447228990574786
 51
0.0022477555944735
  0
ARC
  5
15F05
  8
0
 10
3472.8839966657269542
 20
149.0820129351770049
 30
0.0
 40
0.0055358876628597
 50
181.8401674124087037
 51
264.0498962389020221
  0
LINE
  5
15F06
  8
0
 10
3472.8784636329542082
 20
149.0818351697473929
 30
0.0
 11
3472.8783761857512218
 21
149.082774594477911
 31
0.0
  0
LINE
  5
15F07
  8
0
 10
3472.8834228026539677
 20
149.076506871847414
 30
0.0
 11
3472.8834382246532186
 21
149.0764077340473932
 31
0.0
  0
LINE
  5
15F08
  8
0
 10
3472.8834382246532186
 20
149.0764077340473932
 30
0.0
 11
3472.908591504558899
 21
149.0739636963685939
 31
0.0
  0
ARC
  5
15F09
  8
0
 10
3472.9047282212341088
 20
149.0159397733380899
 30
0.0
 40
0.0581523911968134
 50
82.7109863478534777
 51
86.1908191805035955
  0
ARC
  5
15F0A
  8
0
 10
3472.9126707268178507
 20
149.0786008071287085
 30
0.0
 40
0.005010480189749
 50
263.5316186961787821
 51
275.8086615136369915
  0
ARC
  5
15F0B
  8
0
 10
3472.9136722489429303
 20
149.0787936336926975
 30
0.0
 40
0.0052011339303304
 50
264.5451360967878145
 51
277.2335363809805244
  0
LINE
  5
15F0C
  8
0
 10
3472.9143271440880198
 20
149.0736338946963997
 30
0.0
 11
3472.9461395197531601
 21
149.0765459037473875
 31
0.0
  0
ARC
  5
15F0D
  8
0
 10
3472.9129698442161498
 20
149.073236270344097
 30
0.0
 40
0.005580455254252
 50
276.877857849168322
 51
8.5321366016089062
  0
ARC
  5
15F0E
  8
0
 10
3472.9142391727341419
 20
149.073266958438893
 30
0.0
 40
0.0056033144722202
 50
172.9440179874146963
 51
263.8422004527001263
  0
LINE
  5
15F0F
  8
0
 10
3472.9136381214539142
 20
149.0676959737473908
 30
0.0
 11
3472.9136535440538864
 21
149.0675965622473882
 31
0.0
  0
ARC
  5
15F10
  8
0
 10
3472.9447192577040369
 20
149.1148744214455064
 30
0.0
 40
0.0500719151978133
 50
263.2187591736657737
 51
270.5894051177882034
  0
LINE
  5
15F11
  8
0
 10
3472.9388068232510705
 20
149.0651527982780067
 30
0.0
 11
3472.9136535440538864
 21
149.0675965622473882
 31
0.0
  0
LINE
  5
15F12
  8
0
 10
3472.9136535440538864
 20
149.0675965622473882
 30
0.0
 11
3472.8896861569528483
 21
149.0651181807473904
 31
0.0
  0
ARC
  5
15F13
  8
0
 10
3469.6278116669018345
 20
180.6093370892239989
 30
0.0
 40
31.7124198341083101
 50
275.8958736967964001
 51
275.9037678662793951
  0
ARC
  5
15F14
  8
0
 10
3472.8848300513218419
 20
149.0696070870993992
 30
0.0
 40
0.0049642855567008
 50
264.374273172951689
 51
275.8958736967964001
  0
LINE
  5
15F15
  8
0
 10
3472.8842666868531524
 20
149.0763269490535095
 30
0.0
 11
3472.8843434034952224
 21
149.0646667120659004
 31
0.0
  0
ARC
  5
15F16
  8
0
 10
3472.9454290782318822
 20
149.0643862361015124
 30
0.0
 40
0.0055400216600911
 50
181.7454867512433054
 51
263.2096203467739883
  0
LINE
  5
15F17
  8
0
 10
3472.9398916271788949
 20
149.0642174882671895
 30
0.0
 11
3472.939891588053797
 21
149.0650357788344138
 31
0.0
  0
LINE
  5
15F18
  8
0
 10
3472.9398916271788949
 20
149.0642174882671895
 30
0.0
 11
3472.914482005553964
 21
149.0616889888474077
 31
0.0
  0
LINE
  5
15F19
  8
0
 10
3472.914482005553964
 20
149.0616889888474077
 30
0.0
 11
3472.8896861569528483
 21
149.0640980040473949
 31
0.0
  0
LINE
  5
15F1A
  8
0
 10
3472.8896861169309886
 20
149.0651181766396007
 30
0.0
 11
3472.8896861569528483
 21
149.0640980040473949
 31
0.0
  0
ARC
  5
15F1B
  8
0
 10
3472.8843124983482085
 20
149.0640977932349074
 30
0.0
 40
0.0053736586103763
 50
275.2447228990574786
 51
0.0022477555944735
  0
ARC
  5
15F1C
  8
0
 10
3472.8853775670268078
 20
149.0642526955770109
 30
0.0
 40
0.0055358876628597
 50
181.8401674124087037
 51
264.0498962389020221
  0
LINE
  5
15F1D
  8
0
 10
3472.8798445342531522
 20
149.0640749301473988
 30
0.0
 11
3472.8797570870510754
 21
149.0650143548780022
 31
0.0
  0
LINE
  5
15F1E
  8
0
 10
3472.8848037039538212
 20
149.0587466322473915
 30
0.0
 11
3472.8848191259539817
 21
149.0586474944473991
 31
0.0
  0
LINE
  5
15F1F
  8
0
 10
3472.8848191259539817
 20
149.0586474944473991
 30
0.0
 11
3472.9099724058601169
 21
149.0562034567685998
 31
0.0
  0
ARC
  5
15F20
  8
0
 10
3472.9061091225330529
 20
148.9981795337380959
 30
0.0
 40
0.0581523911968134
 50
82.7109863478534777
 51
86.1908191805035955
  0
ARC
  5
15F21
  8
0
 10
3472.914051628118159
 20
149.0608405675286861
 30
0.0
 40
0.005010480189749
 50
263.5316186961787821
 51
275.8086615136369915
  0
ARC
  5
15F22
  8
0
 10
3472.9150531502427839
 20
149.0610333940927035
 30
0.0
 40
0.0052011339303304
 50
264.5451360967878145
 51
277.2335363809805244
  0
LINE
  5
15F23
  8
0
 10
3472.9157080453878734
 20
149.0558736550964056
 30
0.0
 11
3472.9447740410419101
 21
149.0588850756462875
 31
0.0
  0
ARC
  5
15F24
  8
0
 10
3472.9143507455160034
 20
149.0554760308440905
 30
0.0
 40
0.005580455254252
 50
276.877857849168322
 51
8.5321703124233004
  0
ARC
  5
15F25
  8
0
 10
3472.9156200740339955
 20
149.0555067189388865
 30
0.0
 40
0.0056033144722202
 50
172.9440179874227965
 51
263.8422004527001263
  0
LINE
  5
15F26
  8
0
 10
3472.9150190227542225
 20
149.0499357342474127
 30
0.0
 11
3472.9150344453541948
 21
149.0498363227474101
 31
0.0
  0
ARC
  5
15F27
  8
0
 10
3472.9442718713230533
 20
149.0518736723965958
 30
0.0
 40
0.0048547979409532
 50
266.3947135408390068
 51
275.9371696344248903
  0
ARC
  5
15F28
  8
0
 10
3472.9692449219969603
 20
149.3291934190810935
 30
0.0
 40
0.283294979819703
 50
264.1128931222906999
 51
264.8807047331084732
  0
LINE
  5
15F29
  8
0
 10
3472.940187724550924
 20
149.0473925587778865
 30
0.0
 11
3472.9150344453541948
 21
149.0498363227474101
 31
0.0
  0
LINE
  5
15F2A
  8
0
 10
3472.9150344453541948
 20
149.0498363227474101
 30
0.0
 11
3472.8910670582531566
 21
149.0473579412474123
 31
0.0
  0
ARC
  5
15F2B
  8
0
 10
3469.6291925682007786
 20
180.5915768497239924
 30
0.0
 40
31.7124198341083101
 50
275.8958736967964001
 51
275.9037678662793951
  0
ARC
  5
15F2C
  8
0
 10
3472.8862109526230597
 20
149.0518468475995064
 30
0.0
 40
0.0049642855567008
 50
264.374273172951689
 51
275.8958736967964001
  0
LINE
  5
15F2D
  8
0
 10
3472.8856475881530059
 20
149.0585669962842132
 30
0.0
 11
3472.885724304795076
 21
149.0469064725658939
 31
0.0
  0
ARC
  5
15F2E
  8
0
 10
3472.943917902566227
 20
149.0465066138606005
 30
0.0
 40
0.0054073013013789
 50
180.3221828381587102
 51
264.4308465071928254
  0
LINE
  5
15F2F
  8
0
 10
3472.938510686753034
 20
149.0464762079473928
 30
0.0
 11
3472.9158629068538175
 21
149.0439287493474012
 31
0.0
  0
LINE
  5
15F30
  8
0
 10
3472.9158629068538175
 20
149.0439287493474012
 30
0.0
 11
3472.8910670582531566
 21
149.0463377645473884
 31
0.0
  0
LINE
  5
15F31
  8
0
 10
3472.8910670182322065
 20
149.0473579371395942
 30
0.0
 11
3472.8910670582531566
 21
149.0463377645473884
 31
0.0
  0
ARC
  5
15F32
  8
0
 10
3472.885693399648062
 20
149.0463375537347872
 30
0.0
 40
0.0053736586103763
 50
275.2447228990574786
 51
0.0022477555944735
  0
ARC
  5
15F33
  8
0
 10
3472.8867584683271161
 20
149.0464924560770044
 30
0.0
 40
0.0055358876628597
 50
181.8401674124087037
 51
264.0498962389020221
  0
LINE
  5
15F34
  8
0
 10
3472.8812254355539153
 20
149.0463146906473924
 30
0.0
 11
3472.8811379883509289
 21
149.0472541153779957
 31
0.0
  0
LINE
  5
15F35
  8
0
 10
3472.8861846052532201
 20
149.0409863927474134
 30
0.0
 11
3472.8862000272538353
 21
149.0408872549473926
 31
0.0
  0
LINE
  5
15F36
  8
0
 10
3472.8862000272538353
 20
149.0408872549473926
 30
0.0
 11
3472.9113533071599704
 21
149.0384432172685933
 31
0.0
  0
ARC
  5
15F37
  8
0
 10
3472.9074900238338159
 20
148.9804192942380894
 30
0.0
 40
0.0581523911968134
 50
82.7109863478534777
 51
86.1908191805035955
  0
ARC
  5
15F38
  8
0
 10
3472.9154325294180126
 20
149.043080328028708
 30
0.0
 40
0.005010480189749
 50
263.5316186961787821
 51
275.8086615136369915
  0
ARC
  5
15F39
  8
0
 10
3472.9164340515430922
 20
149.043273154592697
 30
0.0
 40
0.0052011339303304
 50
264.5451360967878145
 51
277.2335363809805244
  0
LINE
  5
15F3A
  8
0
 10
3472.9170889466881817
 20
149.0381134155963991
 30
0.0
 11
3472.9433785581131815
 21
149.0410254239473886
 31
0.0
  0
ARC
  5
15F3B
  8
0
 10
3472.8251052065061231
 20
149.0641030996112875
 30
0.0
 40
0.0055330764038425
 50
276.7335035583108152
 51
358.5134671987386241
  0
ARC
  5
15F3C
  8
0
 10
3472.8263550191340983
 20
149.0641791736389052
 30
0.0
 40
0.0056033144722202
 50
172.944018124547199
 51
263.8422004527001263
  0
LINE
  5
15F3D
  8
0
 10
3472.8257539678538706
 20
149.0586081889474031
 30
0.0
 11
3472.8257693904529333
 21
149.0585087774474005
 31
0.0
  0
ARC
  5
15F3E
  8
0
 10
3472.8550068164231561
 20
149.0605461270965861
 30
0.0
 40
0.0048547979409532
 50
266.3947135408390068
 51
275.9371696344248903
  0
ARC
  5
15F3F
  8
0
 10
3472.8799798670970631
 20
149.3378658737811122
 30
0.0
 40
0.283294979819703
 50
264.1128931222906999
 51
264.8807047331084732
  0
LINE
  5
15F40
  8
0
 10
3472.8509226696510268
 20
149.0560650134779053
 30
0.0
 11
3472.8257693904529333
 21
149.0585087774474005
 31
0.0
  0
LINE
  5
15F41
  8
0
 10
3472.8257693904529333
 20
149.0585087774474005
 30
0.0
 11
3472.8018020033528046
 21
149.0560303959474027
 31
0.0
  0
ARC
  5
15F42
  8
0
 10
3469.5399275133008814
 20
180.6002493044240111
 30
0.0
 40
31.7124198341083101
 50
275.8958736967964001
 51
275.9037678662793951
  0
ARC
  5
15F43
  8
0
 10
3472.7969458977217982
 20
149.0605193022994115
 30
0.0
 40
0.0049642855567008
 50
264.374273172951689
 51
275.8958736967964001
  0
LINE
  5
15F44
  8
0
 10
3472.7963825331539738
 20
149.0672391641566037
 30
0.0
 11
3472.7964592498951788
 21
149.0555789272659126
 31
0.0
  0
ARC
  5
15F45
  8
0
 10
3472.8565352052528397
 20
149.0552959601654095
 30
0.0
 40
0.00552771455868
 50
181.7662108378995072
 51
264.1238528134174999
  0
LINE
  5
15F46
  8
0
 10
3472.8510101168531037
 20
149.0551255887473872
 30
0.0
 11
3472.8509226696510268
 21
149.0560650134779053
 31
0.0
  0
LINE
  5
15F47
  8
0
 10
3472.8510101168531037
 20
149.0551255887473872
 30
0.0
 11
3472.8265978519539203
 21
149.0526012040473915
 31
0.0
  0
LINE
  5
15F48
  8
0
 10
3472.8265978519539203
 20
149.0526012040473915
 30
0.0
 11
3472.8018020033528046
 21
149.0550102192474071
 31
0.0
  0
LINE
  5
15F49
  8
0
 10
3472.8018019633318545
 20
149.056030391839613
 30
0.0
 11
3472.8018020033528046
 21
149.0550102192474071
 31
0.0
  0
ARC
  5
15F4A
  8
0
 10
3472.7964283447468006
 20
149.055010008434806
 30
0.0
 40
0.0053736586103763
 50
275.2447228990574786
 51
0.0022477555944735
  0
ARC
  5
15F4B
  8
0
 10
3472.7974934134272189
 20
149.0551649107769947
 30
0.0
 40
0.0055358876628597
 50
181.8401674124087037
 51
264.0498962389020221
  0
LINE
  5
15F4C
  8
0
 10
3472.7919603806540181
 20
149.0549871453474111
 30
0.0
 11
3472.7918729334510317
 21
149.0559265700779008
 31
0.0
  0
LINE
  5
15F4D
  8
0
 10
3472.7969195503528681
 20
149.0496588474474038
 30
0.0
 11
3472.7969349723539381
 21
149.0495597096474114
 31
0.0
  0
LINE
  5
15F4E
  8
0
 10
3472.7969349723539381
 20
149.0495597096474114
 30
0.0
 11
3472.8220882522600732
 21
149.0471156719686121
 31
0.0
  0
ARC
  5
15F4F
  8
0
 10
3472.8182249689339187
 20
148.9890917489381081
 30
0.0
 40
0.0581523911968134
 50
82.7109863478534777
 51
86.1908191805035955
  0
ARC
  5
15F50
  8
0
 10
3472.8261674745181153
 20
149.0517527827286983
 30
0.0
 40
0.005010480189749
 50
263.5316186961787821
 51
275.8086615136369915
  0
ARC
  5
15F51
  8
0
 10
3472.827168996643195
 20
149.0519456092926873
 30
0.0
 40
0.0052011339303304
 50
264.5451360967878145
 51
277.2335363809805244
  0
LINE
  5
15F52
  8
0
 10
3472.8278238917878298
 20
149.0467858702963895
 30
0.0
 11
3472.8559845946838323
 21
149.0496978675105879
 31
0.0
  0
LINE
  5
15F53
  8
0
 10
3472.8559845946838323
 20
149.0496978675105879
 30
0.0
 11
3472.8559692865528632
 21
149.0497972908474082
 31
0.0
  0
ARC
  5
15F54
  8
0
 10
3472.8264665919168692
 20
149.0463882459440867
 30
0.0
 40
0.005580455254252
 50
276.877857849168322
 51
358.0335083457001133
  0
ARC
  5
15F55
  8
0
 10
3472.8277837179748531
 20
149.046535954099113
 30
0.0
 40
0.0057248932609015
 50
174.1881157942819129
 51
263.4922185371784735
  0
LINE
  5
15F56
  8
0
 10
3472.8271348691541789
 20
149.040847949347409
 30
0.0
 11
3472.8271502917541511
 21
149.0407485378474064
 31
0.0
  0
ARC
  5
15F57
  8
0
 10
3472.8563877177230097
 20
149.0427858874965921
 30
0.0
 40
0.0048547979409532
 50
266.3947135408390068
 51
275.9371696344248903
  0
ARC
  5
15F58
  8
0
 10
3472.8813607683969167
 20
149.3201056341812034
 30
0.0
 40
0.283294979819703
 50
264.1128931222906999
 51
264.8807047331084732
  0
LINE
  5
15F59
  8
0
 10
3472.8523035709508804
 20
149.0383047738779112
 30
0.0
 11
3472.8271502917541511
 21
149.0407485378474064
 31
0.0
  0
LINE
  5
15F5A
  8
0
 10
3472.8271502917541511
 20
149.0407485378474064
 30
0.0
 11
3472.8031829046531129
 21
149.0382701563474086
 31
0.0
  0
ARC
  5
15F5B
  8
0
 10
3469.5413084146011897
 20
180.5824890648239887
 30
0.0
 40
31.7124198341083101
 50
275.8958736967964001
 51
275.9037678662793951
  0
ARC
  5
15F5C
  8
0
 10
3472.7983267990230161
 20
149.042759062699389
 30
0.0
 40
0.0049642855567008
 50
264.374273172951689
 51
275.8958736967964001
  0
LINE
  5
15F5D
  8
0
 10
3472.7977634344529179
 20
149.0439088343850926
 30
0.0
 11
3472.7978401511959419
 21
149.0378186876658901
 31
0.0
  0
ARC
  5
15F5E
  8
0
 10
3472.857916106553148
 20
149.0375357205653017
 30
0.0
 40
0.00552771455868
 50
181.7662108378995072
 51
264.1238528134174999
  0
LINE
  5
15F5F
  8
0
 10
3472.8523910181538668
 20
149.0373653491473931
 30
0.0
 11
3472.8523035709508804
 21
149.0383047738779112
 31
0.0
  0
LINE
  5
15F60
  8
0
 10
3472.8523910181538668
 20
149.0373653491473931
 30
0.0
 11
3472.8279787532537739
 21
149.0348409644473975
 31
0.0
  0
LINE
  5
15F61
  8
0
 10
3472.8279787532537739
 20
149.0348409644473975
 30
0.0
 11
3472.8031829046531129
 21
149.0372499796474131
 31
0.0
  0
LINE
  5
15F62
  8
0
 10
3472.8031828646321628
 20
149.0382701522395905
 30
0.0
 11
3472.8031829046531129
 21
149.0372499796474131
 31
0.0
  0
ARC
  5
15F63
  8
0
 10
3472.7978092460480184
 20
149.0372497688348972
 30
0.0
 40
0.0053736586103763
 50
275.2447228990574786
 51
0.0022477555944735
  0
ARC
  5
15F64
  8
0
 10
3472.798874314726163
 20
149.0374046711770006
 30
0.0
 40
0.0055358876628597
 50
181.8401674124087037
 51
264.0498962389020221
  0
LINE
  5
15F65
  8
0
 10
3472.7933412819529622
 20
149.0372269057473886
 30
0.0
 11
3472.7932538347508853
 21
149.0381663304779067
 31
0.0
  0
LINE
  5
15F66
  8
0
 10
3472.7983004516531764
 20
149.0318986078474097
 30
0.0
 11
3472.7983158736528821
 21
149.0317994700473889
 31
0.0
  0
LINE
  5
15F67
  8
0
 10
3472.7983158736528821
 20
149.0317994700473889
 30
0.0
 11
3472.8234691535599268
 21
149.0293554323685896
 31
0.0
  0
ARC
  5
15F68
  8
0
 10
3472.819605870234227
 20
148.9713315093381141
 30
0.0
 40
0.0581523911968134
 50
82.7109863478534777
 51
86.1908191805035955
  0
ARC
  5
15F69
  8
0
 10
3472.8275483758179689
 20
149.0339925431287043
 30
0.0
 40
0.005010480189749
 50
263.5316186961787821
 51
275.8086615136369915
  0
ARC
  5
15F6A
  8
0
 10
3472.8285498979421391
 20
149.0341853696926933
 30
0.0
 40
0.0052011339303304
 50
264.5451360967878145
 51
277.2335363809805244
  0
LINE
  5
15F6B
  8
0
 10
3472.8292047930881381
 20
149.0290256306963954
 30
0.0
 11
3472.8573653813527926
 21
149.0319376390474133
 31
0.0
  0
LINE
  5
15F6C
  8
0
 10
3472.8573654959850501
 20
149.0319376279105938
 30
0.0
 11
3472.857350187854081
 21
149.0320370512474142
 31
0.0
  0
ARC
  5
15F6D
  8
0
 10
3472.8278670091058302
 20
149.0285826205112869
 30
0.0
 40
0.0055330764038415
 50
276.7335035582848946
 51
358.5134671987663069
  0
ARC
  5
15F6E
  8
0
 10
3472.8291005630558175
 20
149.0286188893221038
 30
0.0
 40
0.0055620076203408
 50
182.1056358162404081
 51
263.9647350492206783
  0
LINE
  5
15F6F
  8
0
 10
3472.8285157704540325
 20
149.0230877098474025
 30
0.0
 11
3472.8285311930540047
 21
149.0229882983473999
 31
0.0
  0
ARC
  5
15F70
  8
0
 10
3472.8577686190228633
 20
149.025025647996614
 30
0.0
 40
0.0048547979409532
 50
266.3947135408390068
 51
275.9371696344248903
  0
ARC
  5
15F71
  8
0
 10
3472.882741669697225
 20
149.3023453946811117
 30
0.0
 40
0.283294979819703
 50
264.1128931222906999
 51
264.8807047331084732
  0
LINE
  5
15F72
  8
0
 10
3472.8536844722511887
 20
149.0205445343779047
 30
0.0
 11
3472.8285311930540047
 21
149.0229882983473999
 31
0.0
  0
LINE
  5
15F73
  8
0
 10
3472.8285311930540047
 20
149.0229882983473999
 30
0.0
 11
3472.8045638059529665
 21
149.0205099168474021
 31
0.0
  0
ARC
  5
15F74
  8
0
 10
3469.5426893159010433
 20
180.5647288253240106
 30
0.0
 40
31.7124198341083101
 50
275.8958736967964001
 51
275.9037678662793951
  0
ARC
  5
15F75
  8
0
 10
3472.7997077003219601
 20
149.0249988231994109
 30
0.0
 40
0.0049642855567008
 50
264.374273172951689
 51
275.8958736967964001
  0
LINE
  5
15F76
  8
0
 10
3472.7991443357532262
 20
149.031718685163213
 30
0.0
 11
3472.7992210524957954
 21
149.0200584481659121
 31
0.0
  0
ARC
  5
15F77
  8
0
 10
3472.8592970078530016
 20
149.0197754810654089
 30
0.0
 40
0.00552771455868
 50
181.7662108378995072
 51
264.1238528134174999
  0
LINE
  5
15F78
  8
0
 10
3472.8537719194528108
 20
149.0196051096473866
 30
0.0
 11
3472.8536844722511887
 21
149.0205445343779047
 31
0.0
  0
LINE
  5
15F79
  8
0
 10
3472.8537719194528108
 20
149.0196051096473866
 30
0.0
 11
3472.8293596545540822
 21
149.017080724947391
 31
0.0
  0
LINE
  5
15F7A
  8
0
 10
3472.8293596545540822
 20
149.017080724947391
 30
0.0
 11
3472.8045638059529665
 21
149.0194897401474066
 31
0.0
  0
LINE
  5
15F7B
  8
0
 10
3472.8045637659320164
 20
149.0205099127396124
 30
0.0
 11
3472.8045638059529665
 21
149.0194897401474066
 31
0.0
  0
ARC
  5
15F7C
  8
0
 10
3472.7991901473469625
 20
149.0194895293348054
 30
0.0
 40
0.0053736586103763
 50
275.2447228990574786
 51
0.0022477555944735
  0
ARC
  5
15F7D
  8
0
 10
3472.8002552160260166
 20
149.0196444316769941
 30
0.0
 40
0.0055358876628597
 50
181.8401674124087037
 51
264.0498962389020221
  0
LINE
  5
15F7E
  8
0
 10
3472.79472218325418
 20
149.0194666662474106
 30
0.0
 11
3472.7946347360511936
 21
149.0204060909780139
 31
0.0
  0
LINE
  5
15F7F
  8
0
 10
3472.7996813529539395
 20
149.0141383683474032
 30
0.0
 11
3472.7996967749531905
 21
149.0140392305474109
 31
0.0
  0
LINE
  5
15F80
  8
0
 10
3472.7996967749531905
 20
149.0140392305474109
 30
0.0
 11
3472.8248500548588709
 21
149.0115951928686115
 31
0.0
  0
ARC
  5
15F81
  8
0
 10
3472.8209867715340806
 20
148.9535712698381076
 30
0.0
 40
0.0581523911968134
 50
82.7109863478534777
 51
86.1908191805035955
  0
ARC
  5
15F82
  8
0
 10
3472.8289292771178225
 20
149.0162323036286978
 30
0.0
 40
0.005010480189749
 50
263.5316186961787821
 51
275.8086615136369915
  0
ARC
  5
15F83
  8
0
 10
3472.8299307992419926
 20
149.0164251301926868
 30
0.0
 40
0.0052011339303304
 50
264.5451360967878145
 51
277.2335363809805244
  0
LINE
  5
15F84
  8
0
 10
3472.8305856943889012
 20
149.0112653911963889
 30
0.0
 11
3472.8587462826531009
 21
149.0141773995474068
 31
0.0
  0
LINE
  5
15F85
  8
0
 10
3472.8587462826531009
 20
149.0141773995474068
 30
0.0
 11
3472.8587310891539346
 21
149.0142768117474077
 31
0.0
  0
ARC
  5
15F86
  8
0
 10
3472.7370899641341566
 20
149.0728516283388956
 30
0.0
 40
0.0056033144722202
 50
172.0516959974183919
 51
263.8422004527001263
  0
LINE
  5
15F87
  8
0
 10
3472.7364889128539289
 20
149.0672806436473934
 30
0.0
 11
3472.7365043354539011
 21
149.0671812321473908
 31
0.0
  0
ARC
  5
15F88
  8
0
 10
3472.7657417614232145
 20
149.0692185817966049
 30
0.0
 40
0.0048547979409532
 50
266.3947135408390068
 51
275.9371696344248903
  0
ARC
  5
15F89
  8
0
 10
3472.7907148120971215
 20
149.3465383284811026
 30
0.0
 40
0.283294979819703
 50
264.1128931222906999
 51
264.8807047331084732
  0
LINE
  5
15F8A
  8
0
 10
3472.7616576146510852
 20
149.0647374681780093
 30
0.0
 11
3472.7365043354539011
 21
149.0671812321473908
 31
0.0
  0
LINE
  5
15F8B
  8
0
 10
3472.7365043354539011
 20
149.0671812321473908
 30
0.0
 11
3472.712536948352863
 21
149.064702850647393
 31
0.0
  0
ARC
  5
15F8C
  8
0
 10
3469.4506624583018493
 20
180.6089217591240015
 30
0.0
 40
31.7124198341083101
 50
275.8958736967964001
 51
275.9037678662793951
  0
ARC
  5
15F8D
  8
0
 10
3472.7076808730807898
 20
149.0691911807132897
 30
0.0
 40
0.0049637092006978
 50
264.3732650250698271
 51
275.8962084335714735
  0
LINE
  5
15F8E
  8
0
 10
3472.7071175380910972
 20
149.0717069036342082
 30
0.0
 11
3472.7071941948352105
 21
149.0642513878223099
 31
0.0
  0
ARC
  5
15F8F
  8
0
 10
3472.767270150252898
 20
149.0639684148652861
 30
0.0
 40
0.00552771455868
 50
181.7662108378995072
 51
264.1238528134174999
  0
LINE
  5
15F90
  8
0
 10
3472.761745061853162
 20
149.0637980434474059
 30
0.0
 11
3472.7616576146510852
 21
149.0647374681780093
 31
0.0
  0
LINE
  5
15F91
  8
0
 10
3472.761745061853162
 20
149.0637980434474059
 30
0.0
 11
3472.7373327969539787
 21
149.0612736587474103
 31
0.0
  0
LINE
  5
15F92
  8
0
 10
3472.7373327969539787
 20
149.0612736587474103
 30
0.0
 11
3472.712536948352863
 21
149.0636826739473975
 31
0.0
  0
LINE
  5
15F93
  8
0
 10
3472.7125369083310034
 20
149.0647028465396033
 30
0.0
 11
3472.712536948352863
 21
149.0636826739473975
 31
0.0
  0
ARC
  5
15F94
  8
0
 10
3472.7071632897468589
 20
149.0636824631347963
 30
0.0
 40
0.0053736586103763
 50
275.2447228990574786
 51
0.0022477555944735
  0
ARC
  5
15F95
  8
0
 10
3472.7082283584268225
 20
149.0638373654770135
 30
0.0
 40
0.0055358876628597
 50
181.8401674124087037
 51
264.0498962389020221
  0
LINE
  5
15F96
  8
0
 10
3472.7026953256531669
 20
149.0636596000474015
 30
0.0
 11
3472.7026078784510901
 21
149.0645990247778911
 31
0.0
  0
LINE
  5
15F97
  8
0
 10
3472.707654495353836
 20
149.0583313021473941
 30
0.0
 11
3472.7076699173539964
 21
149.0582321643474017
 31
0.0
  0
LINE
  5
15F98
  8
0
 10
3472.7076699173539964
 20
149.0582321643474017
 30
0.0
 11
3472.7328231972592221
 21
149.0557881266686024
 31
0.0
  0
ARC
  5
15F99
  8
0
 10
3472.7289599139330676
 20
148.9977642036380985
 30
0.0
 40
0.0581523911968134
 50
82.7109863478534777
 51
86.1908191805035955
  0
ARC
  5
15F9A
  8
0
 10
3472.7369024195181737
 20
149.0604252374286887
 30
0.0
 40
0.005010480189749
 50
263.5316186961787821
 51
275.8086615136369915
  0
ARC
  5
15F9B
  8
0
 10
3472.7379039416427986
 20
149.0606180639927061
 30
0.0
 40
0.0052011339303304
 50
264.5451360967878145
 51
277.2335363809805244
  0
LINE
  5
15F9C
  8
0
 10
3472.7385588367878881
 20
149.0554583249964082
 30
0.0
 11
3472.7667194250539069
 21
149.0583703333473977
 31
0.0
  0
LINE
  5
15F9D
  8
0
 10
3472.7667195396848001
 20
149.0583703222106067
 30
0.0
 11
3472.7667042315538311
 21
149.0584697455473986
 31
0.0
  0
ARC
  5
15F9E
  8
0
 10
3472.7372210527341849
 20
149.0550153148770107
 30
0.0
 40
0.0055330765767267
 50
276.7335040897488057
 51
358.5134665648978967
  0
ARC
  5
15F9F
  8
0
 10
3472.7384708654340102
 20
149.0550913887389015
 30
0.0
 40
0.0056033144722202
 50
172.9175730062833054
 51
263.8422004527001263
  0
LINE
  5
15FA0
  8
0
 10
3472.737869814152873
 20
149.0495204040473993
 30
0.0
 11
3472.7378852367542095
 21
149.0494209925473967
 31
0.0
  0
ARC
  5
15FA1
  8
0
 10
3472.7671226627230681
 20
149.0514583421966108
 30
0.0
 40
0.0048547979409532
 50
266.3947135408390068
 51
275.9371696344248903
  0
ARC
  5
15FA2
  8
0
 10
3472.792095713396975
 20
149.3287780888811085
 30
0.0
 40
0.283294979819703
 50
264.1128931222906999
 51
264.8807047331084732
  0
LINE
  5
15FA3
  8
0
 10
3472.7630385159509387
 20
149.0469772285779868
 30
0.0
 11
3472.7378852367542095
 21
149.0494209925473967
 31
0.0
  0
LINE
  5
15FA4
  8
0
 10
3472.7378852367542095
 20
149.0494209925473967
 30
0.0
 11
3472.7139178496540808
 21
149.0469426110473989
 31
0.0
  0
ARC
  5
15FA5
  8
0
 10
3469.4520433596007933
 20
180.5911615195240074
 30
0.0
 40
31.7124198341083101
 50
275.8958736967964001
 51
275.9037678662793951
  0
ARC
  5
15FA6
  8
0
 10
3472.7090617440230744
 20
149.0514315173994078
 30
0.0
 40
0.0049642855567008
 50
264.374273172951689
 51
275.8958736967964001
  0
LINE
  5
15FA7
  8
0
 10
3472.7084983795530206
 20
149.0581516661841874
 30
0.0
 11
3472.7085750961950907
 21
149.0464911423659089
 31
0.0
  0
ARC
  5
15FA8
  8
0
 10
3472.7686510515518421
 20
149.0462081752652921
 30
0.0
 40
0.00552771455868
 50
181.7662108378995072
 51
264.1238528134174999
  0
LINE
  5
15FA9
  8
0
 10
3472.7631259631539251
 20
149.0460378038474119
 30
0.0
 11
3472.7630385159509387
 21
149.0469772285779868
 31
0.0
  0
LINE
  5
15FAA
  8
0
 10
3472.7631259631539251
 20
149.0460378038474119
 30
0.0
 11
3472.7387136982538323
 21
149.0435134191473878
 31
0.0
  0
LINE
  5
15FAB
  8
0
 10
3472.7387136982538323
 20
149.0435134191473878
 30
0.0
 11
3472.7139178496540808
 21
149.0459224343474034
 31
0.0
  0
LINE
  5
15FAC
  8
0
 10
3472.7139178096322212
 20
149.0469426069396093
 30
0.0
 11
3472.7139178496540808
 21
149.0459224343474034
 31
0.0
  0
ARC
  5
15FAD
  8
0
 10
3472.7085441910480768
 20
149.0459222235348022
 30
0.0
 40
0.0053736586103763
 50
275.2447228990574786
 51
0.0022477555944735
  0
ARC
  5
15FAE
  8
0
 10
3472.7096092597271308
 20
149.046077125876991
 30
0.0
 40
0.0055358876628597
 50
181.8401674124087037
 51
264.0498962389020221
  0
LINE
  5
15FAF
  8
0
 10
3472.70407622695393
 20
149.0458993604474074
 30
0.0
 11
3472.7039887797509436
 21
149.0468387851780108
 31
0.0
  0
LINE
  5
15FB0
  8
0
 10
3472.70903539665278
 20
149.0405710625474001
 30
0.0
 11
3472.70905081865385
 21
149.0404719247474077
 31
0.0
  0
LINE
  5
15FB1
  8
0
 10
3472.70905081865385
 20
149.0404719247474077
 30
0.0
 11
3472.7342040985599851
 21
149.0380278870686084
 31
0.0
  0
ARC
  5
15FB2
  8
0
 10
3472.7303408152338307
 20
148.9800039640381044
 30
0.0
 40
0.0581523911968134
 50
82.7109863478534777
 51
86.1908191805035955
  0
ARC
  5
15FB3
  8
0
 10
3472.7382833208180273
 20
149.0426649978286946
 30
0.0
 40
0.005010480189749
 50
263.5316186961787821
 51
275.8086615136369915
  0
ARC
  5
15FB4
  8
0
 10
3472.7392848429431069
 20
149.042857824392712
 30
0.0
 40
0.0052011339303304
 50
264.5451360967878145
 51
277.2335363809805244
  0
LINE
  5
15FB5
  8
0
 10
3472.7399397380881965
 20
149.0376980853964142
 30
0.0
 11
3472.7681004409851084
 21
149.0406100826106126
 31
0.0
  0
LINE
  5
15FB6
  8
0
 10
3472.7681004409851084
 20
149.0406100826106126
 30
0.0
 11
3472.7680851328541394
 21
149.0407095059474045
 31
0.0
  0
LINE
  5
15FB7
  8
0
 10
3472.91854701295415
 20
149.0730447769421119
 30
0.0
 11
3472.9453110433942129
 21
149.0706329043877076
 31
0.0
  0
ARC
  5
15FB8
  8
0
 10
3472.8824602981321732
 20
149.0872610051835068
 30
0.0
 40
0.0048600832893731
 50
266.5407773202825865
 51
275.9318710718554257
  0
ARC
  5
15FB9
  8
0
 10
3472.980551041327999
 20
150.1246082636355084
 30
0.0
 40
1.0468319327215401
 50
264.3987923071039177
 51
264.6072346420293115
  0
LINE
  5
15FBA
  8
0
 10
3472.8783761857539503
 20
149.0827745944473861
 30
0.0
 11
3472.8532229065531283
 21
149.0852183584474062
 31
0.0
  0
LINE
  5
15FBB
  8
0
 10
3472.8532229065531283
 20
149.0852183584474062
 30
0.0
 11
3472.8532074839540655
 21
149.0853177699474088
 31
0.0
  0
ARC
  5
15FBC
  8
0
 10
3472.8525724209530381
 20
149.0908037016583023
 30
0.0
 40
0.0055225674963814
 50
276.6032881116161093
 51
323.9938111226551882
  0
ARC
  5
15FBD
  8
0
 10
3472.8537922587270259
 20
149.0908599835669008
 30
0.0
 40
0.0055729788568083
 50
220.8216067360309012
 51
263.9768446995649924
  0
LINE
  5
15FBE
  8
0
 10
3472.8834382246532186
 20
149.0764077340473932
 30
0.0
 11
3472.8551251322760436
 21
149.0734800049986006
 31
0.0
  0
ARC
  5
15FBF
  8
0
 10
3472.8546147505799127
 20
149.0784157363652014
 30
0.0
 40
0.0049620493345398
 50
264.3715198897912728
 51
275.903715326101576
  0
ARC
  5
15FC0
  8
0
 10
3472.855935880565994
 20
149.1277537302194105
 30
0.0
 40
0.0543062181476017
 50
263.2382063573368214
 51
268.0923324519006883
  0
LINE
  5
15FC1
  8
0
 10
3472.9131778210448829
 20
149.073616053614586
 30
0.0
 11
3472.9131011042532009
 21
149.0852763127649894
 31
0.0
  0
LINE
  5
15FC2
  8
0
 10
3472.9086412864749036
 20
149.0730203768160891
 30
0.0
 11
3472.8842699195811292
 21
149.0705002212322086
 31
0.0
  0
LINE
  5
15FC3
  8
0
 10
3472.8842699195811292
 20
149.0705002212322086
 30
0.0
 11
3472.8594708382538556
 21
149.0729089021473897
 31
0.0
  0
LINE
  5
15FC4
  8
0
 10
3472.9425492555537858
 20
149.0351178512474064
 30
0.0
 11
3472.9212823770531031
 21
149.0375268664473936
 31
0.0
  0
LINE
  5
15FC5
  8
0
 10
3472.9212823770531031
 20
149.0385470431781982
 30
0.0
 11
3472.9212823770531031
 21
149.0375268664473936
 31
0.0
  0
ARC
  5
15FC6
  8
0
 10
3472.9159084873881511
 20
149.0375268664473936
 30
0.0
 40
0.0053738896656093
 50
275.2469706546626753
 51
0.0000000000032569
  0
ARC
  5
15FC7
  8
0
 10
3472.9169737871638972
 20
149.0376815580121956
 30
0.0
 40
0.0055358877017822
 50
181.8401677638989042
 51
264.0498958874010214
  0
LINE
  5
15FC8
  8
0
 10
3472.9114407543538618
 20
149.0375037925473976
 30
0.0
 11
3472.9113533071317761
 21
149.0384432172712934
 31
0.0
  0
LINE
  5
15FC9
  8
0
 10
3472.9424725388680599
 20
149.0292846764006924
 30
0.0
 11
3472.9164151175527877
 21
149.0320760824473894
 31
0.0
  0
LINE
  5
15FCA
  8
0
 10
3472.9164151175527877
 20
149.0320760824473894
 30
0.0
 11
3472.9163999240531666
 21
149.0321754946473902
 31
0.0
  0
LINE
  5
15FCB
  8
0
 10
3472.9164144519531874
 20
149.032076448247409
 30
0.0
 11
3472.887105206194974
 21
149.0291462331194907
 31
0.0
  0
LINE
  5
15FCC
  8
0
 10
3472.887105206194974
 20
149.0291462331194907
 30
0.0
 11
3472.8870284894528595
 21
149.0408064699535089
 31
0.0
  0
LINE
  5
15FCD
  8
0
 10
3472.9114407543538618
 20
149.0375037925473976
 30
0.0
 11
3472.8870668016497802
 21
149.0349833695742063
 31
0.0
  0
LINE
  5
15FCE
  8
0
 10
3472.8870668016497802
 20
149.0349833695742063
 30
0.0
 11
3472.862232640853108
 21
149.0373884230473891
 31
0.0
  0
LINE
  5
15FCF
  8
0
 10
3472.862232640853108
 20
149.0373884230473891
 30
0.0
 11
3472.862232640853108
 21
149.0384085997781938
 31
0.0
  0
ARC
  5
15FD0
  8
0
 10
3472.8566962562290428
 20
149.037536679238201
 30
0.0
 40
0.0055383693093502
 50
276.7809002934396858
 51
358.4660703612203747
  0
LINE
  5
15FD1
  8
0
 10
3472.8848188974538971
 20
149.0586472201474066
 30
0.0
 11
3472.8555089861388296
 21
149.0557173706006893
 31
0.0
  0
LINE
  5
15FD2
  8
0
 10
3472.8555089861388296
 20
149.0557173706006893
 30
0.0
 11
3472.8554322693539689
 21
149.0673776075566082
 31
0.0
  0
LINE
  5
15FD3
  8
0
 10
3472.8546038071531257
 20
149.0674583925473939
 30
0.0
 11
3472.8836055690007925
 21
149.0646465129709952
 31
0.0
  0
ARC
  5
15FD4
  8
0
 10
3472.8838421669088348
 20
149.0694899861470901
 30
0.0
 40
0.0048492484961564
 50
267.2033922759187021
 51
275.9329042864595181
  0
LINE
  5
15FD5
  8
0
 10
3472.8798445342531522
 20
149.0640749301473988
 30
0.0
 11
3472.855470581571808
 21
149.0615545071763961
 31
0.0
  0
LINE
  5
15FD6
  8
0
 10
3472.855470581571808
 20
149.0615545071763961
 30
0.0
 11
3472.8306364207528532
 21
149.0639595606473904
 31
0.0
  0
LINE
  5
15FD7
  8
0
 10
3472.8306364207528532
 20
149.0649797374628065
 30
0.0
 11
3472.8306364207528532
 21
149.0639595606473904
 31
0.0
  0
LINE
  5
15FD8
  8
0
 10
3472.8784636329542082
 20
149.0818351697475066
 30
0.0
 11
3472.8540513680541153
 21
149.0793107850473973
 31
0.0
  0
LINE
  5
15FD9
  8
0
 10
3472.8540513680541153
 20
149.0793107850473973
 30
0.0
 11
3472.8292555194529996
 21
149.0817198002474129
 31
0.0
  0
LINE
  5
15FDA
  8
0
 10
3472.8532229065531283
 20
149.0852183584474062
 30
0.0
 11
3472.824909813476097
 21
149.0822909030987091
 31
0.0
  0
ARC
  5
15FDB
  8
0
 10
3472.8243994307331377
 20
149.0872271061768117
 30
0.0
 40
0.0049625186521038
 50
264.372067644745016
 51
275.9031671674551944
  0
ARC
  5
15FDC
  8
0
 10
3472.8257205607901597
 20
149.136564616607302
 30
0.0
 40
0.0543062064011362
 50
263.238205916440279
 51
268.0923332140180264
  0
LINE
  5
15FDD
  8
0
 10
3472.8193264495521362
 20
149.0826361510704885
 30
0.0
 11
3472.8028266190731301
 21
149.0842391751619118
 31
0.0
  0
LINE
  5
15FDE
  8
0
 10
3472.8540513680541153
 20
149.0851378471537032
 30
0.0
 11
3472.8541280847539383
 21
149.0734776102474086
 31
0.0
  0
LINE
  5
15FDF
  8
0
 10
3472.8594708382538556
 20
149.0739290789474012
 30
0.0
 11
3472.8594708382538556
 21
149.0729089021473897
 31
0.0
  0
ARC
  5
15FE0
  8
0
 10
3472.8540969485879941
 20
149.0729089021473897
 30
0.0
 40
0.0053738896656075
 50
275.2469706546364137
 51
359.9999999999951115
  0
ARC
  5
15FE1
  8
0
 10
3472.8551761597168479
 20
149.0730914938739033
 30
0.0
 40
0.0055650903974837
 50
182.1331509636216026
 51
263.9372189303147138
  0
LINE
  5
15FE2
  8
0
 10
3472.8496149257898651
 20
149.0728843505943075
 30
0.0
 11
3472.8495417683529922
 21
149.0738252530474028
 31
0.0
  0
LINE
  5
15FE3
  8
0
 10
3472.8495417683598134
 20
149.0738252529685894
 30
0.0
 11
3472.8243882599540484
 21
149.0762690162474087
 31
0.0
  0
LINE
  5
15FE4
  8
0
 10
3472.8243882599540484
 20
149.0762690162474087
 30
0.0
 11
3472.7950783485530337
 21
149.0733391668474042
 31
0.0
  0
LINE
  5
15FE5
  8
0
 10
3472.7950783485530337
 20
149.0733391668474042
 30
0.0
 11
3472.7653233301821274
 21
149.076229985039987
 31
0.0
  0
LINE
  5
15FE6
  8
0
 10
3472.7653233301821274
 20
149.076229985039987
 30
0.0
 11
3472.7360286124389859
 21
149.0732007234007028
 31
0.0
  0
LINE
  5
15FE7
  8
0
 10
3472.7360286124389859
 20
149.0732007234007028
 30
0.0
 11
3472.7215588198600926
 21
149.0745732779361106
 31
0.0
  0
LINE
  5
15FE8
  8
0
 10
3472.8292555194529996
 20
149.0827399769474084
 30
0.0
 11
3472.8292555194529996
 21
149.0817198002474129
 31
0.0
  0
ARC
  5
15FE9
  8
0
 10
3472.8238816297880476
 20
149.0817198002474129
 30
0.0
 40
0.0053738896656137
 50
275.2469706547149144
 51
359.999999999946283
  0
ARC
  5
15FEA
  8
0
 10
3472.8249595703919113
 20
149.0819012057330895
 30
0.0
 40
0.0055637767176621
 50
182.1214305285006958
 51
263.9489393928272989
  0
LINE
  5
15FEB
  8
0
 10
3472.8193996069880995
 20
149.0816952486941034
 30
0.0
 11
3472.8193264495539552
 21
149.0826361510474101
 31
0.0
  0
LINE
  5
15FEC
  8
0
 10
3472.8243884890539448
 20
149.076269016947407
 30
0.0
 11
3472.8243730701869936
 21
149.07636842883349
 31
0.0
  0
LINE
  5
15FED
  8
0
 10
3472.8252169506531573
 20
149.0761885056533913
 30
0.0
 11
3472.8252936673538898
 21
149.0645282687474094
 31
0.0
  0
LINE
  5
15FEE
  8
0
 10
3472.8496149257898651
 20
149.0728843505943075
 30
0.0
 11
3472.8252169506531573
 21
149.070361443547398
 31
0.0
  0
LINE
  5
15FEF
  8
0
 10
3472.8252169506531573
 20
149.070361443547398
 30
0.0
 11
3472.8004211020538605
 21
149.0727704587474136
 31
0.0
  0
LINE
  5
15FF0
  8
0
 10
3472.8004378523760352
 20
149.0738749084553092
 30
0.0
 11
3472.8004211020538605
 21
149.0727704587474136
 31
0.0
  0
ARC
  5
15FF1
  8
0
 10
3472.7949563732709066
 20
149.0728533380045064
 30
0.0
 40
0.0054653572287745
 50
276.1158642070934093
 51
359.1311064475746093
  0
LINE
  5
15FF2
  8
0
 10
3472.795538649053924
 20
149.0674190869474103
 30
0.0
 11
3472.7662439310961418
 21
149.0643898253657937
 31
0.0
  0
LINE
  5
15FF3
  8
0
 10
3472.7715944413707803
 20
149.0649431023987006
 30
0.0
 11
3472.7715866845542223
 21
149.0638211172473859
 31
0.0
  0
ARC
  5
15FF4
  8
0
 10
3472.7661717636701724
 20
149.0638585531679894
 30
0.0
 40
0.0054150502876644
 50
275.6430762213772141
 51
359.6038933670718052
  0
LINE
  5
15FF5
  8
0
 10
3472.7667196542529382
 20
149.058370334047396
 30
0.0
 11
3472.7956483152061082
 21
149.0555628523210032
 31
0.0
  0
ARC
  5
15FF6
  8
0
 10
3472.7959580305009695
 20
149.0604029782805924
 30
0.0
 40
0.0048500250378406
 50
266.3386865196781059
 51
275.931747610404102
  0
LINE
  5
15FF7
  8
0
 10
3472.7919603806540181
 20
149.0549871453474111
 30
0.0
 11
3472.7675481157530157
 21
149.0524627606473871
 31
0.0
  0
LINE
  5
15FF8
  8
0
 10
3472.7675481157530157
 20
149.0524627606473871
 30
0.0
 11
3472.7427522671541738
 21
149.0548717758474027
 31
0.0
  0
LINE
  5
15FF9
  8
0
 10
3472.7427522671541738
 20
149.0558919525473982
 30
0.0
 11
3472.7427522671541738
 21
149.0548717758474027
 31
0.0
  0
LINE
  5
15FFA
  8
0
 10
3472.823855547014773
 20
149.0857596446602997
 30
0.0
 11
3472.823912765994919
 21
149.0822885083194933
 31
0.0
  0
LINE
  5
15FFB
  8
0
 10
3472.8193996069880995
 20
149.0816952486939897
 30
0.0
 11
3472.7950016318532107
 21
149.0791723416473928
 31
0.0
  0
LINE
  5
15FFC
  8
0
 10
3472.7950016318532107
 20
149.0791723416473928
 30
0.0
 11
3472.7716641749589144
 21
149.0814396683055918
 31
0.0
  0
ARC
  5
15FFD
  8
0
 10
3472.7647054945077798
 20
149.0817018961132021
 30
0.0
 40
0.0055066806436968
 50
276.442006030295488
 51
355.7282451096522777
  0
ARC
  5
15FFE
  8
0
 10
3472.7659271832558261
 20
149.0817951422442036
 30
0.0
 40
0.0055978221874777
 50
195.8394042044459127
 51
263.8072904176269731
  0
LINE
  5
15FFF
  8
0
 10
3472.731492077879011
 20
149.0726050466165873
 30
0.0
 11
3472.7071207109820534
 21
149.0700848910427112
 31
0.0
  0
LINE
  5
16000
  8
0
 10
3472.7071207109820534
 20
149.0700848910427112
 30
0.0
 11
3472.7015927898528389
 21
149.0706213021474014
 31
0.0
  0
LINE
  5
16001
  8
0
 10
3472.7373327969539787
 20
149.0671007207565992
 30
0.0
 11
3472.7374095136510732
 21
149.0554404839475922
 31
0.0
  0
LINE
  5
16002
  8
0
 10
3472.7328729791738624
 20
149.0548448071160976
 30
0.0
 11
3472.7085016122809975
 21
149.0523246515321887
 31
0.0
  0
LINE
  5
16003
  8
0
 10
3472.7085016122809975
 20
149.0523246515321887
 30
0.0
 11
3472.6837025309541787
 21
149.0547333324473982
 31
0.0
  0
LINE
  5
16004
  8
0
 10
3472.7076699173539964
 20
149.0582321643474017
 30
0.0
 11
3472.6793567362537942
 21
149.055304126147405
 31
0.0
  0
ARC
  5
16005
  8
0
 10
3472.6788479627821289
 20
149.0602238008451934
 30
0.0
 40
0.0049459124110611
 50
264.3354086937669081
 51
275.9043159493476765
  0
ARC
  5
16006
  8
0
 10
3472.6778576076530953
 20
149.0601307905473902
 30
0.0
 40
0.0048547915999478
 50
264.5079831178923087
 51
275.9371800115839051
  0
LINE
  5
16007
  8
0
 10
3472.6773929698160828
 20
149.0552982846591874
 30
0.0
 11
3472.6549045274527998
 21
149.0574828751474001
 31
0.0
  0
ARC
  5
16008
  8
0
 10
3472.706665165360846
 20
149.0704549234762908
 30
0.0
 40
0.006226052263996
 50
262.095162296343176
 51
274.8743164931952947
  0
LINE
  5
16009
  8
0
 10
3472.7058089077381737
 20
149.0642880320652921
 30
0.0
 11
3472.6834958756530796
 21
149.0664558317473904
 31
0.0
  0
LINE
  5
1600A
  8
0
 10
3472.8545883889869401
 20
149.0675575307334952
 30
0.0
 11
3472.8546038071531257
 21
149.0674583925473939
 31
0.0
  0
LINE
  5
1600B
  8
0
 10
3472.8546038071531257
 20
149.0674583925473939
 30
0.0
 11
3472.8306364207528532
 21
149.0649797374474019
 31
0.0
  0
LINE
  5
1600C
  8
0
 10
3472.8306364207528532
 20
149.0649797374474019
 30
0.0
 11
3472.8263235625540801
 21
149.0645337602925906
 31
0.0
  0
ARC
  5
1600D
  8
0
 10
3472.8257806030551365
 20
149.0697844941057042
 30
0.0
 40
0.0052787319115705
 50
264.707236538210509
 51
275.9037673911718116
  0
ARC
  5
1600E
  8
0
 10
3472.8247396540909904
 20
149.0722093224719913
 30
0.0
 40
0.0077010074563351
 50
261.2459723738663229
 51
274.125442810468428
  0
LINE
  5
1600F
  8
0
 10
3472.8235676157178204
 20
149.0645980254803931
 30
0.0
 11
3472.8207941407858925
 21
149.0648674795787088
 31
0.0
  0
LINE
  5
16010
  8
0
 10
3472.8207941407858925
 20
149.0648674795787088
 30
0.0
 11
3472.7955540709531306
 21
149.0673199491473895
 31
0.0
  0
LINE
  5
16011
  8
0
 10
3472.7955540709531306
 20
149.0673199491473895
 30
0.0
 11
3472.7955437647678991
 21
149.0674196159451128
 31
0.0
  0
LINE
  5
16012
  8
0
 10
3472.8207571328780432
 20
149.0639325919268003
 30
0.0
 11
3472.796420845349985
 21
149.0614160637742032
 31
0.0
  0
LINE
  5
16013
  8
0
 10
3472.796420845349985
 20
149.0614160637742032
 30
0.0
 11
3472.7715866845542223
 21
149.0638211172476133
 31
0.0
  0
LINE
  5
16014
  8
0
 10
3472.914482005553964
 20
149.0675160509566126
 30
0.0
 11
3472.914482005553964
 21
149.0616889888474077
 31
0.0
  0
LINE
  5
16015
  8
0
 10
3472.914482005553964
 20
149.0616889888474077
 30
0.0
 11
3472.9145587223570146
 21
149.055855814002598
 31
0.0
  0
LINE
  5
16016
  8
0
 10
3472.9145587223570146
 20
149.055855814002598
 30
0.0
 11
3472.9150190228428983
 21
149.0499357342386872
 31
0.0
  0
LINE
  5
16017
  8
0
 10
3472.9158629068538175
 20
149.0497558114632
 30
0.0
 11
3472.9159396237150759
 21
149.0380955745085885
 31
0.0
  0
LINE
  5
16018
  8
0
 10
3472.9172438081532164
 20
149.0319955718661049
 30
0.0
 11
3472.9173205249571765
 21
149.0203353349025974
 31
0.0
  0
LINE
  5
16019
  8
0
 10
3472.9371297854531804
 20
149.0287159683473988
 30
0.0
 11
3472.9172821203810599
 21
149.0261724714773095
 31
0.0
  0
LINE
  5
1601A
  8
0
 10
3472.9172821203810599
 20
149.0261724714773095
 30
0.0
 11
3472.8924479595539196
 21
149.0285775249473943
 31
0.0
  0
LINE
  5
1601B
  8
0
 10
3472.8924913636501515
 20
149.0296847184897899
 30
0.0
 11
3472.8924479595539196
 21
149.0285775249473943
 31
0.0
  0
ARC
  5
1601C
  8
0
 10
3472.8868328039270637
 20
149.0287976497461955
 30
0.0
 40
0.0056194686257138
 50
277.491926006044821
 51
357.7550458172007097
  0
ARC
  5
1601D
  8
0
 10
3472.8881532790451274
 20
149.0287601147385885
 30
0.0
 40
0.0055650882541069
 50
182.1331317417329956
 51
263.937238051313102
  0
LINE
  5
1601E
  8
0
 10
3472.882592047189064
 20
149.0285529734046008
 30
0.0
 11
3472.8825188897531007
 21
149.0294938758474075
 31
0.0
  0
ARC
  5
1601F
  8
0
 10
3472.8865805795790038
 20
149.0403874189435101
 30
0.0
 40
0.0112534244824276
 50
261.1943953078106233
 51
272.6720569303325874
  0
LINE
  5
16020
  8
0
 10
3472.8848578771758184
 20
149.0292666339437062
 30
0.0
 11
3472.8573654959850501
 21
149.0319376279105938
 31
0.0
  0
LINE
  5
16021
  8
0
 10
3472.8581940719541308
 20
149.0318571284659868
 30
0.0
 11
3472.8582707887530887
 21
149.0201968916138924
 31
0.0
  0
ARC
  5
16022
  8
0
 10
3472.8587573533532122
 20
149.0251771587466862
 30
0.0
 40
0.0050039789992749
 50
264.4199973338216978
 51
270.0000000002344791
  0
ARC
  5
16023
  8
0
 10
3472.8401666609638596
 20
149.2350104032850027
 30
0.0
 40
0.2156400854684297
 50
274.9457043721982927
 51
276.2211683895400256
  0
LINE
  5
16024
  8
0
 10
3472.86353485365089
 20
149.0206402233824861
 30
0.0
 11
3472.8875807000531495
 21
149.0231267410474061
 31
0.0
  0
LINE
  5
16025
  8
0
 10
3472.8875807000531495
 20
149.0231267410474061
 30
0.0
 11
3472.8875655066531181
 21
149.023226153147391
 31
0.0
  0
LINE
  5
16026
  8
0
 10
3472.8875807000531495
 20
149.0231267410474061
 30
0.0
 11
3472.916353273877121
 21
149.0203318044783884
 31
0.0
  0
ARC
  5
16027
  8
0
 10
3472.9168193923042054
 20
149.0251302771874862
 30
0.0
 40
0.0048210586729463
 50
264.4517575299591954
 51
275.966479042682522
  0
LINE
  5
16028
  8
0
 10
3472.917320524958086
 20
149.0203353347696122
 30
0.0
 11
3472.9420122399292268
 21
149.0233645967005032
 31
0.0
  0
LINE
  5
16029
  8
0
 10
3472.9443137406037749
 20
149.0118374769662069
 30
0.0
 11
3472.9177808253539297
 21
149.0144152551474122
 31
0.0
  0
ARC
  5
1602A
  8
0
 10
3472.9183252705429368
 20
149.0200191966266061
 30
0.0
 40
0.0056303268702827
 50
173.2294316384362105
 51
264.4509026634443103
  0
LINE
  5
1602B
  8
0
 10
3472.912702313518821
 20
149.0197312123056008
 30
0.0
 11
3472.8884093907531678
 21
149.0172191683473955
 31
0.0
  0
LINE
  5
1602C
  8
0
 10
3472.8884093907531678
 20
149.0172191683473955
 30
0.0
 11
3472.8636135421529616
 21
149.019628183547411
 31
0.0
  0
LINE
  5
1602D
  8
0
 10
3472.8636135421529616
 20
149.0206483602474066
 30
0.0
 11
3472.8636135421529616
 21
149.019628183547411
 31
0.0
  0
ARC
  5
1602E
  8
0
 10
3472.8580771575980179
 20
149.0197764396748994
 30
0.0
 40
0.0055383692382696
 50
276.7808996577297762
 51
358.4660709968898118
  0
LINE
  5
1602F
  8
0
 10
3472.8587462826531009
 20
149.0141773995474921
 30
0.0
 11
3472.8884861074539003
 21
149.0113859935474068
 31
0.0
  0
LINE
  5
16030
  8
0
 10
3472.8884861074948276
 20
149.0113859935194967
 30
0.0
 11
3472.9177808253539297
 21
149.0144152551474122
 31
0.0
  0
LINE
  5
16031
  8
0
 10
3472.9100221877738477
 20
149.055260137316111
 30
0.0
 11
3472.88568590124396
 21
149.0527436092665994
 31
0.0
  0
LINE
  5
16032
  8
0
 10
3472.88568590124396
 20
149.0527436092665994
 30
0.0
 11
3472.8608517395541639
 21
149.0551486626474116
 31
0.0
  0
LINE
  5
16033
  8
0
 10
3472.8608681620280549
 20
149.0562530794562974
 30
0.0
 11
3472.8608517395541639
 21
149.0551486626474116
 31
0.0
  0
ARC
  5
16034
  8
0
 10
3472.8553888154960987
 20
149.0552298953197123
 30
0.0
 40
0.0054635279811149
 50
276.0988855337205905
 51
359.1480851209491902
  0
LINE
  5
16035
  8
0
 10
3472.8559845946838323
 20
149.0496978675105879
 30
0.0
 11
3472.8849540191040433
 21
149.0468879676824088
 31
0.0
  0
ARC
  5
16036
  8
0
 10
3472.8852230555498863
 20
149.0517291629494139
 30
0.0
 40
0.0048486649938781
 50
266.8192123861658729
 51
275.9337708965628053
  0
LINE
  5
16037
  8
0
 10
3472.8812254355539153
 20
149.0463146906473924
 30
0.0
 11
3472.856813170652913
 21
149.0437903059473967
 31
0.0
  0
LINE
  5
16038
  8
0
 10
3472.856813170652913
 20
149.0437903059473967
 30
0.0
 11
3472.8320437606539599
 21
149.0461967525324098
 31
0.0
  0
LINE
  5
16039
  8
0
 10
3472.8320437606539599
 20
149.0461967525324098
 30
0.0
 11
3472.8320173220531615
 21
149.0472194978474079
 31
0.0
  0
LINE
  5
1603A
  8
0
 10
3472.856813170652913
 20
149.0496174994839862
 30
0.0
 11
3472.8568898874541446
 21
149.0379571311474081
 31
0.0
  0
ARC
  5
1603B
  8
0
 10
3472.8573764520560871
 20
149.0429373980190064
 30
0.0
 40
0.0050039787719026
 50
264.4199977863020763
 51
273.5837681554119172
  0
ARC
  5
1603C
  8
0
 10
3468.075955711000006
 20
195.4890759536689018
 30
0.0
 40
46.6966027587292416
 50
275.877391721853428
 51
275.9125598535230779
  0
LINE
  5
1603D
  8
0
 10
3472.882592047189064
 20
149.0285529734046008
 30
0.0
 11
3472.8582323841787911
 21
149.0260340280771061
 31
0.0
  0
LINE
  5
1603E
  8
0
 10
3472.8582323841787911
 20
149.0260340280771061
 30
0.0
 11
3472.8333982233539245
 21
149.0284390815473898
 31
0.0
  0
LINE
  5
1603F
  8
0
 10
3472.8333982233539245
 20
149.0284390815473898
 30
0.0
 11
3472.8333982233539245
 21
149.0294592583474014
 31
0.0
  0
LINE
  5
16040
  8
0
 10
3472.8235423109890689
 20
149.0284145300045964
 30
0.0
 11
3472.8234691535521961
 21
149.0293554324694014
 31
0.0
  0
LINE
  5
16041
  8
0
 10
3472.8235423109890689
 20
149.0284145300045111
 30
0.0
 11
3472.7991475685807927
 21
149.0258919573425089
 31
0.0
  0
LINE
  5
16042
  8
0
 10
3472.7991475685807927
 20
149.0258919573425089
 30
0.0
 11
3472.7743484871539295
 21
149.0283006381474138
 31
0.0
  0
LINE
  5
16043
  8
0
 10
3472.7743484871539295
 20
149.0293208149473969
 30
0.0
 11
3472.7743484871539295
 21
149.0283006381474138
 31
0.0
  0
ARC
  5
16044
  8
0
 10
3472.7689745975872029
 20
149.0283006381474138
 30
0.0
 40
0.0053738895660675
 50
275.2469707570190849
 51
359.9999999999935199
  0
ARC
  5
16045
  8
0
 10
3472.7699981937048506
 20
149.0284313043243003
 30
0.0
 40
0.0055078065475356
 50
181.6148893718336979
 51
264.455482391147882
  0
LINE
  5
16046
  8
0
 10
3472.7644925747181333
 20
149.0282760865972023
 30
0.0
 11
3472.764419417352201
 21
149.029216989069397
 31
0.0
  0
LINE
  5
16047
  8
0
 10
3472.7983158736528821
 20
149.0317994700473889
 30
0.0
 11
3472.7743484871539295
 21
149.0293208149693953
 31
0.0
  0
LINE
  5
16048
  8
0
 10
3472.7743484871539295
 20
149.0293208149693953
 30
0.0
 11
3472.7700027812761618
 21
149.0288717410986123
 31
0.0
  0
ARC
  5
16049
  8
0
 10
3472.7694923916737935
 20
149.0338108017649859
 30
0.0
 40
0.0049653618006603
 50
264.3753789807511225
 51
275.8998545984567272
  0
ARC
  5
1604A
  8
0
 10
3472.7685021452589353
 20
149.0337379771401913
 30
0.0
 40
0.0048946059577816
 50
264.5677761792571232
 51
275.9054083948233256
  0
LINE
  5
1604B
  8
0
 10
3472.7680387816540133
 20
149.0288653534474008
 30
0.0
 11
3472.739266138054063
 21
149.0316607530473902
 31
0.0
  0
LINE
  5
1604C
  8
0
 10
3472.7392659089528024
 20
149.031660752347392
 30
0.0
 11
3472.7109529563540491
 21
149.0287329885474037
 31
0.0
  0
ARC
  5
1604D
  8
0
 10
3472.7104441813548874
 20
149.033653099387692
 30
0.0
 40
0.0049463463970329
 50
264.3359238594886733
 51
275.903813846845992
  0
ARC
  5
1604E
  8
0
 10
3472.7094247146951602
 20
149.034416594398607
 30
0.0
 40
0.0057104597368718
 50
261.9797740975366196
 51
275.3383356827587818
  0
LINE
  5
1604F
  8
0
 10
3472.7086279761319929
 20
149.0287619893665862
 30
0.0
 11
3472.6802164018531585
 21
149.0315223096474142
 31
0.0
  0
LINE
  5
16050
  8
0
 10
3472.6802164011528475
 20
149.0315225832474084
 30
0.0
 11
3472.6802009792540957
 21
149.0316217210474008
 31
0.0
  0
LINE
  5
16051
  8
0
 10
3472.6802164011528475
 20
149.0315225832474084
 30
0.0
 11
3472.6548658899528164
 21
149.028900904147406
 31
0.0
  0
ARC
  5
16052
  8
0
 10
3472.6550367746249321
 20
149.0306856092504972
 30
0.0
 40
0.0017928675009644
 50
229.4478463286802992
 51
264.5306298179907003
  0
ARC
  5
16053
  8
0
 10
3472.6592418772520432
 20
149.0345514546457935
 30
0.0
 40
0.0074951686016097
 50
180.2367706869046913
 51
224.2290327929682974
  0
LINE
  5
16054
  8
0
 10
3472.651746772648039
 20
149.0345204814888973
 30
0.0
 11
3472.6517440385541704
 21
149.0401638496473993
 31
0.0
  0
LINE
  5
16055
  8
0
 10
3472.8220708294979886
 20
149.0461654030320062
 30
0.0
 11
3472.7977666672818486
 21
149.043652196842487
 31
0.0
  0
LINE
  5
16056
  8
0
 10
3472.7977666672818486
 20
149.043652196842487
 30
0.0
 11
3472.7729675858540759
 21
149.0460608777474079
 31
0.0
  0
LINE
  5
16057
  8
0
 10
3472.7729675858540759
 20
149.0470810544694018
 30
0.0
 11
3472.7729675858540759
 21
149.0460608777474079
 31
0.0
  0
ARC
  5
16058
  8
0
 10
3472.7675936961882144
 20
149.0460608777474079
 30
0.0
 40
0.0053738896651785
 50
275.246970649822174
 51
359.9999999999919282
  0
LINE
  5
16059
  8
0
 10
3472.7681004409860179
 20
149.0406100826004092
 30
0.0
 11
3472.7968729001768224
 21
149.037815157278402
 31
0.0
  0
ARC
  5
1605A
  8
0
 10
3472.7973388780651476
 20
149.0426411690278883
 30
0.0
 40
0.0048484559190234
 50
264.4848751084211926
 51
275.9343106099893816
  0
LINE
  5
1605B
  8
0
 10
3472.7933412819529622
 20
149.0372269057473886
 30
0.0
 11
3472.7689290170528693
 21
149.034702521047393
 31
0.0
  0
LINE
  5
1605C
  8
0
 10
3472.7689290170528693
 20
149.034702521047393
 30
0.0
 11
3472.7441331684531178
 21
149.0371115362474086
 31
0.0
  0
LINE
  5
1605D
  8
0
 10
3472.7441331684531178
 20
149.0381317129782133
 30
0.0
 11
3472.7441331684531178
 21
149.0371115362474086
 31
0.0
  0
ARC
  5
1605E
  8
0
 10
3472.7387592787881658
 20
149.0371115362474086
 30
0.0
 40
0.0053738896656093
 50
275.2469706546626185
 51
0.0000000000032569
  0
ARC
  5
1605F
  8
0
 10
3472.7398384899179291
 20
149.0372941279738086
 30
0.0
 40
0.0055650903974723
 50
182.133150963505102
 51
263.937218930367294
  0
LINE
  5
16060
  8
0
 10
3472.7342772559900368
 20
149.0370869846942981
 30
0.0
 11
3472.7342041014189817
 21
149.0380278868782966
 31
0.0
  0
LINE
  5
16061
  8
0
 10
3472.7342772559800324
 20
149.0370869848225936
 30
0.0
 11
3472.7098792808528742
 21
149.0345640776473886
 31
0.0
  0
LINE
  5
16062
  8
0
 10
3472.7098792808528742
 20
149.0345640776473886
 30
0.0
 11
3472.6850834322531227
 21
149.0369730928474041
 31
0.0
  0
LINE
  5
16063
  8
0
 10
3472.6850834322531227
 20
149.0379932696473873
 30
0.0
 11
3472.6850834322531227
 21
149.0369730928474041
 31
0.0
  0
ARC
  5
16064
  8
0
 10
3472.6797095425881707
 20
149.0369730928474041
 30
0.0
 40
0.0053738896656093
 50
275.2469706546626185
 51
0.0000000000032569
  0
ARC
  5
16065
  8
0
 10
3472.6807748423648263
 20
149.0371277844122062
 30
0.0
 40
0.0055358877017834
 50
181.8401677639070897
 51
264.0498958873747029
  0
LINE
  5
16066
  8
0
 10
3472.6752418095538815
 20
149.0369500189474081
 30
0.0
 11
3472.6751543623531688
 21
149.0378894437567112
 31
0.0
  0
LINE
  5
16067
  8
0
 10
3472.70905081865385
 20
149.0404719247474077
 30
0.0
 11
3472.6850834322531227
 21
149.0379932695782088
 31
0.0
  0
LINE
  5
16068
  8
0
 10
3472.6850834322531227
 20
149.0379932695782088
 30
0.0
 11
3472.6807376375531931
 21
149.0375438865474109
 31
0.0
  0
ARC
  5
16069
  8
0
 10
3472.6802288630269686
 20
149.0424640314826092
 30
0.0
 40
0.0049463802626214
 50
264.3359584429077245
 51
275.9037677935908732
  0
ARC
  5
1606A
  8
0
 10
3472.6792394421531753
 20
149.0423650697474898
 30
0.0
 40
0.0048492433000541
 50
266.4544581211706031
 51
275.9329118478714236
  0
LINE
  5
1606B
  8
0
 10
3472.6789395557661919
 20
149.0375251081011925
 30
0.0
 11
3472.6751543623531688
 21
149.0378894437567112
 31
0.0
  0
LINE
  5
1606C
  8
0
 10
3472.6751543623540783
 20
149.0378894437473889
 30
0.0
 11
3472.6500008539528608
 21
149.0403332069473947
 31
0.0
  0
LINE
  5
1606D
  8
0
 10
3472.6500008539528608
 20
149.0403332069473947
 30
0.0
 11
3472.634020069152939
 21
149.038681442947393
 31
0.0
  0
ARC
  5
1606E
  8
0
 10
3472.6341027417252008
 20
149.0393254881487906
 30
0.0
 40
0.0006493296354902
 50
222.4642915924256954
 51
262.685254241789778
  0
ARC
  5
1606F
  8
0
 10
3472.6402935657220041
 20
149.0439723974888011
 30
0.0
 40
0.0083873039547242
 50
182.4937166843735099
 51
217.3230418845068925
  0
LINE
  5
16070
  8
0
 10
3472.6326741345369555
 20
149.0444831662051115
 30
0.0
 11
3472.6450122009878214
 21
149.0457594393940042
 31
0.0
  0
LINE
  5
16071
  8
0
 10
3472.6449390435532223
 20
149.0467003417473961
 30
0.0
 11
3472.6450122009841834
 21
149.0457594393934926
 31
0.0
  0
ARC
  5
16072
  8
0
 10
3472.6508366117727746
 20
149.0462123013953999
 30
0.0
 40
0.0058419898181187
 50
184.4459403761657086
 51
261.624429604709519
  0
ARC
  5
16073
  8
0
 10
3472.6493317288600338
 20
149.0459322471099881
 30
0.0
 40
0.0055383692777069
 50
276.7809000104297752
 51
358.4660706442087985
  0
LINE
  5
16074
  8
0
 10
3472.6499856604527849
 20
149.0404326191473956
 30
0.0
 11
3472.6500010824538549
 21
149.0403334813474032
 31
0.0
  0
LINE
  5
16075
  8
0
 10
3472.6548681134531762
 20
149.0457839909473989
 30
0.0
 11
3472.6548681134531762
 21
149.0468041676473945
 31
0.0
  0
LINE
  5
16076
  8
0
 10
3472.6360758329979035
 20
149.0475630121052006
 30
0.0
 11
3472.6449390435532223
 21
149.0467003417473961
 31
0.0
  0
LINE
  5
16077
  8
0
 10
3472.6449390435532223
 20
149.0467003417473961
 30
0.0
 11
3472.6485584079541695
 21
149.0463487061473984
 31
0.0
  0
ARC
  5
16078
  8
0
 10
3472.6490221805770489
 20
149.05112229028461
 30
0.0
 40
0.0047960598996093
 50
264.4509032584653028
 51
276.0222806804026732
  0
ARC
  5
16079
  8
0
 10
3472.6500119247511975
 20
149.0513329661978901
 30
0.0
 40
0.0050039790504313
 50
264.4199973106004791
 51
275.8552368749844277
  0
LINE
  5
1607A
  8
0
 10
3472.6505224075758633
 20
149.0463550937986099
 30
0.0
 11
3472.6548681134531762
 21
149.0468041676473945
 31
0.0
  0
LINE
  5
1607B
  8
0
 10
3472.6548681134531762
 20
149.0468041676473945
 30
0.0
 11
3472.6788355005528501
 21
149.0492825491473923
 31
0.0
  0
LINE
  5
1607C
  8
0
 10
3472.6788355005528501
 20
149.0492825491473923
 30
0.0
 11
3472.6788250644381151
 21
149.0493824788453878
 31
0.0
  0
LINE
  5
1607D
  8
0
 10
3472.673773461051951
 20
149.0556496832712128
 30
0.0
 11
3472.6738466184879144
 21
149.0547087808940887
 31
0.0
  0
ARC
  5
1607E
  8
0
 10
3472.6796694462250343
 20
149.0551615198390891
 30
0.0
 40
0.0058404019903449
 50
184.4459406627680949
 51
261.6872746338378874
  0
ARC
  5
1607F
  8
0
 10
3472.6781819047910176
 20
149.0548671451743985
 30
0.0
 40
0.0055222476468137
 50
276.688246917728577
 51
358.6114974400691722
  0
LINE
  5
16080
  8
0
 10
3472.6837025309541787
 20
149.0547333324473982
 30
0.0
 11
3472.6837025309541787
 21
149.0557535511995013
 31
0.0
  0
LINE
  5
16081
  8
0
 10
3472.7026953583558679
 20
149.0636585850768938
 30
0.0
 11
3472.6782830607539836
 21
149.0611352153474058
 31
0.0
  0
LINE
  5
16082
  8
0
 10
3472.6782830607539836
 20
149.0611352153474058
 30
0.0
 11
3472.6680448825500207
 21
149.0621298950078994
 31
0.0
  0
LINE
  5
16083
  8
0
 10
3472.6782854623311323
 20
149.0651300005540918
 30
0.0
 11
3472.6783597774538066
 21
149.0553020404474012
 31
0.0
  0
LINE
  5
16084
  8
0
 10
3472.6738466184879144
 20
149.0547087808940887
 30
0.0
 11
3472.649448643353935
 21
149.0521858738474066
 31
0.0
  0
LINE
  5
16085
  8
0
 10
3472.649448643353935
 20
149.0521858738474066
 30
0.0
 11
3472.6443054407741329
 21
149.0526942867336118
 31
0.0
  0
LINE
  5
16086
  8
0
 10
3472.6494582081631961
 20
149.0552538795325006
 30
0.0
 11
3472.6495253600542128
 21
149.0463526990050127
 31
0.0
  0
LINE
  5
16087
  8
0
 10
3472.6548681134531762
 20
149.0457839909473989
 30
0.0
 11
3472.6796639620538372
 21
149.0433749757474118
 31
0.0
  0
LINE
  5
16088
  8
0
 10
3472.6796639620538372
 20
149.0433749757474118
 30
0.0
 11
3472.70407622695393
 21
149.0458993604474074
 31
0.0
  0
ARC
  5
16089
  8
0
 10
3472.7080716045879853
 20
149.0513310293115978
 30
0.0
 40
0.0048660011039356
 50
264.5346005561847846
 51
275.9391001589407892
  0
ARC
  5
1608A
  8
0
 10
3473.648982277324194
 20
158.8853889177620999
 30
0.0
 40
9.8838339354311842
 50
264.3670684436930856
 51
264.534646505878527
  0
LINE
  5
1608B
  8
0
 10
3472.6797406788377884
 20
149.0375418009006978
 30
0.0
 11
3472.6796639620538372
 21
149.049200850918794
 31
0.0
  0
LINE
  5
1608C
  8
0
 10
3472.7098792808528742
 20
149.0403911397563945
 30
0.0
 11
3472.7099559975949887
 21
149.0287309029195058
 31
0.0
  0
LINE
  5
1608D
  8
0
 10
3472.6752418095538815
 20
149.0369500189474081
 30
0.0
 11
3472.651746772648039
 21
149.0345204814888973
 31
0.0
  0
LINE
  5
1608E
  8
0
 10
3472.6517466048981078
 20
149.0348667300858949
 30
0.0
 11
3472.6411076393528674
 21
149.0394137005474136
 31
0.0
  0
LINE
  5
1608F
  8
0
 10
3472.6660940683691479
 20
149.0300619698004141
 30
0.0
 11
3472.6811808185898371
 21
149.025802841523813
 31
0.0
  0
LINE
  5
16090
  8
0
 10
3472.6811801375561117
 20
149.0314286559369918
 30
0.0
 11
3472.6811808185898371
 21
149.025802841523813
 31
0.0
  0
ARC
  5
16091
  8
0
 10
3472.6873341207551675
 20
149.0258035864133035
 30
0.0
 40
0.0061533022102427
 50
180.0069359547306931
 51
247.2726007252360887
  0
ARC
  5
16092
  8
0
 10
3472.6852541216580903
 20
149.0229352413581125
 30
0.0
 40
0.0028228748557495
 50
263.9542623715572063
 51
270.9566448015327751
  0
LINE
  5
16093
  8
0
 10
3472.6853012518849937
 20
149.0201127599688107
 30
0.0
 11
3472.7104314914531642
 21
149.0227114108473927
 31
0.0
  0
LINE
  5
16094
  8
0
 10
3472.7104314914531642
 20
149.0227114108473927
 30
0.0
 11
3472.7389862399868434
 21
149.0199372035768022
 31
0.0
  0
ARC
  5
16095
  8
0
 10
3472.7396541235739278
 20
149.0251202565627864
 30
0.0
 40
0.0052259072649473
 50
262.6573791226514913
 51
275.6796940680791863
  0
ARC
  5
16096
  8
0
 10
3472.7406591961589584
 20
149.0249877640044076
 30
0.0
 40
0.0050911894392353
 50
264.5010078278929768
 51
275.7387174929252183
  0
LINE
  5
16097
  8
0
 10
3472.7411682750530417
 20
149.0199220904474089
 30
0.0
 11
3472.7694814568531001
 21
149.0228498549473954
 31
0.0
  0
LINE
  5
16098
  8
0
 10
3472.7694814568531001
 20
149.0228498549473954
 30
0.0
 11
3472.7694660342531279
 21
149.022949266447398
 31
0.0
  0
LINE
  5
16099
  8
0
 10
3472.7694814561527892
 20
149.0228501286474057
 30
0.0
 11
3472.7982541003539154
 21
149.020054455347406
 31
0.0
  0
ARC
  5
1609A
  8
0
 10
3472.7987173845031066
 20
149.024946386392287
 30
0.0
 40
0.0049138194463307
 50
264.5900107770277145
 51
275.8831674386528903
  0
LINE
  5
1609B
  8
0
 10
3472.79472218325418
 20
149.0194666662474106
 30
0.0
 11
3472.7703099183540871
 21
149.0169422815473865
 31
0.0
  0
LINE
  5
1609C
  8
0
 10
3472.7703099183540871
 20
149.0169422815473865
 30
0.0
 11
3472.7455140697538809
 21
149.0193512967474021
 31
0.0
  0
LINE
  5
1609D
  8
0
 10
3472.7455140697538809
 20
149.0203714734473976
 30
0.0
 11
3472.7455140697538809
 21
149.0193512967474021
 31
0.0
  0
ARC
  5
1609E
  8
0
 10
3472.7401401800880194
 20
149.0193512967474021
 30
0.0
 40
0.0053738896656093
 50
275.2469706546626185
 51
359.9999999999919282
  0
ARC
  5
1609F
  8
0
 10
3472.7412054796818666
 20
149.0195059881422139
 30
0.0
 40
0.0055358875137421
 50
181.840166065826196
 51
264.0498975854670789
  0
LINE
  5
160A0
  8
0
 10
3472.7356724470528206
 20
149.0193282228474061
 30
0.0
 11
3472.735584999852108
 21
149.0202676475693977
 31
0.0
  0
LINE
  5
160A1
  8
0
 10
3472.7356724470528206
 20
149.0193282228474061
 30
0.0
 11
3472.720094690240785
 21
149.0177173829461026
 31
0.0
  0
LINE
  5
160A2
  8
0
 10
3472.7200919080528365
 20
149.0217728629930036
 30
0.0
 11
3472.720094690240785
 21
149.0177173829461026
 31
0.0
  0
ARC
  5
160A3
  8
0
 10
3472.7256116362827925
 20
149.017721167744611
 30
0.0
 40
0.0055169473411525
 50
180.0393067009171091
 51
242.8453904349885875
  0
ARC
  5
160A4
  8
0
 10
3472.7252207233841546
 20
149.0169590490311009
 30
0.0
 40
0.0046604207342967
 50
242.8453904349877917
 51
269.1767642885865826
  0
LINE
  5
160A5
  8
0
 10
3472.7251537639531307
 20
149.0122991093473956
 30
0.0
 11
3472.7406470386540605
 21
149.0139007871474064
 31
0.0
  0
LINE
  5
160A6
  8
0
 10
3472.7406470393539166
 20
149.0139005134473962
 30
0.0
 11
3472.7406316206938754
 21
149.0139999253549092
 31
0.0
  0
LINE
  5
160A7
  8
0
 10
3472.7406469975621803
 20
149.0139007828994124
 30
0.0
 11
3472.7694193839770378
 21
149.0111055762783963
 31
0.0
  0
ARC
  5
160A8
  8
0
 10
3472.7698855034468579
 20
149.0159035648798067
 30
0.0
 40
0.0048205769342701
 50
264.4511888775658122
 51
275.9670654369575118
  0
ARC
  5
160A9
  8
0
 10
3472.7709043159788962
 20
149.0174153535895982
 30
0.0
 40
0.0063274594494877
 50
265.3071022711625915
 51
278.6820838460512846
  0
LINE
  5
160AA
  8
0
 10
3472.7718594568341359
 20
149.0111603996303984
 30
0.0
 11
3472.7996967749531905
 21
149.0140392305474109
 31
0.0
  0
LINE
  5
160AB
  8
0
 10
3472.7988420940819196
 20
149.0139505773038877
 30
0.0
 11
3472.7988451309170159
 21
149.0079576497437017
 31
0.0
  0
ARC
  5
160AC
  8
0
 10
3472.8047797495028135
 20
149.0088469452859954
 30
0.0
 40
0.0060008786292139
 50
188.5222935797254138
 51
257.9192096964252983
  0
ARC
  5
160AD
  8
0
 10
3472.8053200745830509
 20
149.0090317026435969
 30
0.0
 40
0.0063136482952845
 50
253.4708434554950998
 51
275.054211169967175
  0
LINE
  5
160AE
  8
0
 10
3472.8058762960531567
 20
149.0027426031473965
 30
0.0
 11
3472.829911865153008
 21
149.0052280580474076
 31
0.0
  0
LINE
  5
160AF
  8
0
 10
3472.829911865153008
 20
149.0052280580474076
 30
0.0
 11
3472.829896671753886
 21
149.0053274702474084
 31
0.0
  0
ARC
  5
160B0
  8
0
 10
3472.8304944770479779
 20
149.010880669054302
 30
0.0
 40
0.0055852831762412
 50
182.3328745463583118
 51
263.8557354988502084
  0
LINE
  5
160B1
  8
0
 10
3472.8249138229298296
 20
149.0106533195846907
 30
0.0
 11
3472.8248500548538686
 21
149.011595192847409
 31
0.0
  0
LINE
  5
160B2
  8
0
 10
3472.8249138229298296
 20
149.0106533195846907
 30
0.0
 11
3472.7988451309538505
 21
149.0079576497473965
 31
0.0
  0
LINE
  5
160B3
  8
0
 10
3472.79884210225282
 20
149.0083052991473949
 30
0.0
 11
3472.7757558351509033
 21
149.010548204579095
 31
0.0
  0
LINE
  5
160B4
  8
0
 10
3472.775755835153177
 20
149.0115633484460886
 30
0.0
 11
3472.775755835153177
 21
149.010548204578896
 31
0.0
  0
ARC
  5
160B5
  8
0
 10
3472.7712236526617744
 20
149.010548204578896
 30
0.0
 40
0.0045321824912765
 50
268.6963000720971877
 51
0.0000000000081422
  0
ARC
  5
160B6
  8
0
 10
3472.7712444001099357
 20
149.0114598683869076
 30
0.0
 40
0.005444082351742
 50
180.028455434799298
 51
268.6963000720971877
  0
LINE
  5
160B7
  8
0
 10
3472.7703099183540871
 20
149.0227693436534935
 30
0.0
 11
3472.7703866351648685
 21
149.0111091067138034
 31
0.0
  0
LINE
  5
160B8
  8
0
 10
3472.7950016318532107
 20
149.0835976519994119
 30
0.0
 11
3472.795078348556217
 21
149.0733391668233878
 31
0.0
  0
LINE
  5
160B9
  8
0
 10
3472.795078348556217
 20
149.0733391668233878
 30
0.0
 11
3472.7955437647678991
 21
149.0674196159451128
 31
0.0
  0
LINE
  5
160BA
  8
0
 10
3472.7675481157530157
 20
149.0582899331423903
 30
0.0
 11
3472.7676248324528387
 21
149.0466295858473984
 31
0.0
  0
ARC
  5
160BB
  8
0
 10
3472.7680238986381482
 20
149.0569739210046976
 30
0.0
 40
0.0103520299560462
 50
267.7907258049821735
 51
277.3143577100075277
  0
LINE
  5
160BC
  8
0
 10
3472.7693418483117966
 20
149.0467061299634963
 30
0.0
 11
3472.7729675858540759
 21
149.0470810544694018
 31
0.0
  0
LINE
  5
160BD
  8
0
 10
3472.7729675858540759
 20
149.0470810544694018
 30
0.0
 11
3472.7969349723539381
 21
149.0495597096474114
 31
0.0
  0
LINE
  5
160BE
  8
0
 10
3472.7977634344529179
 20
149.0494792114938889
 30
0.0
 11
3472.7977634344529179
 21
149.0439088343850926
 31
0.0
  0
LINE
  5
160BF
  8
0
 10
3472.7689290170528693
 20
149.0405295956244061
 30
0.0
 11
3472.769005734502116
 21
149.0288693462497918
 31
0.0
  0
LINE
  5
160C0
  8
0
 10
3472.7644925747181333
 20
149.0282760865972875
 30
0.0
 11
3472.7400945995527763
 21
149.0257531796474098
 31
0.0
  0
LINE
  5
160C1
  8
0
 10
3472.7400945995527763
 20
149.0257531796474098
 30
0.0
 11
3472.7152987509539344
 21
149.0281621947474093
 31
0.0
  0
LINE
  5
160C2
  8
0
 10
3472.7152987509539344
 20
149.0291823715473924
 30
0.0
 11
3472.7152987509539344
 21
149.0281621947474093
 31
0.0
  0
ARC
  5
160C3
  8
0
 10
3472.7099248613981217
 20
149.0281621947474093
 30
0.0
 40
0.0053738895560054
 50
275.246969588475622
 51
0.0000000000065138
  0
LINE
  5
160C4
  8
0
 10
3472.7104162979539979
 20
149.0228108230473936
 30
0.0
 11
3472.7104314914531642
 21
149.0227114108473927
 31
0.0
  0
ARC
  5
160C5
  8
0
 10
3472.7109932563507755
 20
149.0283197672702897
 30
0.0
 40
0.0055390746017267
 50
181.8689246892384119
 51
264.0211400344562094
  0
LINE
  5
160C6
  8
0
 10
3472.7054571282537836
 20
149.0281391208474133
 30
0.0
 11
3472.7053696809462053
 21
149.0290785483223033
 31
0.0
  0
LINE
  5
160C7
  8
0
 10
3472.7054571282537836
 20
149.0281391208474133
 30
0.0
 11
3472.6811832943531044
 21
149.0256290508432926
 31
0.0
  0
LINE
  5
160C8
  8
0
 10
3472.7004722810520434
 20
149.021681338965692
 30
0.0
 11
3472.7200919089541458
 21
149.0180624109474081
 31
0.0
  0
LINE
  5
160C9
  8
0
 10
3472.7387136982538323
 20
149.0493404812631866
 30
0.0
 11
3472.7387904150391478
 21
149.0376802443007023
 31
0.0
  0
LINE
  5
160CA
  8
0
 10
3472.7400945995527763
 20
149.0315802417632085
 30
0.0
 11
3472.740171316136184
 21
149.0199200047808006
 31
0.0
  0
LINE
  5
160CB
  8
0
 10
3472.8347791246528686
 20
149.0116990187474073
 30
0.0
 11
3472.8347791246528686
 21
149.0106788420474118
 31
0.0
  0
ARC
  5
160CC
  8
0
 10
3472.8294052349770027
 20
149.0106788420474118
 30
0.0
 40
0.0053738896756732
 50
275.2469718232322862
 51
359.9999999999984084
  0
LINE
  5
160CD
  8
0
 10
3472.829911865153008
 20
149.0052280580474076
 30
0.0
 11
3472.858684737952899
 21
149.002432659147388
 31
0.0
  0
ARC
  5
160CE
  8
0
 10
3472.8591481242419832
 20
149.0072996552027007
 30
0.0
 40
0.0048890057736652
 50
264.561267977528928
 51
275.9119284958002822
  0
ARC
  5
160CF
  8
0
 10
3472.8599759013732182
 20
149.0167520791871141
 30
0.0
 40
0.0143190979166117
 50
268.7026046432550856
 51
278.2957136572716763
  0
LINE
  5
160D0
  8
0
 10
3472.8596516900529423
 20
149.0024366521138859
 30
0.0
 11
3472.8595749732539844
 21
149.0140968889631949
 31
0.0
  0
LINE
  5
160D1
  8
0
 10
3472.8620418919422264
 20
149.0025828079243979
 30
0.0
 11
3472.8889616013530031
 21
149.005366501447412
 31
0.0
  0
LINE
  5
160D2
  8
0
 10
3472.8889616013530031
 20
149.005366501447412
 30
0.0
 11
3472.8889464079538811
 21
149.0054659136474129
 31
0.0
  0
ARC
  5
160D3
  8
0
 10
3472.8895343092581243
 20
149.0109999956027877
 30
0.0
 40
0.0055652215618344
 50
182.1343206724918105
 51
263.936049147937581
  0
LINE
  5
160D4
  8
0
 10
3472.8839729484870986
 20
149.0107927339043101
 30
0.0
 11
3472.883893303241166
 21
149.0118170781728111
 31
0.0
  0
LINE
  5
160D5
  8
0
 10
3472.8839729484870986
 20
149.0107927339043101
 30
0.0
 11
3472.8596133316527812
 21
149.0082667705385973
 31
0.0
  0
LINE
  5
160D6
  8
0
 10
3472.8596133316527812
 20
149.0082667705385973
 30
0.0
 11
3472.8347791246528686
 21
149.0106788420447117
 31
0.0
  0
LINE
  5
160D7
  8
0
 10
3472.8265978519539203
 20
149.0584282883648939
 30
0.0
 11
3472.8266745686951253
 21
149.0467680292194927
 31
0.0
  0
LINE
  5
160D8
  8
0
 10
3472.8279787532537739
 20
149.0406680487650135
 30
0.0
 11
3472.8280555047508642
 21
149.0290077863245131
 31
0.0
  0
LINE
  5
160D9
  8
0
 10
3472.8293596545540822
 20
149.0229077870534127
 30
0.0
 11
3472.8294363712948325
 21
149.0112475501194922
 31
0.0
  0
ARC
  5
160DA
  8
0
 10
3472.859966427964082
 20
149.0041510635165878
 30
0.0
 40
0.0049894139727309
 50
196.0392570646137074
 51
345.0332448603591047
  0
LINE
  5
160DB
  8
0
 10
3472.9384946982399924
 20
149.0475570445559015
 30
0.0
 11
3472.938510686753034
 21
149.0464762079473928
 31
0.0
  0
LINE
  5
160DC
  8
0
 10
3472.8889616013530031
 20
149.005366501447412
 30
0.0
 11
3472.9103777351770077
 21
149.0026898413813115
 31
0.0
  0
ARC
  5
160DD
  8
0
 10
3472.9105587518479297
 20
149.0041381677044114
 30
0.0
 40
0.0014595945235359
 50
262.875923170522924
 51
282.566463365365621
  0
ARC
  5
160DE
  8
0
 10
3472.9113775554951644
 20
149.0075368058145955
 30
0.0
 40
0.0048492414683496
 50
264.0670847485841932
 51
273.7014290489215114
  0
LINE
  5
160DF
  8
0
 10
3472.9116906089361692
 20
149.0026976798230862
 30
0.0
 11
3472.9406168091541076
 21
149.0055053105473917
 31
0.0
  0
LINE
  5
160E0
  8
0
 10
3472.9406159144527919
 20
149.0055049455473863
 30
0.0
 11
3472.9689290075320969
 21
149.002577490198604
 31
0.0
  0
ARC
  5
160E1
  8
0
 10
3472.9694393900981595
 20
149.0075136915758094
 30
0.0
 40
0.0049625169421148
 50
264.096832832518885
 51
275.6279367798695716
  0
ARC
  5
160E2
  8
0
 10
3472.9704296367040115
 20
149.0074420536552964
 30
0.0
 40
0.0048929415258877
 50
264.09265550215639
 51
275.4341565958857814
  0
LINE
  5
160E3
  8
0
 10
3472.970893007054201
 20
149.0025711025473925
 30
0.0
 11
3472.9996656513540074
 21
149.0053667758473921
 31
0.0
  0
ARC
  5
160E4
  8
0
 10
3473.0003354379468874
 20
149.0109659366557082
 30
0.0
 40
0.0055388127105756
 50
181.5378945056789064
 51
263.2151336710621763
  0
LINE
  5
160E5
  8
0
 10
3472.9947986203537766
 20
149.0108172854473878
 30
0.0
 11
3472.9947685022248152
 21
149.0119390966156914
 31
0.0
  0
LINE
  5
160E6
  8
0
 10
3472.9947986203537766
 20
149.0108172854473878
 30
0.0
 11
3472.9700027717540252
 21
149.0084082702474007
 31
0.0
  0
LINE
  5
160E7
  8
0
 10
3472.9700027717540252
 20
149.0084082702474007
 30
0.0
 11
3472.9456047965200014
 21
149.0109311773042862
 31
0.0
  0
LINE
  5
160E8
  8
0
 10
3472.9456914088282247
 20
149.011971322910199
 30
0.0
 11
3472.9456047965200014
 21
149.0109311773042862
 31
0.0
  0
ARC
  5
160E9
  8
0
 10
3472.9397425994488913
 20
149.0114193189787954
 30
0.0
 40
0.0058824855964976
 50
278.6896344082641122
 51
355.2399957712906939
  0
ARC
  5
160EA
  8
0
 10
3472.94128527085104
 20
149.0111039869173908
 30
0.0
 40
0.0055383714319114
 50
181.5339484978287885
 51
263.2190796789691944
  0
LINE
  5
160EB
  8
0
 10
3472.9357488841537815
 20
149.0109557288473923
 30
0.0
 11
3472.9354752876679413
 21
149.0126961678004989
 31
0.0
  0
LINE
  5
160EC
  8
0
 10
3472.9357488841537815
 20
149.0109557288473923
 30
0.0
 11
3472.9109530355531206
 21
149.0085467136474051
 31
0.0
  0
LINE
  5
160ED
  8
0
 10
3472.9109530355531206
 20
149.0085467136474051
 30
0.0
 11
3472.8884861076157904
 21
149.0113859935320875
 31
0.0
  0
ARC
  5
160EE
  8
0
 10
3472.9104916087298989
 20
149.0024330277377089
 30
0.0
 40
0.0049212981806222
 50
170.0723759931771895
 51
7.2318820745415957
  0
LINE
  5
160EF
  8
0
 10
3472.9154187227650254
 20
149.0024964086611021
 30
0.0
 11
3472.9645854383338701
 21
149.0023816870616997
 31
0.0
  0
LINE
  5
160F0
  8
0
 10
3472.9645854270538621
 20
149.0030263442878038
 30
0.0
 11
3472.9645839228710429
 21
149.0023816905977014
 31
0.0
  0
ARC
  5
160F1
  8
0
 10
3472.9695809670320159
 20
149.0023700309029095
 30
0.0
 40
0.0049970577632174
 50
179.8663109491338048
 51
269.3193425643208911
  0
ARC
  5
160F2
  8
0
 10
3472.9695798929928969
 20
149.002279625674106
 30
0.0
 40
0.0049066461547258
 50
269.3193425643208911
 51
7.4543992494336253
  0
LINE
  5
160F3
  8
0
 10
3472.974480805587973
 20
149.0025167590187039
 30
0.0
 11
3473.0160072612197837
 21
149.0036749458876955
 31
0.0
  0
LINE
  5
160F4
  8
0
 10
3473.0002180904539273
 20
149.0230462429329066
 30
0.0
 11
3473.00014137359085
 21
149.0113859935320875
 31
0.0
  0
LINE
  5
160F5
  8
0
 10
3472.9713069562499186
 20
149.0203353347696122
 30
0.0
 11
3472.9708466558531654
 21
149.0144152551474122
 31
0.0
  0
LINE
  5
160F6
  8
0
 10
3472.969962518329794
 20
149.014329357672807
 30
0.0
 11
3472.9699260170450543
 21
149.0025750917120035
 31
0.0
  0
LINE
  5
160F7
  8
0
 10
3472.7655287040861367
 20
149.2621853106477943
 30
0.0
 11
3472.7655287040861367
 21
149.1413780933874875
 31
0.0
  0
LINE
  5
160F8
  8
0
 10
3472.0584869689528205
 20
143.8969688790473924
 30
0.0
 11
3472.0584869689528205
 21
144.2001184853473887
 31
0.0
  0
LINE
  5
160F9
  8
0
 10
3472.0702979925540603
 20
144.211929509047394
 30
0.0
 11
3472.0584869689528205
 21
144.2001184853473887
 31
0.0
  0
LINE
  5
160FA
  8
0
 10
3472.9443137406037749
 20
144.2504334460473956
 30
0.0
 11
3472.0702979925540603
 21
144.2504334460473956
 31
0.0
  0
LINE
  5
160FB
  8
0
 10
3472.0702979925540603
 20
144.2504334460473956
 30
0.0
 11
3472.0584869689528205
 21
144.2622444696474133
 31
0.0
  0
LINE
  5
160FC
  8
0
 10
3472.0584869689528205
 20
144.2622444696474133
 30
0.0
 11
3472.0584869689528205
 21
145.3409846271474066
 31
0.0
  0
LINE
  5
160FD
  8
0
 10
3472.0584869689528205
 20
145.3409846271474066
 30
0.0
 11
3472.0702979925540603
 21
145.3527956507473959
 31
0.0
  0
LINE
  5
160FE
  8
0
 10
3472.0702979925540603
 20
145.3527956507473959
 30
0.0
 11
3472.3931327300529119
 21
145.3527956507473959
 31
0.0
  0
LINE
  5
160FF
  8
0
 10
3472.3931327300529119
 20
145.3409846271474066
 30
0.0
 11
3472.0584869689528205
 21
145.3409846271474066
 31
0.0
  0
ARC
  5
16100
  8
0
 10
3472.9431498583271605
 20
143.318089809941398
 30
0.0
 40
1.191712258838284
 50
89.9440422363987437
 51
105.2669053783586008
  0
ARC
  5
16101
  8
0
 10
3472.5624317200399673
 20
144.6286944785454978
 30
0.0
 40
0.16895886632129
 50
178.0441469420447902
 51
269.8540970321511168
  0
ARC
  5
16102
  8
0
 10
3470.3108645488578077
 20
144.6151085456131966
 30
0.0
 40
2.0827966456363081
 50
0.5323741591667291
 51
1.2907176929526409
  0
LINE
  5
16103
  8
0
 10
3472.3931327300529119
 20
144.6620243068473997
 30
0.0
 11
3472.3931327300529119
 21
149.5938388180973959
 31
0.0
  0
ARC
  5
16104
  8
0
 10
3472.7019988392130472
 20
149.5967876653625979
 30
0.0
 40
0.3088801856507226
 50
156.232814706428087
 51
180.5470052053273946
  0
ARC
  5
16105
  8
0
 10
3472.6370714921008584
 20
149.625379813060988
 30
0.0
 40
0.2379360434476464
 50
137.5844095841200101
 51
156.2328551344006087
  0
ARC
  5
16106
  8
0
 10
3472.8723814375030088
 20
149.4103948610733141
 30
0.0
 40
0.5566668075511757
 50
112.0213231016279991
 51
137.5844095841200101
  0
ARC
  5
16107
  8
0
 10
3472.9442690697419494
 20
149.2775273234535973
 30
0.0
 40
0.7069955031669038
 50
89.9963798188629625
 51
113.3848995394234009
  0
ARC
  5
16108
  8
0
 10
3472.8689652649682102
 20
148.0482646105604942
 30
0.0
 40
0.7374900481005059
 50
130.1810747005949054
 51
153.8250135997523103
  0
ARC
  5
16109
  8
0
 10
3473.6556122431961739
 20
147.7106036272413974
 30
0.0
 40
1.5930210611507869
 50
155.406559621925993
 51
173.8007455167974911
  0
ARC
  5
1610A
  8
0
 10
3478.1919926251739525
 20
147.135656017643214
 30
0.0
 40
6.165502471828864
 50
173.0413205504210055
 51
178.6885312165568962
  0
ARC
  5
1610B
  8
0
 10
3488.8783350993708154
 20
146.7971149626131933
 30
0.0
 40
16.857055338279789
 50
178.36947551850389
 51
180.0676720457865088
  0
LINE
  5
1610C
  8
0
 10
3472.0212915188621992
 20
146.7772050990047887
 30
0.0
 11
3472.3931327300529119
 21
146.7772050990047887
 31
0.0
  0
ARC
  5
1610D
  8
0
 10
3473.16102239521706
 20
146.7135994007574027
 30
0.0
 40
1.027746640268689
 50
176.4517826141781995
 51
179.6971356161637061
  0
LINE
  5
1610E
  8
0
 10
3472.3931327300529119
 20
146.718937383047404
 30
0.0
 11
3472.1175420870531525
 21
146.718937383047404
 31
0.0
  0
LINE
  5
1610F
  8
0
 10
3472.1175420870531525
 20
146.718937383047404
 30
0.0
 11
3472.0584869689528205
 21
145.3803547058473953
 31
0.0
  0
LINE
  5
16110
  8
0
 10
3472.0584869689528205
 20
145.3803547058473953
 30
0.0
 11
3472.3931327300529119
 21
145.3803547058473953
 31
0.0
  0
LINE
  5
16111
  8
0
 10
3472.1765972051539393
 20
145.3803547058473953
 30
0.0
 11
3472.1765972051539393
 21
145.3527956507473959
 31
0.0
  0
ARC
  5
16112
  8
0
 10
3472.9244579863047875
 20
146.9138241241186051
 30
0.0
 40
2.4929511713171491
 50
89.5436481203580001
 51
97.842267555236063
  0
ARC
  5
16113
  8
0
 10
3472.6951580868631027
 20
148.5786194662518938
 30
0.0
 40
0.8124387568813409
 50
97.842267555236063
 51
107.8176218321472959
  0
ARC
  5
16114
  8
0
 10
3472.4905385155138902
 20
149.2152620152828888
 30
0.0
 40
0.1437213993860404
 50
107.8176218321472959
 51
126.4155785515891068
  0
ARC
  5
16115
  8
0
 10
3472.4210609339461371
 20
149.3076096716989127
 30
0.0
 40
0.0281828128635001
 50
124.1994361394908992
 51
172.2925660208589989
  0
ARC
  5
16116
  8
0
 10
3472.9415086084250106
 20
146.3859382000113953
 30
0.0
 40
2.9819873817192959
 50
89.9461022999808364
 51
93.8227041854613617
  0
ARC
  5
16117
  8
0
 10
3472.8843640282639171
 20
147.2411661999371972
 30
0.0
 40
2.1248523661592902
 50
93.8227041854613617
 51
97.9575096027788561
  0
ARC
  5
16118
  8
0
 10
3472.7249364998460806
 20
148.3816884793282895
 30
0.0
 40
0.9732412310079586
 50
97.9575096027788561
 51
105.2397084578075948
  0
ARC
  5
16119
  8
0
 10
3472.5342221609498665
 20
149.0817160396780139
 30
0.0
 40
0.2476996785730815
 50
105.2397084578075948
 51
119.1117761681579026
  0
ARC
  5
1611A
  8
0
 10
3472.4394579948498176
 20
149.251891324840102
 30
0.0
 40
0.0529180704659314
 50
119.1117761681571068
 51
144.0772404020733859
  0
ARC
  5
1611B
  8
0
 10
3472.4114388770399273
 20
149.272202957792814
 30
0.0
 40
0.0183112342389358
 50
144.1081719765832077
 51
178.649388201581786
  0
ARC
  5
1611C
  8
0
 10
3472.9425935991221195
 20
146.4270668974068883
 30
0.0
 40
2.9180536213371671
 50
89.9662251399279853
 51
93.4504142596732663
  0
ARC
  5
1611D
  8
0
 10
3472.8968420133378459
 20
147.1858752420604048
 30
0.0
 40
2.157867255031114
 50
93.4504142596732663
 51
97.5752129210869867
  0
ARC
  5
1611E
  8
0
 10
3472.7496305837880755
 20
148.2928263502323034
 30
0.0
 40
1.0411703575369471
 50
97.5752129210869867
 51
103.2032388515519017
  0
ARC
  5
1611F
  8
0
 10
3472.5970605266288658
 20
148.9431467493882906
 30
0.0
 40
0.3731926304384387
 50
103.2032388515519017
 51
115.5532114279874065
  0
ARC
  5
16120
  8
0
 10
3472.4583280585338798
 20
149.233311597016808
 30
0.0
 40
0.0515681032281987
 50
115.5532114279881029
 51
146.5630249940712986
  0
ARC
  5
16121
  8
0
 10
3472.4282390319558544
 20
149.2531795262596859
 30
0.0
 40
0.0155114237806488
 50
146.5630249940712986
 51
193.0024995848189917
  0
ARC
  5
16122
  8
0
 10
3472.4353245678607891
 20
149.2548156767099101
 30
0.0
 40
0.0227834116354998
 50
193.0024995848189917
 51
213.4016119396821978
  0
ARC
  5
16123
  8
0
 10
3472.4433770473729055
 20
149.2601256337003122
 30
0.0
 40
0.0324290360071093
 50
213.4016119396835904
 51
229.0044621715024959
  0
ARC
  5
16124
  8
0
 10
3472.5167245874340551
 20
149.3607046202833999
 30
0.0
 40
0.1568181200722898
 50
232.8876062292405891
 51
254.3273204941357903
  0
ARC
  5
16125
  8
0
 10
3472.4116841478380593
 20
149.2724882992988
 30
0.0
 40
0.0185694379567171
 50
182.5243689847683015
 51
192.4096532334565097
  0
ARC
  5
16126
  8
0
 10
3472.4168156400019143
 20
149.2743848739096109
 30
0.0
 40
0.0240003180458929
 50
194.1992346902106021
 51
221.0919856188126005
  0
ARC
  5
16127
  8
0
 10
3473.2149421002559393
 20
150.0644569917882052
 30
0.0
 40
1.1469939242613041
 50
224.6337912140336925
 51
226.1688015617106089
  0
LINE
  5
16128
  8
0
 10
3472.4744235418338576
 20
149.2701090908338983
 30
0.0
 11
3472.4744322548290256
 21
149.0659218264457877
 31
0.0
  0
ARC
  5
16129
  8
0
 10
3472.4916221553639843
 20
149.2584988927339111
 30
0.0
 40
0.0286760777459544
 50
198.0490692922963945
 51
232.8514097190663108
  0
ARC
  5
1612A
  8
0
 10
3472.4795988231371666
 20
149.2528480275173024
 30
0.0
 40
0.015580936170487
 50
149.3948629052482886
 51
191.9790414749537888
  0
ARC
  5
1612B
  8
0
 10
3472.4950729163761025
 20
149.2435806705805987
 30
0.0
 40
0.0336177594449634
 50
127.8967223490875966
 51
149.2274426649811971
  0
ARC
  5
1612C
  8
0
 10
3472.5647317479788398
 20
149.1416025399840919
 30
0.0
 40
0.1570652912277247
 50
104.2608576652169035
 51
125.0976987900077972
  0
ARC
  5
1612D
  8
0
 10
3472.7622899319330827
 20
148.4450633623071951
 30
0.0
 40
0.8810304473420369
 50
96.2161260683100465
 51
105.5542684554205977
  0
ARC
  5
1612E
  8
0
 10
3472.9192890836147853
 20
147.1798671094003907
 30
0.0
 40
2.1558721981016848
 50
91.6850215587757447
 51
96.7232594819684834
  0
ARC
  5
1612F
  8
0
 10
3472.9354971384068449
 20
147.1398851486524961
 30
0.0
 40
2.1963650536753412
 50
89.7700038746763482
 51
92.0777180316404866
  0
LINE
  5
16130
  8
0
 10
3472.1765972051539393
 20
144.2504334460473956
 30
0.0
 11
3472.1765972051539393
 21
144.211929509047394
 31
0.0
  0
LINE
  5
16131
  8
0
 10
3473.7120302760531558
 20
144.211929509047394
 30
0.0
 11
3473.7120302760531558
 21
144.2504334460473956
 31
0.0
  0
ARC
  5
16132
  8
0
 10
3472.5569366868589896
 20
144.7894896247840109
 30
0.0
 40
0.3297923582023285
 50
270.8799538170164851
 51
282.6844755848388786
  0
ARC
  5
16133
  8
0
 10
3472.9454776228790251
 20
143.318089809941398
 30
0.0
 40
1.191712258838284
 50
74.7330946216414134
 51
90.0559577636012847
  0
ARC
  5
16134
  8
0
 10
3473.3261497546518513
 20
144.6288024615305972
 30
0.0
 40
0.169066972296169
 50
270.1614010603694851
 51
1.917986255766144
  0
ARC
  5
16135
  8
0
 10
3473.3316907943481056
 20
144.7894896247840109
 30
0.0
 40
0.3297923582023285
 50
257.3155244151611214
 51
269.1200461829835149
  0
ARC
  5
16136
  8
0
 10
3472.9582578950680727
 20
149.9742216451288925
 30
0.0
 40
0.8548525737342239
 50
256.970474565750294
 51
269.0653632474114261
  0
ARC
  5
16137
  8
0
 10
3472.9436846848548157
 20
149.9980939627772898
 30
0.0
 40
0.878611382121147
 50
270.0410218251849983
 51
282.5610852843258272
  0
LINE
  5
16138
  8
0
 10
3472.0584869689528205
 20
144.2622444696474133
 30
0.0
 11
3473.8301405122538199
 21
144.2622444696474133
 31
0.0
  0
LINE
  5
16139
  8
0
 10
3472.0584869689528205
 20
144.2001184853473887
 30
0.0
 11
3473.8301405122538199
 21
144.2001184853473887
 31
0.0
  0
ARC
  5
1613A
  8
0
 10
3472.9295504597321269
 20
148.5397239477684934
 30
0.0
 40
0.7502089691951442
 50
74.1247525359372048
 51
88.872410373778763
  0
ENDSEC
  0
EOF
