  0
SECTION
  2
HEADER
  9
$ACADVER
  1
AC1009
  9
$INSBASE
 10
3790.4007220729022265
 20
189.5470150052410077
 30
0.0
  9
$EXTMIN
 10
3754.4103773136030213
 20
171.5373597644909864
 30
0.0
  9
$EXTMAX
 10
3826.3910668322027959
 20
207.5373597644909864
 30
0.0
  9
$LIMMIN
 10
0.0
 20
0.0
  9
$LIMMAX
 10
11.6929133858000007
 20
8.2677165353999982
  9
$ORTHOMODE
 70
     0
  9
$REGENMODE
 70
     1
  9
$FILLMODE
 70
     1
  9
$QTEXTMODE
 70
     0
  9
$MIRRTEXT
 70
     0
  9
$DRAGMODE
 70
     2
  9
$LTSCALE
 40
0.6431102362
  9
$OSMODE
 70
  3839
  9
$ATTMODE
 70
     1
  9
$TEXTSIZE
 40
0.2
  9
$TRACEWID
 40
0.05
  9
$TEXTSTYLE
  7
STANDARD
  9
$CLAYER
  8
0
  9
$CELTYPE
  6
BYLAYER
  9
$CECOLOR
 62
   256
  9
$DIMSCALE
 40
1.0
  9
$DIMASZ
 40
0.1875
  9
$DIMEXO
 40
0.0625
  9
$DIMDLI
 40
0.4443307087
  9
$DIMRND
 40
0.0
  9
$DIMDLE
 40
0.0
  9
$DIMEXE
 40
0.125
  9
$DIMTP
 40
0.01
  9
$DIMTM
 40
0.01
  9
$DIMTXT
 40
2.0
  9
$DIMCEN
 40
0.1052362205
  9
$DIMTSZ
 40
0.0
  9
$DIMTOL
 70
     1
  9
$DIMLIM
 70
     0
  9
$DIMTIH
 70
     1
  9
$DIMTOH
 70
     1
  9
$DIMSE1
 70
     0
  9
$DIMSE2
 70
     0
  9
$DIMTAD
 70
     0
  9
$DIMZIN
 70
     0
  9
$DIMBLK
  1

  9
$DIMASO
 70
     1
  9
$DIMSHO
 70
     1
  9
$DIMPOST
  1
\X
  9
$DIMAPOST
  1

  9
$DIMALT
 70
     1
  9
$DIMALTD
 70
     2
  9
$DIMALTF
 40
25.3999999999999986
  9
$DIMLFAC
 40
1.0
  9
$DIMTOFL
 70
     0
  9
$DIMTVP
 40
0.0
  9
$DIMTIX
 70
     0
  9
$DIMSOXD
 70
     0
  9
$DIMSAH
 70
     0
  9
$DIMBLK1
  1

  9
$DIMBLK2
  1

  9
$DIMSTYLE
  2
STANDARD
  9
$DIMCLRD
 70
     0
  9
$DIMCLRE
 70
     0
  9
$DIMCLRT
 70
     0
  9
$DIMTFAC
 40
1.0
  9
$DIMGAP
 40
0.09
  9
$LUNITS
 70
     2
  9
$LUPREC
 70
     4
  9
$SKETCHINC
 40
0.1
  9
$FILLETRAD
 40
0.0
  9
$AUNITS
 70
     0
  9
$AUPREC
 70
     0
  9
$MENU
  1
.
  9
$ELEVATION
 40
0.0
  9
$PELEVATION
 40
0.0
  9
$THICKNESS
 40
0.0
  9
$LIMCHECK
 70
     0
  9
$BLIPMODE
 70
     0
  9
$CHAMFERA
 40
0.0
  9
$CHAMFERB
 40
0.0
  9
$SKPOLY
 70
     0
  9
$TDCREATE
 40
2458060.468368056230247
  9
$TDUPDATE
 40
2459022.8180902781896293
  9
$TDINDWG
 40
0.7470209491000001
  9
$TDUSRTIMER
 40
0.7470209491000001
  9
$USRTIMER
 70
     1
  9
$ANGBASE
 50
0.0
  9
$ANGDIR
 70
     0
  9
$PDMODE
 70
     0
  9
$PDSIZE
 40
0.3125
  9
$PLINEWID
 40
0.0
  9
$COORDS
 70
     1
  9
$SPLFRAME
 70
     0
  9
$SPLINETYPE
 70
     6
  9
$SPLINESEGS
 70
     8
  9
$ATTDIA
 70
     1
  9
$ATTREQ
 70
     1
  9
$HANDLING
 70
     1
  9
$HANDSEED
  5
EF32
  9
$SURFTAB1
 70
     6
  9
$SURFTAB2
 70
     6
  9
$SURFTYPE
 70
     6
  9
$SURFU
 70
     6
  9
$SURFV
 70
     6
  9
$UCSNAME
  2

  9
$UCSORG
 10
0.0
 20
0.0
 30
0.0
  9
$UCSXDIR
 10
1.0
 20
0.0
 30
0.0
  9
$UCSYDIR
 10
0.0
 20
1.0
 30
0.0
  9
$PUCSNAME
  2

  9
$PUCSORG
 10
0.0
 20
0.0
 30
0.0
  9
$PUCSXDIR
 10
1.0
 20
0.0
 30
0.0
  9
$PUCSYDIR
 10
0.0
 20
1.0
 30
0.0
  9
$USERI1
 70
     0
  9
$USERI2
 70
     0
  9
$USERI3
 70
     0
  9
$USERI4
 70
     0
  9
$USERI5
 70
     0
  9
$USERR1
 40
0.0
  9
$USERR2
 40
0.0
  9
$USERR3
 40
0.0
  9
$USERR4
 40
0.0
  9
$USERR5
 40
0.0
  9
$WORLDVIEW
 70
     1
  9
$SHADEDGE
 70
     3
  9
$SHADEDIF
 70
    70
  9
$TILEMODE
 70
     1
  9
$MAXACTVP
 70
    64
  9
$PLIMCHECK
 70
     0
  9
$PEXTMIN
 10
1.0000000000000000E+20
 20
1.0000000000000000E+20
 30
1.0000000000000000E+20
  9
$PEXTMAX
 10
-1.0000000000000000E+20
 20
-1.0000000000000000E+20
 30
-1.0000000000000000E+20
  9
$PLIMMIN
 10
0.0
 20
0.0
  9
$PLIMMAX
 10
12.0
 20
9.0
  9
$UNITMODE
 70
     0
  9
$VISRETAIN
 70
     1
  9
$PLINEGEN
 70
     0
  9
$PSLTSCALE
 70
     1
  0
ENDSEC
  0
SECTION
  2
TABLES
  0
TABLE
  2
VPORT
 70
     1
  0
VPORT
  2
*ACTIVE
 70
     0
 10
0.0
 20
0.0
 11
1.0
 21
1.0
 12
0.0
 22
1.5320354985932729
 13
0.0
 23
0.0
 14
1.0
 24
1.0
 15
0.0
 25
0.0
 16
0.0
 26
0.0
 36
277.1661664417014777
 17
3790.4007568359379547
 27
189.537353515625
 37
0.0
 40
83.5452677343287462
 41
2.5834609494640119
 42
50.0
 43
0.0
 44
0.0
 50
0.0
 51
0.0
 71
     0
 72
   100
 73
     1
 74
     1
 75
     0
 76
     0
 77
     0
 78
     0
  0
ENDTAB
  0
TABLE
  2
LTYPE
 70
     2
  0
LTYPE
  2
CONTINUOUS
 70
     0
  3
Solid line
 72
    65
 73
     0
 40
0.0
  0
LTYPE
  2
PHANTOM2
 70
     0
  3
___ _ _ ___ _ _ ___ _ _ ___ _ _
 72
    65
 73
     6
 40
1.25
 49
0.625
 49
-0.125
 49
0.125
 49
-0.125
 49
0.125
 49
-0.125
  0
ENDTAB
  0
TABLE
  2
LAYER
 70
     2
  0
LAYER
  2
0
 70
     0
 62
   255
  6
CONTINUOUS
  0
LAYER
  2
DEFPOINTS
 70
     0
 62
     7
  6
CONTINUOUS
  0
ENDTAB
  0
TABLE
  2
STYLE
 70
     1
  0
STYLE
  2
STANDARD
 70
     0
 40
0.0
 41
0.8
 50
0.0
 71
     0
 42
0.2
  3
txt
  4

  0
ENDTAB
  0
TABLE
  2
VIEW
 70
     0
  0
ENDTAB
  0
TABLE
  2
UCS
 70
     0
  0
ENDTAB
  0
TABLE
  2
APPID
 70
    10
  0
APPID
  2
ACAD
 70
     0
  0
APPID
  2
ACAD_MLEADERVER
 70
     0
  0
APPID
  2
ACAD_EXEMPT_FROM_CAD_STANDARDS
 70
     0
  0
APPID
  2
ACAD_NAV_VCDISPLAY
 70
     0
  0
APPID
  2
ACAECLAYERSTANDARD
 70
     0
  0
APPID
  2
ACCMTRANSPARENCY
 70
     0
  0
APPID
  2
ACAD_DSTYLE_DIMJAG
 70
     0
  0
APPID
  2
ACAD_DSTYLE_DIMTALN
 70
     0
  0
APPID
  2
ACDBATTR
 70
     0
  0
APPID
  2
ACAD_PSEXT
 70
     0
  0
ENDTAB
  0
TABLE
  2
DIMSTYLE
 70
     1
  0
DIMSTYLE
  2
STANDARD
 70
     0
  3

  4

  5

  6

  7

 40
1.0
 41
0.1875
 42
0.0625
 43
0.38
 44
0.125
 45
0.0
 46
0.0
 47
0.01
 48
0.01
140
0.15625
141
0.09
142
0.0
143
25.3999999999999986
144
1.0
145
0.0
146
1.0
147
0.09
 71
     1
 72
     0
 73
     1
 74
     1
 75
     0
 76
     0
 77
     0
 78
     4
170
     0
171
     2
172
     0
173
     0
174
     0
175
     0
176
     0
177
     0
178
     0
  0
ENDTAB
  0
ENDSEC
  0
SECTION
  2
BLOCKS
  0
BLOCK
  8
0
  2
$MODEL_SPACE
 70
     0
 10
0.0
 20
0.0
 30
0.0
  3
$MODEL_SPACE
  1

  0
ENDBLK
  5
21
  8
0
  0
BLOCK
 67
     1
  8
0
  2
$PAPER_SPACE
 70
     0
 10
0.0
 20
0.0
 30
0.0
  3
$PAPER_SPACE
  1

  0
ENDBLK
  5
1D
 67
     1
  8
0
  0
BLOCK
  8
0
  2
_FILLED
 70
     0
 10
0.0
 20
0.0
 30
0.0
  3
_FILLED
  1

  0
SOLID
  5
B630
  8
0
  6
BYBLOCK
 62
     0
 10
0.0
 20
0.0
 30
0.0
 11
-1.0
 21
0.1666666667
 31
0.0
 12
-1.0
 22
-0.1666666667
 32
0.0
 13
-1.0
 23
-0.1666666667
 33
0.0
  0
ENDBLK
  5
B631
  8
0
  6
BYBLOCK
 62
     0
  0
ENDSEC
  0
SECTION
  2
ENTITIES
  0
ATTDEF
  5
AA11
  8
DEFPOINTS
 10
3790.4017357017810355
 20
189.5509848075427897
 30
0.0
 40
0.001
  1
K-863T
  3

  2
MODELNUMBER
 70
     0
1001
ACDBATTR
1070
     0
1070
     1
  0
ATTDEF
  5
AA12
  8
DEFPOINTS
 10
3790.4017357017810355
 20
189.5493181408762098
 30
0.0
 40
0.001
  1
TEA-FOR-TWO
  3

  2
TRADENAME
 70
     0
1001
ACDBATTR
1070
     0
1070
     1
  0
ATTDEF
  5
AA13
  8
DEFPOINTS
 10
3790.4017357017810355
 20
189.5476514742094878
 30
0.0
 40
0.001
  1
BATH
  3

  2
PRODUCT
 70
     0
1001
ACDBATTR
1070
     0
1070
     1
  0
ARC
  5
EDA2
  8
0
 10
3761.5367779774319388
 20
177.1028921940055056
 30
0.0
 40
2.021909935688968
 50
177.5457183038876963
 51
258.9964091356812901
  0
ARC
  5
EDA3
  8
0
 10
3755.6843136240718195
 20
172.8109291758786981
 30
0.0
 40
1.274012338218264
 50
180.6259491284116905
 51
268.4891220232299816
  0
ARC
  5
EDA4
  8
0
 10
3767.6908157254219986
 20
180.8663445998757879
 30
0.0
 40
2.0058847081522502
 50
180.5844825180816997
 51
267.6618570334508718
  0
ARC
  5
EDA5
  8
0
 10
3790.4007220729022265
 20
496.7945162984922831
 30
0.0
 40
318.7482796260158011
 50
265.899630024497128
 51
274.100369975502872
  0
LINE
  5
EDA6
  8
0
 10
3759.5185156610018566
 20
185.4336479830379858
 30
0.0
 11
3759.516722721602946
 21
177.1894748217910092
 31
0.0
  0
ARC
  5
EDA7
  8
0
 10
3766.2512071309351995
 20
179.4573219731582014
 30
0.0
 40
2.9209464087999701
 50
201.812345491977311
 51
264.2447366460846183
  0
ARC
  5
EDA8
  8
0
 10
3772.496646633626824
 20
-72.5467350297862197
 30
0.0
 40
249.1836291144219899
 50
85.8796945516890844
 51
91.5035613962121346
  0
ARC
  5
EDA9
  8
0
 10
3790.400722072903136
 20
-323.0910626898544251
 30
0.0
 40
499.0671086523707913
 50
86.6400212541022228
 51
93.3599787458977914
  0
LINE
  5
EDAA
  8
0
 10
3754.4103773136030213
 20
206.2970189810071986
 30
0.0
 11
3754.4103773136030213
 21
172.797011029474902
 31
0.0
  0
LINE
  5
EDAB
  8
0
 10
3826.3910668322027959
 20
172.797011029474902
 30
0.0
 11
3826.3910668322027959
 21
206.2970189810071986
 31
0.0
  0
ARC
  5
EDAC
  8
0
 10
3759.2950149333960326
 20
186.4500863603165044
 30
0.0
 40
0.5351970278038639
 50
194.7544765684413903
 51
253.5690074906038092
  0
ARC
  5
EDAD
  8
0
 10
3769.4928231389058055
 20
186.1583300485420978
 30
0.0
 40
9.5080486971141003
 50
173.1090452158510118
 51
177.5309039406072884
  0
LINE
  5
EDAE
  8
0
 10
3759.9936016810602268
 20
186.5679417201118042
 30
0.0
 11
3759.1436289260827834
 21
185.9367461852280883
 31
0.0
  0
ARC
  5
EDAF
  8
0
 10
3759.0658518359909976
 20
185.4875664209102979
 30
0.0
 40
0.4558637257072259
 50
353.2072953463896852
 51
80.176434317274726
  0
ARC
  5
EDB0
  8
0
 10
3766.9521293993279869
 20
189.5468017419024136
 30
0.0
 40
8.1403187242193837
 50
172.8150201361353027
 51
187.1734326863303011
  0
ARC
  5
EDB1
  8
0
 10
3759.2857388821398672
 20
190.5431146733546086
 30
0.0
 40
0.4105868743166695
 50
141.8076331233941119
 51
176.9533433339761075
  0
ARC
  5
EDB2
  8
0
 10
3750.8507006187492152
 20
189.5430528188155108
 30
0.0
 40
8.2657801739370722
 50
353.2067678639795076
 51
7.0214251326701094
  0
ARC
  5
EDB3
  8
0
 10
3759.2791682737101837
 20
188.5501602984458032
 30
0.0
 40
0.4041295463684287
 50
182.8176698205217861
 51
218.7847433724813868
  0
ARC
  5
EDB4
  8
0
 10
3758.6263687081927856
 20
190.5316195524727902
 30
0.0
 40
0.4286799762015903
 50
2.9211553306443241
 51
38.2447791705966722
  0
ARC
  5
EDB5
  8
0
 10
3758.5613260385430294
 20
188.5893232749155004
 30
0.0
 40
0.4977038356678951
 50
324.0333982102333721
 51
357.2357977277446821
  0
ARC
  5
EDB6
  8
0
 10
3751.7460681845341242
 20
189.5470150051910139
 30
0.0
 40
7.1222793139688507
 50
354.724418807538882
 51
5.2739740588063544
  0
ARC
  5
EDB7
  8
0
 10
3759.2950149333960326
 20
192.6645669621744901
 30
0.0
 40
0.5351970278038639
 50
106.4309925093961056
 51
165.2455234315586097
  0
ARC
  5
EDB8
  8
0
 10
3769.4928231389058055
 20
192.9563232739488114
 30
0.0
 40
9.5080486971141003
 50
182.4690960593925979
 51
186.8909547841489029
  0
LINE
  5
EDB9
  8
0
 10
3759.9936016810602268
 20
192.5467116023791903
 30
0.0
 11
3759.1436289260827834
 21
193.1779071372627925
 31
0.0
  0
ARC
  5
EDBA
  8
0
 10
3759.0658518359909976
 20
193.6270869015806113
 30
0.0
 40
0.4558637257072259
 50
279.8235656827253024
 51
6.7927046536119153
  0
LINE
  5
EDBB
  8
0
 10
3760.0534577767439259
 20
187.2991067954561117
 30
0.0
 11
3760.0534577767439259
 21
191.8155465270349112
 31
0.0
  0
LINE
  5
EDBC
  8
0
 10
3758.7774654690019815
 20
192.8008696051271045
 30
0.0
 11
3758.7774654690019815
 21
186.31378371736389
 31
0.0
  0
CIRCLE
  5
EDBD
  8
0
 10
3769.9907220729028268
 20
189.5470150051910139
 30
0.0
 40
1.125
  0
CIRCLE
  5
EDBE
  8
0
 10
3769.9907220729028268
 20
189.5470150051910139
 30
0.0
 40
2.113145532299999
  0
ARC
  5
EDBF
  8
0
 10
3767.9931404971430311
 20
182.8567136161757105
 30
0.0
 40
4.8904746111802586
 50
204.39768587997591
 51
250.7473724893432063
  0
ARC
  5
EDC0
  8
0
 10
3813.4762817339042158
 20
555.0684343858159764
 30
0.0
 40
379.7602749268671118
 50
262.8761647880349983
 51
266.5163625133284881
  0
LINE
  5
EDC1
  8
0
 10
3763.5393835818022126
 20
178.3719920871565137
 30
0.0
 11
3763.5393835818022126
 21
200.7220379233257006
 31
0.0
  0
ARC
  5
EDC2
  8
0
 10
3761.5367779774319388
 20
201.9911378164765949
 30
0.0
 40
2.021909935688968
 50
101.0035908643185962
 51
182.4542816961123037
  0
ARC
  5
EDC3
  8
0
 10
3755.650722072724875
 20
206.2970150053623115
 30
0.0
 40
1.240344759128708
 50
89.9999999917926345
 51
179.9998163498067072
  0
ARC
  5
EDC4
  8
0
 10
3767.6908157254219986
 20
198.2276854106063126
 30
0.0
 40
2.0058847081522502
 50
92.338142966549114
 51
179.4155174819181866
  0
LINE
  5
EDC5
  8
0
 10
3759.5185156610018566
 20
193.6603820274440864
 30
0.0
 11
3759.516722721602946
 21
201.9045551886910914
 31
0.0
  0
ARC
  5
EDC6
  8
0
 10
3766.2512071309351995
 20
199.6367080373238991
 30
0.0
 40
2.9209464087999701
 50
95.7552633539154243
 51
158.1876545080226037
  0
ARC
  5
EDC7
  8
0
 10
3772.4961254991940223
 20
451.3348722205461172
 30
0.0
 40
248.8778280539200125
 50
268.4947107386458924
 51
274.1254971951668153
  0
ARC
  5
EDC8
  8
0
 10
3767.9931404971430311
 20
196.2373163943063901
 30
0.0
 40
4.8904746111802586
 50
109.2526275106567937
 51
155.60231412002409
  0
ARC
  5
EDC9
  8
0
 10
3813.6714298807569321
 20
-177.7667226703246115
 30
0.0
 40
381.5629595324346042
 50
93.4965167457667548
 51
97.1195359035047829
  0
LINE
  5
EDCA
  8
0
 10
3755.6507220729022265
 20
207.5373597644909864
 30
0.0
 11
3825.1507220730800327
 21
207.5373597644909864
 31
0.0
  0
LINE
  5
EDCB
  8
0
 10
3755.6507220729022265
 20
171.5373597644909864
 30
0.0
 11
3825.1507220730800327
 21
171.5373597644909864
 31
0.0
  0
ARC
  5
EDCC
  8
0
 10
3790.4007220729022265
 20
-117.7004862880103957
 30
0.0
 40
318.7482796260159716
 50
85.8996300244971138
 51
94.100369975502872
  0
ARC
  5
EDCD
  8
0
 10
3790.4007220729022265
 20
702.185092700328596
 30
0.0
 40
499.0671086523628901
 50
266.6400212541021801
 51
273.3599787458977062
  0
LINE
  5
EDCE
  8
0
 10
3765.6850353859022107
 20
198.2481473751909959
 30
0.0
 11
3765.6850353859022107
 21
180.8458826352911046
 31
0.0
  0
ARC
  5
EDCF
  8
0
 10
3819.264666168372969
 20
177.1028921940055056
 30
0.0
 40
2.021909935688968
 50
281.0035908643185962
 51
2.4542816961122909
  0
ARC
  5
EDD0
  8
0
 10
3825.1171305217249028
 20
172.8109291758821087
 30
0.0
 40
1.274012338226604
 50
271.5108779851104828
 51
359.374050871438385
  0
ARC
  5
EDD1
  8
0
 10
3813.1106284203819996
 20
180.8663445998757879
 30
0.0
 40
2.0058847081522502
 50
272.3381429665229803
 51
359.4155174819181866
  0
LINE
  5
EDD2
  8
0
 10
3821.2847214242019618
 20
201.9045551886910914
 30
0.0
 11
3821.2847214242019618
 21
177.1894748217910092
 31
0.0
  0
ARC
  5
EDD3
  8
0
 10
3814.5502370148687987
 20
179.4573219731582014
 30
0.0
 40
2.9209464087999701
 50
275.7552633539153817
 51
338.1876545080211827
  0
ARC
  5
EDD4
  8
0
 10
3812.8083036486618767
 20
182.8567136161757105
 30
0.0
 40
4.8904746111802586
 50
289.2526275106567937
 51
335.6023141200241184
  0
LINE
  5
EDD5
  8
0
 10
3817.2620605640017857
 20
178.3719920871565137
 30
0.0
 11
3817.2620605640017857
 21
200.7220379233257006
 31
0.0
  0
ARC
  5
EDD6
  8
0
 10
3819.264666168372969
 20
201.9911378164765949
 30
0.0
 40
2.021909935688976
 50
357.5457183038877247
 51
78.9964091356813469
  0
ARC
  5
EDD7
  8
0
 10
3825.1507220730800327
 20
206.2970150053623115
 30
0.0
 40
1.240344759128708
 50
0.000183650193248
 51
90.0000000082073512
  0
ARC
  5
EDD8
  8
0
 10
3813.1106284203819996
 20
198.2276854106063126
 30
0.0
 40
2.0058847081522502
 50
0.5844825180817543
 51
87.6618570334769629
  0
ARC
  5
EDD9
  8
0
 10
3814.5502370148687987
 20
199.6367080373238991
 30
0.0
 40
2.9209464087999701
 50
21.8123454919773394
 51
84.244736646084533
  0
ARC
  5
EDDA
  8
0
 10
3812.8083036486618767
 20
196.2373163943063901
 30
0.0
 40
4.8904746111802586
 50
24.3976858799758709
 51
70.7473724893431637
  0
LINE
  5
EDDB
  8
0
 10
3815.1164087599017876
 20
198.2481473751909959
 30
0.0
 11
3815.1164087599017876
 21
180.8458826352911046
 31
0.0
  0
ARC
  5
EDDC
  8
0
 10
3808.3047982246539505
 20
-72.5467662248731529
 30
0.0
 40
249.1836602800734966
 50
88.496438955783205
 51
94.1203050963347465
  0
ARC
  5
EDDD
  8
0
 10
3767.3251624119038752
 20
555.0684343857883505
 30
0.0
 40
379.7602749268393723
 50
273.4836374866715119
 51
277.1238352119650017
  0
ARC
  5
EDDE
  8
0
 10
3808.305318646609976
 20
451.3348722205449235
 30
0.0
 40
248.8778280539187904
 50
265.8745028048331847
 51
271.5052892613541076
  0
ARC
  5
EDDF
  8
0
 10
3767.1300142650488851
 20
-177.7667226702816095
 30
0.0
 40
381.5629595323915737
 50
82.8804640964952171
 51
86.5034832542332595
  0
ENDSEC
  0
EOF
