  0
SECTION
  2
HEADER
  9
$ACADVER
  1
AC1009
  9
$INSBASE
 10
387.6418132262681979
 20
36.9687244078806785
 30
0.0
  9
$EXTMIN
 10
386.3918171979681802
 20
36.9603604362263667
 30
0.0
  9
$EXTMAX
 10
388.8918092545682157
 20
43.7976776905806773
 30
0.0
  9
$LIMMIN
 10
0.0
 20
0.0
  9
$LIMMAX
 10
11.6929133858000007
 20
8.2677165353999982
  9
$ORTHOMODE
 70
     0
  9
$REGENMODE
 70
     1
  9
$FILLMODE
 70
     1
  9
$QTEXTMODE
 70
     0
  9
$MIRRTEXT
 70
     0
  9
$DRAGMODE
 70
     2
  9
$LTSCALE
 40
0.6431102362
  9
$OSMODE
 70
  3839
  9
$ATTMODE
 70
     1
  9
$TEXTSIZE
 40
0.2
  9
$TRACEWID
 40
0.05
  9
$TEXTSTYLE
  7
STANDARD
  9
$CLAYER
  8
0
  9
$CELTYPE
  6
BYLAYER
  9
$CECOLOR
 62
   256
  9
$DIMSCALE
 40
1.0
  9
$DIMASZ
 40
0.1875
  9
$DIMEXO
 40
0.0625
  9
$DIMDLI
 40
0.4443307087
  9
$DIMRND
 40
0.0
  9
$DIMDLE
 40
0.0
  9
$DIMEXE
 40
0.125
  9
$DIMTP
 40
0.01
  9
$DIMTM
 40
0.01
  9
$DIMTXT
 40
1.0
  9
$DIMCEN
 40
0.1052362205
  9
$DIMTSZ
 40
0.0
  9
$DIMTOL
 70
     1
  9
$DIMLIM
 70
     0
  9
$DIMTIH
 70
     0
  9
$DIMTOH
 70
     1
  9
$DIMSE1
 70
     0
  9
$DIMSE2
 70
     0
  9
$DIMTAD
 70
     0
  9
$DIMZIN
 70
     0
  9
$DIMBLK
  1

  9
$DIMASO
 70
     1
  9
$DIMSHO
 70
     1
  9
$DIMPOST
  1
\X
  9
$DIMAPOST
  1

  9
$DIMALT
 70
     1
  9
$DIMALTD
 70
     2
  9
$DIMALTF
 40
25.3999999999999986
  9
$DIMLFAC
 40
1.0
  9
$DIMTOFL
 70
     0
  9
$DIMTVP
 40
0.0
  9
$DIMTIX
 70
     0
  9
$DIMSOXD
 70
     0
  9
$DIMSAH
 70
     0
  9
$DIMBLK1
  1

  9
$DIMBLK2
  1

  9
$DIMSTYLE
  2
STANDARD
  9
$DIMCLRD
 70
     0
  9
$DIMCLRE
 70
     0
  9
$DIMCLRT
 70
     0
  9
$DIMTFAC
 40
1.0
  9
$DIMGAP
 40
0.09
  9
$LUNITS
 70
     2
  9
$LUPREC
 70
     4
  9
$SKETCHINC
 40
0.1
  9
$FILLETRAD
 40
0.0
  9
$AUNITS
 70
     0
  9
$AUPREC
 70
     0
  9
$MENU
  1
.
  9
$ELEVATION
 40
0.0
  9
$PELEVATION
 40
0.0
  9
$THICKNESS
 40
0.0
  9
$LIMCHECK
 70
     0
  9
$BLIPMODE
 70
     0
  9
$CHAMFERA
 40
0.0
  9
$CHAMFERB
 40
0.0
  9
$SKPOLY
 70
     0
  9
$TDCREATE
 40
2458172.5207638889551163
  9
$TDUPDATE
 40
2459122.6656365739181638
  9
$TDINDWG
 40
0.1414789815
  9
$TDUSRTIMER
 40
0.1414789815
  9
$USRTIMER
 70
     1
  9
$ANGBASE
 50
0.0
  9
$ANGDIR
 70
     0
  9
$PDMODE
 70
     0
  9
$PDSIZE
 40
0.3125
  9
$PLINEWID
 40
0.0
  9
$COORDS
 70
     1
  9
$SPLFRAME
 70
     0
  9
$SPLINETYPE
 70
     6
  9
$SPLINESEGS
 70
     8
  9
$ATTDIA
 70
     1
  9
$ATTREQ
 70
     1
  9
$HANDLING
 70
     1
  9
$HANDSEED
  5
81E0
  9
$SURFTAB1
 70
     6
  9
$SURFTAB2
 70
     6
  9
$SURFTYPE
 70
     6
  9
$SURFU
 70
     6
  9
$SURFV
 70
     6
  9
$UCSNAME
  2

  9
$UCSORG
 10
0.0
 20
0.0
 30
0.0
  9
$UCSXDIR
 10
1.0
 20
0.0
 30
0.0
  9
$UCSYDIR
 10
0.0
 20
1.0
 30
0.0
  9
$PUCSNAME
  2

  9
$PUCSORG
 10
0.0
 20
0.0
 30
0.0
  9
$PUCSXDIR
 10
1.0
 20
0.0
 30
0.0
  9
$PUCSYDIR
 10
0.0
 20
1.0
 30
0.0
  9
$USERI1
 70
     0
  9
$USERI2
 70
     0
  9
$USERI3
 70
     0
  9
$USERI4
 70
     0
  9
$USERI5
 70
     0
  9
$USERR1
 40
0.0
  9
$USERR2
 40
0.0
  9
$USERR3
 40
0.0
  9
$USERR4
 40
0.0
  9
$USERR5
 40
0.0
  9
$WORLDVIEW
 70
     1
  9
$SHADEDGE
 70
     3
  9
$SHADEDIF
 70
    70
  9
$TILEMODE
 70
     1
  9
$MAXACTVP
 70
    64
  9
$PLIMCHECK
 70
     0
  9
$PEXTMIN
 10
1.0000000000000000E+20
 20
1.0000000000000000E+20
 30
1.0000000000000000E+20
  9
$PEXTMAX
 10
-1.0000000000000000E+20
 20
-1.0000000000000000E+20
 30
-1.0000000000000000E+20
  9
$PLIMMIN
 10
0.0
 20
0.0
  9
$PLIMMAX
 10
12.0
 20
9.0
  9
$UNITMODE
 70
     0
  9
$VISRETAIN
 70
     1
  9
$PLINEGEN
 70
     0
  9
$PSLTSCALE
 70
     1
  0
ENDSEC
  0
SECTION
  2
TABLES
  0
TABLE
  2
VPORT
 70
     1
  0
VPORT
  2
*ACTIVE
 70
     0
 10
0.0
 20
0.0
 11
1.0
 21
1.0
 12
0.0
 22
0.0
 13
0.0
 23
0.0
 14
1.0
 24
1.0
 15
0.0
 25
0.0
 16
0.0
 26
0.0
 36
30.2234057715253712
 17
387.641815185546875
 27
40.3790182613260669
 37
0.0
 40
7.2800333309993741
 41
3.314341846758349
 42
50.0
 43
0.0
 44
0.0
 50
0.0
 51
0.0
 71
     0
 72
   100
 73
     1
 74
     1
 75
     0
 76
     0
 77
     0
 78
     0
  0
ENDTAB
  0
TABLE
  2
LTYPE
 70
     2
  0
LTYPE
  2
CONTINUOUS
 70
     0
  3
Solid line
 72
    65
 73
     0
 40
0.0
  0
LTYPE
  2
PHANTOM2
 70
     0
  3
___ _ _ ___ _ _ ___ _ _ ___ _ _
 72
    65
 73
     6
 40
1.25
 49
0.625
 49
-0.125
 49
0.125
 49
-0.125
 49
0.125
 49
-0.125
  0
ENDTAB
  0
TABLE
  2
LAYER
 70
     2
  0
LAYER
  2
0
 70
     0
 62
   255
  6
CONTINUOUS
  0
LAYER
  2
DEFPOINTS
 70
     0
 62
     7
  6
CONTINUOUS
  0
ENDTAB
  0
TABLE
  2
STYLE
 70
     1
  0
STYLE
  2
STANDARD
 70
     0
 40
0.0
 41
0.8
 50
0.0
 71
     0
 42
0.2
  3
txt
  4

  0
ENDTAB
  0
TABLE
  2
VIEW
 70
     0
  0
ENDTAB
  0
TABLE
  2
UCS
 70
     0
  0
ENDTAB
  0
TABLE
  2
APPID
 70
    10
  0
APPID
  2
ACAD
 70
     0
  0
APPID
  2
ACAD_MLEADERVER
 70
     0
  0
APPID
  2
ACAD_EXEMPT_FROM_CAD_STANDARDS
 70
     0
  0
APPID
  2
ACAD_DSTYLE_DIMJAG
 70
     0
  0
APPID
  2
ACAD_DSTYLE_DIMTALN
 70
     0
  0
APPID
  2
ACAD_NAV_VCDISPLAY
 70
     0
  0
APPID
  2
ACAECLAYERSTANDARD
 70
     0
  0
APPID
  2
ACCMTRANSPARENCY
 70
     0
  0
APPID
  2
DCO15
 70
     0
  0
APPID
  2
ACDBATTR
 70
     0
  0
ENDTAB
  0
TABLE
  2
DIMSTYLE
 70
     1
  0
DIMSTYLE
  2
STANDARD
 70
     0
  3

  4

  5

  6

  7

 40
1.0
 41
0.1875
 42
0.0625
 43
0.38
 44
0.125
 45
0.0
 46
0.0
 47
0.01
 48
0.01
140
0.15625
141
0.09
142
0.0
143
25.3999999999999986
144
1.0
145
0.0
146
1.0
147
0.09
 71
     1
 72
     0
 73
     1
 74
     1
 75
     0
 76
     0
 77
     0
 78
     4
170
     0
171
     2
172
     0
173
     0
174
     0
175
     0
176
     0
177
     0
178
     0
  0
ENDTAB
  0
ENDSEC
  0
SECTION
  2
BLOCKS
  0
BLOCK
  8
0
  2
$MODEL_SPACE
 70
     0
 10
0.0
 20
0.0
 30
0.0
  3
$MODEL_SPACE
  1

  0
ENDBLK
  5
21
  8
0
  0
BLOCK
 67
     1
  8
0
  2
$PAPER_SPACE
 70
     0
 10
0.0
 20
0.0
 30
0.0
  3
$PAPER_SPACE
  1

  0
ENDBLK
  5
1D
 67
     1
  8
0
  0
ENDSEC
  0
SECTION
  2
ENTITIES
  0
ATTDEF
  5
829
  8
DEFPOINTS
 10
387.6370340054763233
 20
36.963693769559697
 30
0.0
 40
0.001
  1
K-8657IN_ND
  3

  2
MODELNUMBER
 70
     0
1001
ACDBATTR
1070
     0
1070
     1
  0
ATTDEF
  5
82A
  8
DEFPOINTS
 10
387.6370340054763233
 20
36.9620271028930318
 30
0.0
 40
0.001
  1
FAIRFAX
  3

  2
TRADENAME
 70
     0
1001
ACDBATTR
1070
     0
1070
     1
  0
ATTDEF
  5
82B
  8
DEFPOINTS
 10
387.6370340054763233
 20
36.9603604362263667
 30
0.0
 40
0.001
  1
BATHROOM SINK FAUCET
  3

  2
PRODUCT
 70
     0
1001
ACDBATTR
1070
     0
1070
     1
  0
LINE
  5
7C61
  8
0
 10
386.3918171979681802
 20
36.9687244078806785
 30
0.0
 11
388.8918092545682157
 21
36.9687244078806785
 31
0.0
  0
LINE
  5
7C62
  8
0
 10
386.5968171979682211
 20
37.6380157464806828
 30
0.0
 11
388.6868092545681748
 21
37.6380157464806828
 31
0.0
  0
LINE
  5
7C63
  8
0
 10
388.6868092545681748
 20
37.8380157464806786
 30
0.0
 11
386.5968171979682211
 21
37.8380157464806786
 31
0.0
  0
LINE
  5
7C64
  8
0
 10
386.3918171979681802
 20
37.0207244078806781
 30
0.0
 11
386.3918171979681802
 21
36.9687244078806785
 31
0.0
  0
LINE
  5
7C65
  8
0
 10
386.6418171979681802
 20
40.9129074505806685
 30
0.0
 11
386.6418171979681802
 21
37.8380157464806786
 31
0.0
  0
LINE
  5
7C66
  8
0
 10
386.6418171979681802
 20
37.6187269079806796
 30
0.0
 11
386.6418171979681802
 21
37.6087244078806791
 31
0.0
  0
LINE
  5
7C67
  8
0
 10
386.6929983003681741
 20
40.9522775292806713
 30
0.0
 11
386.6929983003681741
 21
41.5839800422806718
 31
0.0
  0
LINE
  5
7C68
  8
0
 10
387.0866990877681815
 20
43.0905863779806708
 30
0.0
 11
387.0866990877681815
 21
43.1299564567806684
 31
0.0
  0
LINE
  5
7C69
  8
0
 10
387.1300061743681908
 20
43.1299564567806684
 30
0.0
 11
387.1300061743681908
 21
43.135074566980677
 31
0.0
  0
LINE
  5
7C6A
  8
0
 10
388.6024471192682199
 20
40.9522775292806713
 30
0.0
 11
388.1564091240434209
 21
40.9522775292806713
 31
0.0
  0
LINE
  5
7C6B
  8
0
 10
387.127217328492975
 20
40.9522775292806713
 30
0.0
 11
386.6811872766681972
 21
40.9522775292806713
 31
0.0
  0
LINE
  5
7C6C
  8
0
 10
388.5906360955681862
 20
40.9522775292806713
 30
0.0
 11
388.5906360955681862
 21
41.5839800422806718
 31
0.0
  0
LINE
  5
7C6D
  8
0
 10
388.6418171979681802
 20
40.9129074505806685
 30
0.0
 11
388.6418171979681802
 21
37.8380157464806786
 31
0.0
  0
LINE
  5
7C6E
  8
0
 10
386.571116739768172
 20
41.6921582676806821
 30
0.0
 11
388.7125176561681883
 21
41.6921582676806821
 31
0.0
  0
LINE
  5
7C6F
  8
0
 10
387.0866990877681815
 20
43.0905863779806708
 30
0.0
 11
387.2539496104682257
 21
43.0905863779806708
 31
0.0
  0
LINE
  5
7C70
  8
0
 10
387.2844410144401763
 20
43.1299564567806684
 30
0.0
 11
387.0866990877681815
 21
43.1299564567806684
 31
0.0
  0
LINE
  5
7C71
  8
0
 10
387.0866173839681892
 20
43.135074566980677
 30
0.0
 11
387.2876478437462993
 21
43.135074566980677
 31
0.0
  0
ARC
  5
7C72
  8
0
 10
386.2618171979681847
 20
37.6087244078806791
 30
0.0
 40
0.38
 50
323.8390980022139161
 51
0.0
  0
ARC
  5
7C73
  8
0
 10
386.8754101737682163
 20
37.1602785805806803
 30
0.0
 40
0.38
 50
143.8383273498334916
 51
184.6635199338223003
  0
ARC
  5
7C74
  8
0
 10
386.5968171979682211
 20
37.7380157464806771
 30
0.0
 40
0.1
 50
90.0
 51
270.0
  0
ARC
  5
7C75
  8
0
 10
386.4518171979681824
 20
37.0207244078806781
 30
0.0
 40
0.06
 50
90.0
 51
180.0
  0
ARC
  5
7C76
  8
0
 10
386.6918171979681915
 20
37.6187269079806796
 30
0.0
 40
0.05
 50
157.3080284398448896
 51
180.0
  0
ARC
  5
7C77
  8
0
 10
386.4518171979681824
 20
37.1257244078806821
 30
0.0
 40
0.045
 50
270.0
 51
4.6635199338223439
  0
ARC
  5
7C78
  8
0
 10
386.6811872766681972
 20
40.9129074505806685
 30
0.0
 40
0.0393700787
 50
90.0
 51
180.0
  0
ARC
  5
7C79
  8
0
 10
386.571116739768172
 20
41.7221582676806833
 30
0.0
 40
0.03
 50
215.3209208657991951
 51
270.0
  0
ARC
  5
7C7A
  8
0
 10
387.6378801900681879
 20
41.5839800422806718
 30
0.0
 40
0.9448818898
 50
173.4258695699884925
 51
180.0
  0
ARC
  5
7C7B
  8
0
 10
387.6221993052682251
 20
42.5117883039806728
 30
0.0
 40
0.9200787401999999
 50
113.2599640053039991
 51
117.806234939714102
  0
ARC
  5
7C7C
  8
0
 10
387.3430470977681921
 20
43.0451271192806786
 30
0.0
 40
0.3181102362
 50
118.1439258843622042
 51
133.1523445370592924
  0
ARC
  5
7C7D
  8
0
 10
387.2817566062681749
 20
43.1320458196806769
 30
0.0
 40
0.2161417323
 50
159.5635864119633993
 51
173.3607704361097888
  0
ARC
  5
7C7E
  8
0
 10
387.258577375268203
 20
43.1386469013806817
 30
0.0
 40
0.1921259843
 50
133.8496357398043983
 51
158.9946254098134943
  0
ARC
  5
7C7F
  8
0
 10
387.0937425567502146
 20
42.9308042321265617
 30
0.0
 40
0.1599373145611851
 50
92.5240614245360575
 51
231.1457700228320107
  0
ARC
  5
7C80
  8
0
 10
387.0866173839681892
 20
43.1547596063806722
 30
0.0
 40
0.0196850394
 50
173.3607704361118067
 51
270.0
  0
ARC
  5
7C81
  8
0
 10
387.6457542058681724
 20
41.5839800422806718
 30
0.0
 40
0.9448818898
 50
0.0
 51
6.5759718152002966
  0
ARC
  5
7C82
  8
0
 10
388.6024471192682199
 20
40.9129074505806685
 30
0.0
 40
0.0393700787
 50
0.0
 51
90.0
  0
ARC
  5
7C83
  8
0
 10
388.7125176561681883
 20
41.7221582676806833
 30
0.0
 40
0.03
 50
270.0
 51
325.3633990996671059
  0
ARC
  5
7C84
  8
0
 10
387.1794914123535136
 20
42.164939329958159
 30
0.0
 40
0.7824435663471399
 50
206.7545434768362043
 51
216.0196384561625109
  0
ARC
  5
7C85
  8
0
 10
386.7398800313929996
 20
41.9433132336454619
 30
0.0
 40
0.2901262978740566
 50
152.5484818432852023
 51
206.7545434768358064
  0
ARC
  5
7C86
  8
0
 10
386.9505330421641247
 20
41.7676863197711725
 30
0.0
 40
0.5611068716115031
 50
116.6959870904310037
 51
146.5393121381835897
  0
ARC
  5
7C87
  8
0
 10
386.0125550701102952
 20
43.6100165808979483
 30
0.0
 40
1.506264186359717
 50
297.0882980581744164
 51
307.3946100992167771
  0
ARC
  5
7C88
  8
0
 10
386.834004585308719
 20
42.5451604103533398
 30
0.0
 40
0.1615077436422114
 50
305.2903980995239976
 51
40.1539266771099292
  0
ARC
  5
7C89
  8
0
 10
387.6000095340742178
 20
43.287231556824878
 30
0.0
 40
0.9054463797396497
 50
219.382004662736307
 51
224.7924619629812071
  0
ARC
  5
7C8A
  8
0
 10
386.9542749818627954
 20
42.7438383405852065
 30
0.0
 40
0.0624155809793174
 50
90.0
 51
209.8873449536924909
  0
LINE
  5
7C8B
  8
0
 10
386.9542749818627954
 20
42.806253921564533
 30
0.0
 11
388.3293514706736005
 21
42.806253921564533
 31
0.0
  0
LINE
  5
7C8C
  8
0
 10
387.5978078950673194
 20
43.7976776905806773
 30
0.0
 11
387.6858185574690197
 21
43.7976776905806773
 31
0.0
  0
ARC
  5
7C8D
  8
0
 10
387.3436836761388804
 20
43.5142866624820712
 30
0.0
 40
0.1786276229645732
 50
155.511151164726499
 51
241.6484184091424936
  0
ARC
  5
7C8E
  8
0
 10
387.4483079152620917
 20
43.4709140301647565
 30
0.0
 40
0.2918447531971137
 50
107.3033059904975062
 51
156.2763458903372111
  0
ARC
  5
7C8F
  8
0
 10
387.6133773668248068
 20
43.1170405147592604
 30
0.0
 40
0.6808152271805977
 50
91.3104037038875447
 51
111.713007681437702
  0
ARC
  5
7C90
  8
0
 10
387.0474407867965851
 20
43.2820162304604494
 30
0.0
 40
0.2815870783162198
 50
317.170053598813297
 51
347.4902579787955119
  0
ARC
  5
7C91
  8
0
 10
387.065794991923724
 20
43.254542560791748
 30
0.0
 40
0.2587282856860085
 50
352.5560930991583746
 51
17.767071559950729
  0
ARC
  5
7C92
  8
0
 10
387.6586587242226187
 20
40.8733355407220529
 30
0.0
 40
0.5372725515532571
 50
91.7967308042064474
 51
171.6175901249534945
  0
ARC
  5
7C93
  8
0
 10
387.6844867416863281
 20
38.3546718930980504
 30
0.0
 40
1.434485758583109
 50
91.7047036424815332
 51
112.2533515433006954
  0
ARC
  5
7C94
  8
0
 10
387.2347242427114224
 20
39.4995288344030016
 30
0.0
 40
0.2053032942179855
 50
117.0863142078727037
 51
233.4881370504413951
  0
ARC
  5
7C95
  8
0
 10
387.6618008157058739
 20
40.4309304208535423
 30
0.0
 40
1.226282980238715
 50
243.3921371085826877
 51
269.066075898198676
  0
ARC
  5
7C96
  8
0
 10
387.632281134065579
 20
38.5201714492174787
 30
0.0
 40
1.0259172659232061
 50
89.4676407839371848
 51
114.8943332164913045
  0
ARC
  5
7C97
  8
0
 10
387.2372729089523773
 20
39.379932292173109
 30
0.0
 40
0.079844869396254
 50
117.4833280108058062
 51
234.9541354116655896
  0
ARC
  5
7C98
  8
0
 10
387.680617527029483
 20
40.4274980807656803
 30
0.0
 40
1.2157028363448179
 50
246.2719432662125882
 51
268.1708520360996886
  0
ARC
  5
7C99
  8
0
 10
387.6176964517040915
 20
40.0032675021803499
 30
0.0
 40
0.7527903458020661
 50
247.4316794221269902
 51
271.8358708752444954
  0
ARC
  5
7C9A
  8
0
 10
387.3700675717565787
 20
39.4147799579990732
 30
0.0
 40
0.1143660828274083
 50
211.7993478692492033
 51
248.8413511979190957
  0
ARC
  5
7C9B
  8
0
 10
387.3142940039307973
 20
39.380199759669118
 30
0.0
 40
0.0487422991468073
 50
129.9619737484017037
 51
211.7993478692490896
  0
ARC
  5
7C9C
  8
0
 10
387.6393971725512984
 20
38.4835931003120066
 30
0.0
 40
1.024005321103634
 50
89.8648153416369837
 51
98.741839995870734
  0
ARC
  5
7C9D
  8
0
 10
387.5714996341379219
 20
38.894222186160512
 30
0.0
 40
0.6078453726237872
 50
98.2987833375745765
 51
110.9708904828234068
  0
ARC
  5
7C9E
  8
0
 10
387.4325905711153837
 20
39.2566429169715576
 30
0.0
 40
0.2197158660007966
 50
110.9708904828234068
 51
132.9133685421778068
  0
ARC
  5
7C9F
  8
0
 10
387.6270584119046134
 20
39.9420711178942724
 30
0.0
 40
0.6629203957774137
 50
249.0019410155734079
 51
271.2753543420748201
  0
ARC
  5
7CA0
  8
0
 10
387.4317487753601768
 20
39.433220595444709
 30
0.0
 40
0.1178747937180305
 50
216.5211372347145016
 51
249.0019410155734079
  0
ARC
  5
7CA1
  8
0
 10
387.3714337110408223
 20
39.3862989737158031
 30
0.0
 40
0.041519007845384
 50
132.5439494057995944
 51
214.0179934182127965
  0
ARC
  5
7CA2
  8
0
 10
387.486484732439294
 20
39.2616759211197106
 30
0.0
 40
0.2111291300135547
 50
100.6611648203743954
 51
132.6797187662754993
  0
ARC
  5
7CA3
  8
0
 10
387.6149191606525051
 20
38.8332991409230388
 30
0.0
 40
0.6575514286356997
 50
95.8293671754034051
 51
104.7571688120348057
  0
ARC
  5
7CA4
  8
0
 10
387.6412438513722236
 20
38.6074584593709531
 30
0.0
 40
0.8849039088473023
 50
89.96313409803669
 51
96.0398490375135054
  0
ARC
  5
7CA5
  8
0
 10
387.6352568569041068
 20
40.0765798273865101
 30
0.0
 40
0.8013241459967163
 50
255.8005703929692061
 51
270.4687946653795052
  0
ARC
  5
7CA6
  8
0
 10
387.5125973118159095
 20
39.5918137318568029
 30
0.0
 40
0.3012806165151538
 50
235.8593969956422995
 51
255.8005703929692061
  0
ARC
  5
7CA7
  8
0
 10
387.4111114336483865
 20
39.4224981698014503
 30
0.0
 40
0.1047699720373543
 50
215.7944855170997016
 51
229.8172160574189036
  0
ARC
  5
7CA8
  8
0
 10
387.3606724765850799
 20
39.3862622166848695
 30
0.0
 40
0.0426643884869661
 50
133.4303428964693978
 51
215.940875856954591
  0
ARC
  5
7CA9
  8
0
 10
387.4905860096204151
 20
39.2381184665854477
 30
0.0
 40
0.2396772842037426
 50
101.7633116077037982
 51
131.6371195317329068
  0
ARC
  5
7CAA
  8
0
 10
387.6236814041935759
 20
38.7615882936216565
 30
0.0
 40
0.7340823839137895
 50
93.289243722466594
 51
104.3516031508402051
  0
ARC
  5
7CAB
  8
0
 10
387.6415982919417047
 20
38.5632567546578997
 30
0.0
 40
0.9331378959891971
 50
89.9865589092644029
 51
93.6888324899870639
  0
ARC
  5
7CAC
  8
0
 10
387.6376610798159845
 20
40.1259854162315008
 30
0.0
 40
0.863320336400285
 50
254.8351583850628117
 51
270.2755655980420784
  0
ARC
  5
7CAD
  8
0
 10
387.483263981160178
 20
39.5563283546527771
 30
0.0
 40
0.2731105161839165
 50
235.961914853262499
 51
254.8351583850628117
  0
ARC
  5
7CAE
  8
0
 10
387.3788612350999756
 20
39.4017666327422376
 30
0.0
 40
0.086591725535711
 50
203.5544035169347126
 51
235.9619148532626127
  0
ARC
  5
7CAF
  8
0
 10
387.3452951894735747
 20
39.3803091321392813
 30
0.0
 40
0.0476599090068855
 50
132.6159871493649121
 51
196.0117608713609059
  0
ARC
  5
7CB0
  8
0
 10
387.6209006046444756
 20
38.7151888545015694
 30
0.0
 40
0.7816896977207697
 50
94.9999343756394694
 51
102.8022213297012968
  0
ARC
  5
7CB1
  8
0
 10
387.641427436893423
 20
38.512643506765059
 30
0.0
 40
0.9852572945712921
 50
89.9775651460378754
 51
95.162528628864905
  0
ARC
  5
7CB2
  8
0
 10
387.6371518979265147
 20
40.1725239949927726
 30
0.0
 40
0.9122130963778683
 50
258.4986833581032784
 51
270.2927776462009888
  0
ARC
  5
7CB3
  8
0
 10
387.5238886402689218
 20
39.6554619118375484
 30
0.0
 40
0.3830312501900515
 50
239.2667908935810033
 51
259.6792482391011276
  0
ARC
  5
7CB4
  8
0
 10
387.5815844921067992
 20
38.9179602955738133
 30
0.0
 40
0.5781268302102071
 50
95.7025226369091655
 51
112.5437490314654951
  0
ARC
  5
7CB5
  8
0
 10
387.6399693278837049
 20
38.5423293675181284
 30
0.0
 40
0.9579253971452528
 50
89.8894744619936574
 51
96.9450348644957955
  0
ARC
  5
7CB6
  8
0
 10
387.3873404115414019
 20
39.4169939017621118
 30
0.0
 40
0.1083661303494198
 50
213.8317669445380886
 51
236.8889110546568872
  0
ARC
  5
7CB7
  8
0
 10
387.3327148469243753
 20
39.3803813978546486
 30
0.0
 40
0.0426057490237332
 50
144.0949866377366959
 51
213.8317669445384013
  0
ARC
  5
7CB8
  8
0
 10
387.3953547665565225
 20
39.3350293046042196
 30
0.0
 40
0.1199399063780395
 50
125.7857872051041994
 51
144.0949866377366959
  0
ARC
  5
7CB9
  8
0
 10
387.4304682185111801
 20
39.2863178385143073
 30
0.0
 40
0.1799878991571487
 50
113.070629033612903
 51
125.7857872051041994
  0
ARC
  5
7CBA
  8
0
 10
387.42015833583838
 20
39.3105748831026816
 30
0.0
 40
0.1498734759456294
 50
114.4417117283041989
 51
135.6285714263158013
  0
ARC
  5
7CBB
  8
0
 10
387.5560905168093768
 20
39.0114930043752111
 30
0.0
 40
0.4783967293185029
 50
103.096605982038696
 51
114.4417117283012004
  0
LINE
  5
7CBC
  8
0
 10
387.5556084228682039
 20
39.3114649713806799
 30
0.0
 11
387.5702866790682037
 21
39.3025648053806833
 31
0.0
  0
LINE
  5
7CBD
  8
0
 10
387.5745974344681031
 20
39.301385210280678
 30
0.0
 11
387.6067506048681821
 21
39.3013854140806771
 31
0.0
  0
LINE
  5
7CBE
  8
0
 10
387.6106329583636807
 20
39.3023346516422478
 30
0.0
 11
387.6257406669682268
 21
39.3114663099806805
 31
0.0
  0
LINE
  5
7CBF
  8
0
 10
387.5764675119681897
 20
39.3116857607806836
 30
0.0
 11
387.6048804189682073
 21
39.3116857607806836
 31
0.0
  0
LINE
  5
7CC0
  8
0
 10
387.6048804189682073
 20
39.3116857607806836
 30
0.0
 11
387.6140610328977232
 21
39.3171146718208817
 31
0.0
  0
LINE
  5
7CC1
  8
0
 10
387.5764675119681897
 20
39.3116857607806836
 30
0.0
 11
387.5672875942908036
 21
39.3171142600359076
 31
0.0
  0
ARC
  5
7CC2
  8
0
 10
387.5505996500975812
 20
39.338242835252629
 30
0.0
 40
0.027242279607474
 50
280.5946906700368118
 51
290.0030495264347792
  0
LINE
  5
7CC3
  8
0
 10
387.5599179482179011
 20
39.3126459251703508
 30
0.0
 11
387.5745986337681757
 21
39.3215470607806807
 31
0.0
  0
LINE
  5
7CC4
  8
0
 10
387.6067518041681979
 20
39.3215472645806798
 30
0.0
 11
387.6214299115682138
 21
39.3126459050806787
 31
0.0
  0
ARC
  5
7CC5
  8
0
 10
387.6263562832975254
 20
39.3221999457580296
 30
0.0
 40
0.0107512752948552
 50
242.725750122938706
 51
266.7174572841619238
  0
ARC
  5
7CC6
  8
0
 10
387.5788713330865107
 20
39.3254703899387081
 30
0.0
 40
0.0244614408520638
 50
249.4547893806779086
 51
259.9376460391964088
  0
ARC
  5
7CC7
  8
0
 10
387.5960956657247038
 20
39.3533777735623289
 30
0.0
 40
0.0530729043168032
 50
281.5814304798598187
 51
285.897172676681123
  0
LINE
  5
7CC8
  8
0
 10
387.5556096221682196
 20
39.3316268218806826
 30
0.0
 11
387.5702878783682195
 21
39.3227266558806789
 31
0.0
  0
LINE
  5
7CC9
  8
0
 10
387.5745986337681757
 20
39.3215470607806807
 30
0.0
 11
387.6067518041681979
 21
39.3215472645806798
 31
0.0
  0
LINE
  5
7CCA
  8
0
 10
387.6106341576636964
 20
39.3224965021422506
 30
0.0
 11
387.6257418662681857
 21
39.331628160480669
 31
0.0
  0
LINE
  5
7CCB
  8
0
 10
387.5764687112682054
 20
39.3318476112806792
 30
0.0
 11
387.6048816182682231
 21
39.3318476112806792
 31
0.0
  0
LINE
  5
7CCC
  8
0
 10
387.6048816182682231
 20
39.3318476112806792
 30
0.0
 11
387.6140623907660938
 21
39.3372766160895395
 31
0.0
  0
LINE
  5
7CCD
  8
0
 10
387.5764687112682054
 20
39.3318476112806792
 30
0.0
 11
387.5672883425144164
 21
39.3372763772776466
 31
0.0
  0
ARC
  5
7CCE
  8
0
 10
387.5506008493975969
 20
39.3584046857526317
 30
0.0
 40
0.027242279607474
 50
280.5946906700368118
 51
290.0030495264347792
  0
LINE
  5
7CCF
  8
0
 10
387.5599191475179168
 20
39.3328077756703465
 30
0.0
 11
387.5745986337681757
 21
39.3417092602806804
 31
0.0
  0
LINE
  5
7CD0
  8
0
 10
387.5745986337681757
 20
39.3417092602806804
 30
0.0
 11
387.6067542027681725
 21
39.3417087660806786
 31
0.0
  0
LINE
  5
7CD1
  8
0
 10
387.6067542027681725
 20
39.3417087660806786
 30
0.0
 11
387.6214311108681727
 21
39.3328077555806814
 31
0.0
  0
ARC
  5
7CD2
  8
0
 10
387.6263574825974842
 20
39.3423617962580323
 30
0.0
 40
0.0107512752948552
 50
242.725750122938706
 51
266.7174572841619238
  0
ARC
  5
7CD3
  8
0
 10
387.5788725323865265
 20
39.3456322404386967
 30
0.0
 40
0.0244614408520638
 50
249.4547893806779086
 51
259.9376460391964088
  0
ARC
  5
7CD4
  8
0
 10
387.5960968650247196
 20
39.3735396240623317
 30
0.0
 40
0.0530729043168032
 50
281.5814304798598187
 51
285.897172676681123
  0
LINE
  5
7CD5
  8
0
 10
387.5556071693682156
 20
39.351788278880683
 30
0.0
 11
387.5702854255682155
 21
39.3428881128806793
 31
0.0
  0
LINE
  5
7CD6
  8
0
 10
387.6106317048636924
 20
39.3426579591422509
 30
0.0
 11
387.6257394134681817
 21
39.3517896174806765
 31
0.0
  0
LINE
  5
7CD7
  8
0
 10
387.5764662584682014
 20
39.3520090682806796
 30
0.0
 11
387.6048791654682191
 21
39.3520090682806796
 31
0.0
  0
LINE
  5
7CD8
  8
0
 10
387.6048791654682191
 20
39.3520090682806796
 30
0.0
 11
387.6140599379660898
 21
39.3574380730895399
 31
0.0
  0
LINE
  5
7CD9
  8
0
 10
387.5764662584682014
 20
39.3520090682806796
 30
0.0
 11
387.5672858897144124
 21
39.3574378342776612
 31
0.0
  0
ARC
  5
7CDA
  8
0
 10
387.5505983965975929
 20
39.3785661427526321
 30
0.0
 40
0.027242279607474
 50
280.5946906700368118
 51
290.0030495264347792
  0
LINE
  5
7CDB
  8
0
 10
387.5599166947177991
 20
39.3529692326703469
 30
0.0
 11
387.5745961809681717
 21
39.3618707172806808
 31
0.0
  0
LINE
  5
7CDC
  8
0
 10
387.5745961809681717
 20
39.3618707172806808
 30
0.0
 11
387.6067517499682253
 21
39.361870223080679
 31
0.0
  0
LINE
  5
7CDD
  8
0
 10
387.6067517499682253
 20
39.361870223080679
 30
0.0
 11
387.6214286580682256
 21
39.3529692125806818
 31
0.0
  0
ARC
  5
7CDE
  8
0
 10
387.6263550297974803
 20
39.3625232532580327
 30
0.0
 40
0.0107512752948552
 50
242.725750122938706
 51
266.7174572841619238
  0
ARC
  5
7CDF
  8
0
 10
387.5788276669237007
 20
39.3656625770049473
 30
0.0
 40
0.0243237765062039
 50
249.4399465844431063
 51
259.987433535245998
  0
ARC
  5
7CE0
  8
0
 10
387.5959238537644751
 20
39.3943457879516927
 30
0.0
 40
0.0537396737149814
 50
281.626653143836279
 51
285.883784343128184
  0
LINE
  5
7CE1
  8
0
 10
387.5556071693682156
 20
39.3719504783806826
 30
0.0
 11
387.5702854255682155
 21
39.363050312380679
 31
0.0
  0
LINE
  5
7CE2
  8
0
 10
387.6106317048636924
 20
39.3628201586422506
 30
0.0
 11
387.6257394134681817
 21
39.3719518169806904
 31
0.0
  0
LINE
  5
7CE3
  8
0
 10
387.5764662584682014
 20
39.3721712677806792
 30
0.0
 11
387.6048791654682191
 21
39.3721712677806792
 31
0.0
  0
LINE
  5
7CE4
  8
0
 10
387.6048791654682191
 20
39.3721712677806792
 30
0.0
 11
387.6140599379660898
 21
39.3776002725895395
 31
0.0
  0
LINE
  5
7CE5
  8
0
 10
387.5764662584682014
 20
39.3721712677806792
 30
0.0
 11
387.5672858897144124
 21
39.3776000337776608
 31
0.0
  0
ARC
  5
7CE6
  8
0
 10
387.5505983965975929
 20
39.3987283422526176
 30
0.0
 40
0.027242279607474
 50
280.5946906700368118
 51
290.0030495264347792
  0
LINE
  5
7CE7
  8
0
 10
387.5599166947177991
 20
39.3731314321703465
 30
0.0
 11
387.5745961809681717
 21
39.3820329167806804
 31
0.0
  0
LINE
  5
7CE8
  8
0
 10
387.5745961809681717
 20
39.3820329167806804
 30
0.0
 11
387.6067517499682253
 21
39.3820324225806786
 31
0.0
  0
LINE
  5
7CE9
  8
0
 10
387.6067517499682253
 20
39.3820324225806786
 30
0.0
 11
387.6214286580682256
 21
39.3731314120806815
 31
0.0
  0
ARC
  5
7CEA
  8
0
 10
387.6263550297974803
 20
39.3826854527580323
 30
0.0
 40
0.0107512752948552
 50
242.725750122938706
 51
266.7174572841619238
  0
ARC
  5
7CEB
  8
0
 10
387.5788700795865225
 20
39.3859558969386967
 30
0.0
 40
0.0244614408520638
 50
249.4547893806779086
 51
259.9376460391964088
  0
ARC
  5
7CEC
  8
0
 10
387.5958805596005163
 20
39.4146716383531626
 30
0.0
 40
0.0539089253722099
 50
281.6339574900475213
 51
285.8804385830777051
  0
LINE
  5
7CED
  8
0
 10
387.5556071693682156
 20
39.3921126778806823
 30
0.0
 11
387.5702854255682155
 21
39.3832125118806786
 31
0.0
  0
LINE
  5
7CEE
  8
0
 10
387.6106317048636924
 20
39.3829823581422502
 30
0.0
 11
387.6257394134681817
 21
39.3921140164806829
 31
0.0
  0
LINE
  5
7CEF
  8
0
 10
387.5764662584682014
 20
39.3923334672806789
 30
0.0
 11
387.6048791654682191
 21
39.3923334672806789
 31
0.0
  0
LINE
  5
7CF0
  8
0
 10
387.6048791654682191
 20
39.3923334672806789
 30
0.0
 11
387.6140599379660898
 21
39.3977624720895392
 31
0.0
  0
LINE
  5
7CF1
  8
0
 10
387.5764662584682014
 20
39.3923334672806789
 30
0.0
 11
387.5672858897144124
 21
39.3977622332776534
 31
0.0
  0
ARC
  5
7CF2
  8
0
 10
387.5505983965975929
 20
39.4188905417526314
 30
0.0
 40
0.027242279607474
 50
280.5946906700368118
 51
290.0030495264347792
  0
LINE
  5
7CF3
  8
0
 10
387.5599166947177991
 20
39.3932936316703532
 30
0.0
 11
387.5745961809681717
 21
39.4021951162806801
 31
0.0
  0
LINE
  5
7CF4
  8
0
 10
387.5745961809681717
 20
39.4021951162806801
 30
0.0
 11
387.6067517499682253
 21
39.4021946220806782
 31
0.0
  0
LINE
  5
7CF5
  8
0
 10
387.6067517499682253
 20
39.4021946220806782
 30
0.0
 11
387.6214286580682256
 21
39.3932936115806811
 31
0.0
  0
ARC
  5
7CF6
  8
0
 10
387.6263550297974803
 20
39.402847652258032
 30
0.0
 40
0.0107512752948552
 50
242.725750122938706
 51
266.7174572841619238
  0
ARC
  5
7CF7
  8
0
 10
387.5788700795865225
 20
39.4061180964387106
 30
0.0
 40
0.0244614408520638
 50
249.4547893806779086
 51
259.9376460391964088
  0
ARC
  5
7CF8
  8
0
 10
387.595880559600289
 20
39.434833837853752
 30
0.0
 40
0.0539089253728258
 50
281.6339574900807747
 51
285.8804385830609931
  0
LINE
  5
7CF9
  8
0
 10
387.5556071693682156
 20
39.4122748773806819
 30
0.0
 11
387.5702854255682155
 21
39.4033747113806783
 31
0.0
  0
LINE
  5
7CFA
  8
0
 10
387.6106317048636924
 20
39.4031445576422499
 30
0.0
 11
387.6257394134681817
 21
39.4122762159806825
 31
0.0
  0
LINE
  5
7CFB
  8
0
 10
387.5764662584682014
 20
39.4124956667806785
 30
0.0
 11
387.6048791654682191
 21
39.4124956667806785
 31
0.0
  0
LINE
  5
7CFC
  8
0
 10
387.6048791654682191
 20
39.4124956667806785
 30
0.0
 11
387.6140599379660898
 21
39.4179246715895388
 31
0.0
  0
LINE
  5
7CFD
  8
0
 10
387.5764662584682014
 20
39.4124956667806785
 30
0.0
 11
387.5672858897144124
 21
39.4179244327776601
 31
0.0
  0
ARC
  5
7CFE
  8
0
 10
387.5505983965975929
 20
39.4390527412526168
 30
0.0
 40
0.027242279607474
 50
280.5946906700368118
 51
290.0030495264347792
  0
LINE
  5
7CFF
  8
0
 10
387.5599166947177991
 20
39.4134558311703529
 30
0.0
 11
387.5745961809681717
 21
39.4223573157806797
 31
0.0
  0
LINE
  5
7D00
  8
0
 10
387.5745961809681717
 20
39.4223573157806797
 30
0.0
 11
387.6067517499682253
 21
39.4223568215806779
 31
0.0
  0
LINE
  5
7D01
  8
0
 10
387.6067517499682253
 20
39.4223568215806779
 30
0.0
 11
387.6214286580682256
 21
39.4134558110806807
 31
0.0
  0
ARC
  5
7D02
  8
0
 10
387.6263550297974803
 20
39.4230098517580316
 30
0.0
 40
0.0107512752948552
 50
242.725750122938706
 51
266.7174572841619238
  0
ARC
  5
7D03
  8
0
 10
387.5788700795865225
 20
39.4262802959387102
 30
0.0
 40
0.0244614408520638
 50
249.4547893806779086
 51
259.9376460391964088
  0
ARC
  5
7D04
  8
0
 10
387.595880559600289
 20
39.45499603735378
 30
0.0
 40
0.0539089253728612
 50
281.6339574900841853
 51
285.8804385830641763
  0
LINE
  5
7D05
  8
0
 10
387.5556071693682156
 20
39.4324370768806816
 30
0.0
 11
387.5702854255682155
 21
39.4235369108806779
 31
0.0
  0
LINE
  5
7D06
  8
0
 10
387.6106317048636924
 20
39.4233067571422495
 30
0.0
 11
387.6257394134681817
 21
39.4324384154806822
 31
0.0
  0
LINE
  5
7D07
  8
0
 10
387.5764662584682014
 20
39.4326578662806781
 30
0.0
 11
387.6048791654682191
 21
39.4326578662806781
 31
0.0
  0
LINE
  5
7D08
  8
0
 10
387.6048791654682191
 20
39.4326578662806781
 30
0.0
 11
387.6140599379660898
 21
39.4380868710895385
 31
0.0
  0
LINE
  5
7D09
  8
0
 10
387.5764662584682014
 20
39.4326578662806781
 30
0.0
 11
387.5672858897144124
 21
39.4380866322776527
 31
0.0
  0
ARC
  5
7D0A
  8
0
 10
387.5505983965975929
 20
39.4592149407526307
 30
0.0
 40
0.027242279607474
 50
280.5946906700368118
 51
290.0030495264347792
  0
LINE
  5
7D0B
  8
0
 10
387.5599166947177991
 20
39.4336180306703383
 30
0.0
 11
387.5745961809681717
 21
39.4425195152806793
 31
0.0
  0
LINE
  5
7D0C
  8
0
 10
387.5745961809681717
 20
39.4425195152806793
 30
0.0
 11
387.6067517499682253
 21
39.4425190210806775
 31
0.0
  0
LINE
  5
7D0D
  8
0
 10
387.6067517499682253
 20
39.4425190210806775
 30
0.0
 11
387.6214286580682256
 21
39.4336180105806804
 31
0.0
  0
ARC
  5
7D0E
  8
0
 10
387.6263550297974803
 20
39.4431720512580313
 30
0.0
 40
0.0107512752948552
 50
242.725750122938706
 51
266.7174572841619238
  0
ARC
  5
7D0F
  8
0
 10
387.5788700795865225
 20
39.4464424954387027
 30
0.0
 40
0.0244614408520638
 50
249.4547893806779086
 51
259.9376460391964088
  0
ARC
  5
7D10
  8
0
 10
387.5958805596005163
 20
39.4751582368531473
 30
0.0
 40
0.0539089253722029
 50
281.6339574900475213
 51
285.8804385830778756
  0
LINE
  5
7D11
  8
0
 10
387.5556071693682156
 20
39.4525992763806812
 30
0.0
 11
387.5702854255682155
 21
39.4436991103806776
 31
0.0
  0
LINE
  5
7D12
  8
0
 10
387.6106317048636924
 20
39.4434689566422492
 30
0.0
 11
387.6257394134681817
 21
39.4526006149806818
 31
0.0
  0
LINE
  5
7D13
  8
0
 10
387.5764662584682014
 20
39.4528200657806778
 30
0.0
 11
387.6048791654682191
 21
39.4528200657806778
 31
0.0
  0
LINE
  5
7D14
  8
0
 10
387.6048791654682191
 20
39.4528200657806778
 30
0.0
 11
387.6140599379660898
 21
39.4582490705895381
 31
0.0
  0
LINE
  5
7D15
  8
0
 10
387.5764662584682014
 20
39.4528200657806778
 30
0.0
 11
387.5672858897144124
 21
39.4582488317776523
 31
0.0
  0
ARC
  5
7D16
  8
0
 10
387.5505983965975929
 20
39.4793771402526303
 30
0.0
 40
0.027242279607474
 50
280.5946906700368118
 51
290.0030495264347792
  0
LINE
  5
7D17
  8
0
 10
387.5599166947177991
 20
39.4537802301703522
 30
0.0
 11
387.5745961809681717
 21
39.462681714780679
 31
0.0
  0
LINE
  5
7D18
  8
0
 10
387.5745961809681717
 20
39.462681714780679
 30
0.0
 11
387.6067517499682253
 21
39.4626812205806772
 31
0.0
  0
LINE
  5
7D19
  8
0
 10
387.6067517499682253
 20
39.4626812205806772
 30
0.0
 11
387.6214286580682256
 21
39.45378021008068
 31
0.0
  0
ARC
  5
7D1A
  8
0
 10
387.6263550297974803
 20
39.4633342507580309
 30
0.0
 40
0.0107512752948552
 50
242.725750122938706
 51
266.7174572841619238
  0
ARC
  5
7D1B
  8
0
 10
387.5788700795865225
 20
39.4666046949387095
 30
0.0
 40
0.0244614408520638
 50
249.4547893806779086
 51
259.9376460391964088
  0
ARC
  5
7D1C
  8
0
 10
387.5958805596005163
 20
39.4953204363531825
 30
0.0
 40
0.0539089253722327
 50
281.6339574900475213
 51
285.8804385830745218
  0
LINE
  5
7D1D
  8
0
 10
387.5556071693682156
 20
39.4727614758806808
 30
0.0
 11
387.5702854255682155
 21
39.4638613098806772
 31
0.0
  0
LINE
  5
7D1E
  8
0
 10
387.6106317048636924
 20
39.4636311561422488
 30
0.0
 11
387.6257394134681817
 21
39.4727628144806815
 31
0.0
  0
LINE
  5
7D1F
  8
0
 10
387.5764662584682014
 20
39.4729822652806774
 30
0.0
 11
387.6048791654682191
 21
39.4729822652806774
 31
0.0
  0
LINE
  5
7D20
  8
0
 10
387.6048791654682191
 20
39.4729822652806774
 30
0.0
 11
387.6140599379660898
 21
39.4784112700895378
 31
0.0
  0
LINE
  5
7D21
  8
0
 10
387.5764662584682014
 20
39.4729822652806774
 30
0.0
 11
387.5672858897144124
 21
39.4784110312776519
 31
0.0
  0
ARC
  5
7D22
  8
0
 10
387.5505983965975929
 20
39.4995393397526229
 30
0.0
 40
0.027242279607474
 50
280.5946906700368118
 51
290.0030495264347792
  0
LINE
  5
7D23
  8
0
 10
387.5599166947177991
 20
39.4739424296703518
 30
0.0
 11
387.5745961809681717
 21
39.4828439142806786
 31
0.0
  0
LINE
  5
7D24
  8
0
 10
387.5745961809681717
 20
39.4828439142806786
 30
0.0
 11
387.6067517499682253
 21
39.4828434200806768
 31
0.0
  0
LINE
  5
7D25
  8
0
 10
387.6067517499682253
 20
39.4828434200806768
 30
0.0
 11
387.6214286580682256
 21
39.4739424095806797
 31
0.0
  0
ARC
  5
7D26
  8
0
 10
387.6263550297974803
 20
39.4834964502580306
 30
0.0
 40
0.0107512752948552
 50
242.725750122938706
 51
266.7174572841619238
  0
ARC
  5
7D27
  8
0
 10
387.5788700795865225
 20
39.486766894438702
 30
0.0
 40
0.0244614408520638
 50
249.4547893806779086
 51
259.9376460391964088
  0
ARC
  5
7D28
  8
0
 10
387.5958805596005163
 20
39.5154826358531324
 30
0.0
 40
0.0539089253721933
 50
281.6339574900508183
 51
285.8804385830811725
  0
LINE
  5
7D29
  8
0
 10
387.5622409398396258
 20
39.4888286811634686
 30
0.0
 11
387.5702878783682195
 21
39.48394941705196
 31
0.0
  0
LINE
  5
7D2A
  8
0
 10
387.6106341576636964
 20
39.4837192633135317
 30
0.0
 11
387.624676997034328
 21
39.4922072752676314
 31
0.0
  0
ARC
  5
7D2B
  8
0
 10
387.5768833327791185
 20
39.5007050598532317
 30
0.0
 40
0.0180069871041677
 50
248.5141178930743138
 51
262.7028837256132192
  0
ARC
  5
7D2C
  8
0
 10
387.6027674144332877
 20
39.5095478684415724
 30
0.0
 40
0.0270000461465197
 50
278.4859991893965798
 51
286.9394164969664871
  0
LINE
  5
7D2D
  8
0
 10
387.5044639368682056
 20
39.4626803761806784
 30
0.0
 11
387.5191421930682054
 21
39.4537802101806818
 31
0.0
  0
LINE
  5
7D2E
  8
0
 10
387.5253230259681914
 20
39.4629011655806821
 30
0.0
 11
387.553735932968209
 21
39.4629011655806821
 31
0.0
  0
LINE
  5
7D2F
  8
0
 10
387.5253230259681914
 20
39.4629011655806821
 30
0.0
 11
387.516142657214516
 21
39.4683299315776566
 31
0.0
  0
ARC
  5
7D30
  8
0
 10
387.4994551640975828
 20
39.4894582400526275
 30
0.0
 40
0.027242279607474
 50
280.5946906700368118
 51
290.0030495264347792
  0
LINE
  5
7D31
  8
0
 10
387.5087734622177891
 20
39.4638613299703493
 30
0.0
 11
387.5234529484682184
 21
39.4727628145806833
 31
0.0
  0
LINE
  5
7D32
  8
0
 10
387.5234529484682184
 20
39.4727628145806833
 30
0.0
 11
387.5556071693682156
 21
39.4727614758806808
 31
0.0
  0
ARC
  5
7D33
  8
0
 10
387.5277268470865124
 20
39.4766857947387066
 30
0.0
 40
0.0244614408520638
 50
249.4547893806779086
 51
259.9376460391964088
  0
LINE
  5
7D34
  8
0
 10
387.5044639368682056
 20
39.4425181766806787
 30
0.0
 11
387.5191421930682054
 21
39.4336180106806822
 31
0.0
  0
LINE
  5
7D35
  8
0
 10
387.5253230259681914
 20
39.4427389660806824
 30
0.0
 11
387.553735932968209
 21
39.4427389660806824
 31
0.0
  0
LINE
  5
7D36
  8
0
 10
387.5253230259681914
 20
39.4427389660806824
 30
0.0
 11
387.516142657214516
 21
39.4481677320776569
 31
0.0
  0
ARC
  5
7D37
  8
0
 10
387.4994551640975828
 20
39.4692960405526279
 30
0.0
 40
0.027242279607474
 50
280.5946906700368118
 51
290.0030495264347792
  0
LINE
  5
7D38
  8
0
 10
387.5087734622177891
 20
39.4436991304703497
 30
0.0
 11
387.5234529484682184
 21
39.4526006150806765
 31
0.0
  0
LINE
  5
7D39
  8
0
 10
387.5234529484682184
 20
39.4526006150806765
 30
0.0
 11
387.5556071693682156
 21
39.4525992763806812
 31
0.0
  0
ARC
  5
7D3A
  8
0
 10
387.5277268470865124
 20
39.456523595238707
 30
0.0
 40
0.0244614408520638
 50
249.4547893806779086
 51
259.9376460391964088
  0
LINE
  5
7D3B
  8
0
 10
387.5044639368682056
 20
39.4223559771806791
 30
0.0
 11
387.5191421930682054
 21
39.4134558111806683
 31
0.0
  0
LINE
  5
7D3C
  8
0
 10
387.5253230259681914
 20
39.4225767665806828
 30
0.0
 11
387.553735932968209
 21
39.4225767665806828
 31
0.0
  0
LINE
  5
7D3D
  8
0
 10
387.5253230259681914
 20
39.4225767665806828
 30
0.0
 11
387.516142657214516
 21
39.4280055325776573
 31
0.0
  0
ARC
  5
7D3E
  8
0
 10
387.4994551640975828
 20
39.4491338410526282
 30
0.0
 40
0.027242279607474
 50
280.5946906700368118
 51
290.0030495264347792
  0
LINE
  5
7D3F
  8
0
 10
387.5087734622177891
 20
39.4235369309703501
 30
0.0
 11
387.5234529484682184
 21
39.4324384155806769
 31
0.0
  0
LINE
  5
7D40
  8
0
 10
387.5234529484682184
 20
39.4324384155806769
 30
0.0
 11
387.5556071693682156
 21
39.4324370768806816
 31
0.0
  0
ARC
  5
7D41
  8
0
 10
387.5277268470865124
 20
39.4363613957387074
 30
0.0
 40
0.0244614408520638
 50
249.4547893806779086
 51
259.9376460391964088
  0
LINE
  5
7D42
  8
0
 10
387.5044639368682056
 20
39.4021937775806776
 30
0.0
 11
387.5191421930682054
 21
39.3932936115806811
 31
0.0
  0
LINE
  5
7D43
  8
0
 10
387.5253230259681914
 20
39.4024145669806813
 30
0.0
 11
387.553735932968209
 21
39.4024145669806813
 31
0.0
  0
LINE
  5
7D44
  8
0
 10
387.5253230259681914
 20
39.4024145669806813
 30
0.0
 11
387.516142657214516
 21
39.407843332977663
 31
0.0
  0
ARC
  5
7D45
  8
0
 10
387.4994551640975828
 20
39.4289716414526268
 30
0.0
 40
0.027242279607474
 50
280.5946906700368118
 51
290.0030495264347792
  0
LINE
  5
7D46
  8
0
 10
387.5087734622177891
 20
39.4033747313703486
 30
0.0
 11
387.5234529484682184
 21
39.4122762159806825
 31
0.0
  0
LINE
  5
7D47
  8
0
 10
387.5234529484682184
 20
39.4122762159806825
 30
0.0
 11
387.5556071693682156
 21
39.4122748773806819
 31
0.0
  0
ARC
  5
7D48
  8
0
 10
387.5277268470865124
 20
39.4161991961386988
 30
0.0
 40
0.0244614408520638
 50
249.4547893806779086
 51
259.9376460391964088
  0
LINE
  5
7D49
  8
0
 10
387.5044639368682056
 20
39.382031578080678
 30
0.0
 11
387.5191421930682054
 21
39.3731314120806815
 31
0.0
  0
LINE
  5
7D4A
  8
0
 10
387.5253230259681914
 20
39.3822523674806817
 30
0.0
 11
387.553735932968209
 21
39.3822523674806817
 31
0.0
  0
LINE
  5
7D4B
  8
0
 10
387.5253230259681914
 20
39.3822523674806817
 30
0.0
 11
387.516142657214516
 21
39.3876811334776633
 31
0.0
  0
ARC
  5
7D4C
  8
0
 10
387.4994551640975828
 20
39.4088094419526271
 30
0.0
 40
0.027242279607474
 50
280.5946906700368118
 51
290.0030495264347792
  0
LINE
  5
7D4D
  8
0
 10
387.5087734622177891
 20
39.383212531870349
 30
0.0
 11
387.5234529484682184
 21
39.3921140164806829
 31
0.0
  0
LINE
  5
7D4E
  8
0
 10
387.5234529484682184
 20
39.3921140164806829
 30
0.0
 11
387.5556071693682156
 21
39.3921126778806823
 31
0.0
  0
ARC
  5
7D4F
  8
0
 10
387.5277268470865124
 20
39.3960369966387134
 30
0.0
 40
0.0244614408520638
 50
249.4547893806779086
 51
259.9376460391964088
  0
LINE
  5
7D50
  8
0
 10
387.5044639368682056
 20
39.3618693785806784
 30
0.0
 11
387.5191421930682054
 21
39.3529692125806818
 31
0.0
  0
LINE
  5
7D51
  8
0
 10
387.5253230259681914
 20
39.3620901679806821
 30
0.0
 11
387.553735932968209
 21
39.3620901679806821
 31
0.0
  0
LINE
  5
7D52
  8
0
 10
387.5253230259681914
 20
39.3620901679806821
 30
0.0
 11
387.516142657214516
 21
39.3675189339776566
 31
0.0
  0
ARC
  5
7D53
  8
0
 10
387.4994551640975828
 20
39.3886472424526275
 30
0.0
 40
0.027242279607474
 50
280.5946906700368118
 51
290.0030495264347792
  0
LINE
  5
7D54
  8
0
 10
387.5087734622177891
 20
39.3630503323703493
 30
0.0
 11
387.5234529484682184
 21
39.3719518169806832
 31
0.0
  0
LINE
  5
7D55
  8
0
 10
387.5234529484682184
 20
39.3719518169806832
 30
0.0
 11
387.5556071693682156
 21
39.3719504783806826
 31
0.0
  0
ARC
  5
7D56
  8
0
 10
387.5277268470865124
 20
39.3758747971387066
 30
0.0
 40
0.0244614408520638
 50
249.4547893806779086
 51
259.9376460391964088
  0
LINE
  5
7D57
  8
0
 10
387.5044639368682056
 20
39.3417071790806787
 30
0.0
 11
387.5191421930682054
 21
39.3328070130806822
 31
0.0
  0
LINE
  5
7D58
  8
0
 10
387.5253230259681914
 20
39.3419279684806824
 30
0.0
 11
387.553735932968209
 21
39.3419279684806824
 31
0.0
  0
LINE
  5
7D59
  8
0
 10
387.5253230259681914
 20
39.3419279684806824
 30
0.0
 11
387.516142657214516
 21
39.3473567344776569
 31
0.0
  0
ARC
  5
7D5A
  8
0
 10
387.4994551640975828
 20
39.3684850429526279
 30
0.0
 40
0.027242279607474
 50
280.5946906700368118
 51
290.0030495264347792
  0
LINE
  5
7D5B
  8
0
 10
387.5087734622177891
 20
39.3428881328703497
 30
0.0
 11
387.5234529484682184
 21
39.3517896174806765
 31
0.0
  0
LINE
  5
7D5C
  8
0
 10
387.5234529484682184
 20
39.3517896174806765
 30
0.0
 11
387.5556071693682156
 21
39.351788278880683
 31
0.0
  0
ARC
  5
7D5D
  8
0
 10
387.5277268470865124
 20
39.355712597638707
 30
0.0
 40
0.0244614408520638
 50
249.4547893806779086
 51
259.9376460391964088
  0
LINE
  5
7D5E
  8
0
 10
387.5044639368682056
 20
39.3215449795806791
 30
0.0
 11
387.5191421930682054
 21
39.3126448135806825
 31
0.0
  0
LINE
  5
7D5F
  8
0
 10
387.5253230259681914
 20
39.3217657689806828
 30
0.0
 11
387.553735932968209
 21
39.3217657689806828
 31
0.0
  0
LINE
  5
7D60
  8
0
 10
387.5253230259681914
 20
39.3217657689806828
 30
0.0
 11
387.516142657214516
 21
39.3271945349776502
 31
0.0
  0
ARC
  5
7D61
  8
0
 10
387.4994551640975828
 20
39.3483228434526211
 30
0.0
 40
0.027242279607474
 50
280.5946906700368118
 51
290.0030495264347792
  0
LINE
  5
7D62
  8
0
 10
387.5087734622177891
 20
39.32272593337035
 30
0.0
 11
387.5234529484682184
 21
39.3316274179806769
 31
0.0
  0
LINE
  5
7D63
  8
0
 10
387.5234529484682184
 20
39.3316274179806769
 30
0.0
 11
387.5556096221682196
 21
39.3316268218806826
 31
0.0
  0
ARC
  5
7D64
  8
0
 10
387.5277268470865124
 20
39.3355503981387074
 30
0.0
 40
0.0244614408520638
 50
249.4547893806779086
 51
259.9376460391964088
  0
LINE
  5
7D65
  8
0
 10
387.5537359329392757
 20
39.4629011655806821
 30
0.0
 11
387.5629167054372033
 21
39.4683301703895424
 31
0.0
  0
LINE
  5
7D66
  8
0
 10
387.553735932968209
 20
39.4427389660806824
 30
0.0
 11
387.5629167054660797
 21
39.4481679708895427
 31
0.0
  0
LINE
  5
7D67
  8
0
 10
387.553735932968209
 20
39.4225767665806828
 30
0.0
 11
387.5629167054660797
 21
39.4280057713895289
 31
0.0
  0
LINE
  5
7D68
  8
0
 10
387.553735932968209
 20
39.4024145669806813
 30
0.0
 11
387.5629167054660797
 21
39.4078435717895417
 31
0.0
  0
LINE
  5
7D69
  8
0
 10
387.5537359329392757
 20
39.3822523674806817
 30
0.0
 11
387.5629167054372033
 21
39.387681372289542
 31
0.0
  0
LINE
  5
7D6A
  8
0
 10
387.553735932968209
 20
39.3620901679806821
 30
0.0
 11
387.5629167054660797
 21
39.3675191727895424
 31
0.0
  0
LINE
  5
7D6B
  8
0
 10
387.553735932968209
 20
39.3419279684806824
 30
0.0
 11
387.5629167054660797
 21
39.3473569732895427
 31
0.0
  0
LINE
  5
7D6C
  8
0
 10
387.553735932968209
 20
39.3217657689806828
 30
0.0
 11
387.5629167054660797
 21
39.3271947737895431
 31
0.0
  0
LINE
  5
7D6D
  8
0
 10
387.4533207043681955
 20
39.3316260793806833
 30
0.0
 11
387.4679989605681953
 21
39.3227259133806797
 31
0.0
  0
LINE
  5
7D6E
  8
0
 10
387.4741797934681813
 20
39.3318468687806799
 30
0.0
 11
387.5025927004681989
 21
39.3318468687806799
 31
0.0
  0
LINE
  5
7D6F
  8
0
 10
387.4741797934681813
 20
39.3318468687806799
 30
0.0
 11
387.4649994247143923
 21
39.3372756347776473
 31
0.0
  0
ARC
  5
7D70
  8
0
 10
387.4483119315975728
 20
39.3584039432526325
 30
0.0
 40
0.027242279607474
 50
280.5946906700368118
 51
290.0030495264347792
  0
LINE
  5
7D71
  8
0
 10
387.457630229717779
 20
39.3328070331703472
 30
0.0
 11
387.4723097159682084
 21
39.3417085177806811
 31
0.0
  0
LINE
  5
7D72
  8
0
 10
387.4723097159682084
 20
39.3417085177806811
 30
0.0
 11
387.5044639368682056
 21
39.3417071790806787
 31
0.0
  0
ARC
  5
7D73
  8
0
 10
387.4765836145865023
 20
39.3456314979386974
 30
0.0
 40
0.0244614408520638
 50
249.4547893806779086
 51
259.9376460391964088
  0
LINE
  5
7D74
  8
0
 10
387.5025927004681989
 20
39.3318468687806799
 30
0.0
 11
387.5117734729661265
 21
39.3372758735895403
 31
0.0
  0
LINE
  5
7D75
  8
0
 10
387.4533207043681955
 20
39.351788278880683
 30
0.0
 11
387.4679989605681953
 21
39.3428881128806793
 31
0.0
  0
LINE
  5
7D76
  8
0
 10
387.4741797934681813
 20
39.3520090682806796
 30
0.0
 11
387.5025927004681989
 21
39.3520090682806796
 31
0.0
  0
LINE
  5
7D77
  8
0
 10
387.4741797934681813
 20
39.3520090682806796
 30
0.0
 11
387.4649994247143923
 21
39.3574378342776612
 31
0.0
  0
ARC
  5
7D78
  8
0
 10
387.4483119315975728
 20
39.3785661427526321
 30
0.0
 40
0.027242279607474
 50
280.5946906700368118
 51
290.0030495264347792
  0
LINE
  5
7D79
  8
0
 10
387.457630229717779
 20
39.3529692326703469
 30
0.0
 11
387.4723097159682084
 21
39.3618707172806808
 31
0.0
  0
LINE
  5
7D7A
  8
0
 10
387.4723097159682084
 20
39.3618707172806808
 30
0.0
 11
387.5044639368682056
 21
39.3618693785806784
 31
0.0
  0
ARC
  5
7D7B
  8
0
 10
387.4765836145865023
 20
39.3657936974387113
 30
0.0
 40
0.0244614408520638
 50
249.4547893806779086
 51
259.9376460391964088
  0
LINE
  5
7D7C
  8
0
 10
387.5025927004681989
 20
39.3520090682806796
 30
0.0
 11
387.5117734729661265
 21
39.3574380730895399
 31
0.0
  0
LINE
  5
7D7D
  8
0
 10
387.4533207043681955
 20
39.3719504783806826
 30
0.0
 11
387.4679989605681953
 21
39.363050312380679
 31
0.0
  0
LINE
  5
7D7E
  8
0
 10
387.4741797934681813
 20
39.3721712677806792
 30
0.0
 11
387.5025927004681989
 21
39.3721712677806792
 31
0.0
  0
LINE
  5
7D7F
  8
0
 10
387.4741797934681813
 20
39.3721712677806792
 30
0.0
 11
387.4649994247143923
 21
39.3776000337776608
 31
0.0
  0
ARC
  5
7D80
  8
0
 10
387.4483119315975728
 20
39.3987283422526176
 30
0.0
 40
0.027242279607474
 50
280.5946906700368118
 51
290.0030495264347792
  0
LINE
  5
7D81
  8
0
 10
387.457630229717779
 20
39.3731314321703465
 30
0.0
 11
387.4723097159682084
 21
39.3820329167806804
 31
0.0
  0
LINE
  5
7D82
  8
0
 10
387.4723097159682084
 20
39.3820329167806804
 30
0.0
 11
387.5044639368682056
 21
39.382031578080678
 31
0.0
  0
ARC
  5
7D83
  8
0
 10
387.4765836145865023
 20
39.3859558969386967
 30
0.0
 40
0.0244614408520638
 50
249.4547893806779086
 51
259.9376460391964088
  0
LINE
  5
7D84
  8
0
 10
387.5025927004681989
 20
39.3721712677806792
 30
0.0
 11
387.5117734729661265
 21
39.3776002725895395
 31
0.0
  0
LINE
  5
7D85
  8
0
 10
387.4533207043681955
 20
39.3921126778806681
 30
0.0
 11
387.4679989605681953
 21
39.3832125118806786
 31
0.0
  0
LINE
  5
7D86
  8
0
 10
387.4741797934681813
 20
39.3923334672806789
 30
0.0
 11
387.5025927004681989
 21
39.3923334672806789
 31
0.0
  0
LINE
  5
7D87
  8
0
 10
387.4741797934681813
 20
39.3923334672806789
 30
0.0
 11
387.4649994247143923
 21
39.3977622332776534
 31
0.0
  0
ARC
  5
7D88
  8
0
 10
387.4483119315975728
 20
39.4188905417526314
 30
0.0
 40
0.027242279607474
 50
280.5946906700368118
 51
290.0030495264347792
  0
LINE
  5
7D89
  8
0
 10
387.457630229717779
 20
39.3932936316703532
 30
0.0
 11
387.4723097159682084
 21
39.4021951162806801
 31
0.0
  0
LINE
  5
7D8A
  8
0
 10
387.4723097159682084
 20
39.4021951162806801
 30
0.0
 11
387.5044639368682056
 21
39.4021937775806776
 31
0.0
  0
ARC
  5
7D8B
  8
0
 10
387.4765836145865023
 20
39.4061180964387106
 30
0.0
 40
0.0244614408520638
 50
249.4547893806779086
 51
259.9376460391964088
  0
LINE
  5
7D8C
  8
0
 10
387.5025927004681989
 20
39.3923334672806789
 30
0.0
 11
387.5117734729661265
 21
39.3977624720895392
 31
0.0
  0
LINE
  5
7D8D
  8
0
 10
387.4533207043681955
 20
39.4122748773806819
 30
0.0
 11
387.4679989605681953
 21
39.4033747113806783
 31
0.0
  0
LINE
  5
7D8E
  8
0
 10
387.4741797934681813
 20
39.4124956667806785
 30
0.0
 11
387.5025927004681989
 21
39.4124956667806785
 31
0.0
  0
LINE
  5
7D8F
  8
0
 10
387.4741797934681813
 20
39.4124956667806785
 30
0.0
 11
387.4649994247143923
 21
39.4179244327776601
 31
0.0
  0
ARC
  5
7D90
  8
0
 10
387.4483119315975728
 20
39.4390527412526168
 30
0.0
 40
0.027242279607474
 50
280.5946906700368118
 51
290.0030495264347792
  0
LINE
  5
7D91
  8
0
 10
387.457630229717779
 20
39.4134558311703529
 30
0.0
 11
387.4723097159682084
 21
39.4223573157806797
 31
0.0
  0
LINE
  5
7D92
  8
0
 10
387.4723097159682084
 20
39.4223573157806797
 30
0.0
 11
387.5044639368682056
 21
39.4223559771806791
 31
0.0
  0
ARC
  5
7D93
  8
0
 10
387.4765836145865023
 20
39.4262802959387102
 30
0.0
 40
0.0244614408520638
 50
249.4547893806779086
 51
259.9376460391964088
  0
LINE
  5
7D94
  8
0
 10
387.5025927004681989
 20
39.4124956667806785
 30
0.0
 11
387.5117734729661265
 21
39.4179246715895388
 31
0.0
  0
LINE
  5
7D95
  8
0
 10
387.4533207043681955
 20
39.4324370768806816
 30
0.0
 11
387.4679989605681953
 21
39.4235369108806779
 31
0.0
  0
LINE
  5
7D96
  8
0
 10
387.4741797934681813
 20
39.4326578662806781
 30
0.0
 11
387.5025927004681989
 21
39.4326578662806781
 31
0.0
  0
LINE
  5
7D97
  8
0
 10
387.4741797934681813
 20
39.4326578662806781
 30
0.0
 11
387.4649994247143923
 21
39.4380866322776527
 31
0.0
  0
ARC
  5
7D98
  8
0
 10
387.4483119315975728
 20
39.4592149407526307
 30
0.0
 40
0.027242279607474
 50
280.5946906700368118
 51
290.0030495264347792
  0
LINE
  5
7D99
  8
0
 10
387.457630229717779
 20
39.4336180306703383
 30
0.0
 11
387.4723097159682084
 21
39.4425195152806793
 31
0.0
  0
LINE
  5
7D9A
  8
0
 10
387.4723097159682084
 20
39.4425195152806793
 30
0.0
 11
387.5044639368682056
 21
39.4425181766806787
 31
0.0
  0
ARC
  5
7D9B
  8
0
 10
387.4765836145865023
 20
39.4464424954387027
 30
0.0
 40
0.0244614408520638
 50
249.4547893806779086
 51
259.9376460391964088
  0
LINE
  5
7D9C
  8
0
 10
387.5025927004681989
 20
39.4326578662806781
 30
0.0
 11
387.5117734729661265
 21
39.4380868710895385
 31
0.0
  0
LINE
  5
7D9D
  8
0
 10
387.4533207043681955
 20
39.4525992763806812
 30
0.0
 11
387.4679989605681953
 21
39.4436991103806776
 31
0.0
  0
LINE
  5
7D9E
  8
0
 10
387.4741797934681813
 20
39.4528200657806778
 30
0.0
 11
387.5025927004681989
 21
39.4528200657806778
 31
0.0
  0
LINE
  5
7D9F
  8
0
 10
387.4741797934681813
 20
39.4528200657806778
 30
0.0
 11
387.4649994247143923
 21
39.4582488317776523
 31
0.0
  0
ARC
  5
7DA0
  8
0
 10
387.4483119315975728
 20
39.4793771402526303
 30
0.0
 40
0.027242279607474
 50
280.5946906700368118
 51
290.0030495264347792
  0
LINE
  5
7DA1
  8
0
 10
387.457630229717779
 20
39.4537802301703522
 30
0.0
 11
387.4723097159682084
 21
39.462681714780679
 31
0.0
  0
LINE
  5
7DA2
  8
0
 10
387.4723097159682084
 20
39.462681714780679
 30
0.0
 11
387.5044639368682056
 21
39.4626803761806784
 31
0.0
  0
ARC
  5
7DA3
  8
0
 10
387.4765836145865023
 20
39.4666046949387024
 30
0.0
 40
0.0244614408520638
 50
249.4547893806779086
 51
259.9376460391964088
  0
LINE
  5
7DA4
  8
0
 10
387.5025927004681989
 20
39.4528200657806778
 30
0.0
 11
387.5117734729661265
 21
39.4582490705895381
 31
0.0
  0
LINE
  5
7DA5
  8
0
 10
387.4021774718681854
 20
39.4425181766806787
 30
0.0
 11
387.4168557280681853
 21
39.4336180106806822
 31
0.0
  0
LINE
  5
7DA6
  8
0
 10
387.4230365609682281
 20
39.4427389660806824
 30
0.0
 11
387.4514494679681889
 21
39.4427389660806824
 31
0.0
  0
LINE
  5
7DA7
  8
0
 10
387.4230365609682281
 20
39.4427389660806824
 30
0.0
 11
387.4138561922144959
 21
39.4481677320776569
 31
0.0
  0
ARC
  5
7DA8
  8
0
 10
387.3971686990976195
 20
39.4692960405526279
 30
0.0
 40
0.027242279607474
 50
280.5946906700368118
 51
290.0030495264347792
  0
LINE
  5
7DA9
  8
0
 10
387.4064869972178258
 20
39.4436991304703497
 30
0.0
 11
387.4211664834681983
 21
39.4526006150806765
 31
0.0
  0
LINE
  5
7DAA
  8
0
 10
387.4211664834681983
 20
39.4526006150806765
 30
0.0
 11
387.4533207043681955
 21
39.4525992763806812
 31
0.0
  0
ARC
  5
7DAB
  8
0
 10
387.4254403820864923
 20
39.456523595238707
 30
0.0
 40
0.0244614408520638
 50
249.4547893806779086
 51
259.9376460391964088
  0
LINE
  5
7DAC
  8
0
 10
387.4514494679681889
 20
39.4427389660806824
 30
0.0
 11
387.4606302404661164
 21
39.4481679708895427
 31
0.0
  0
LINE
  5
7DAD
  8
0
 10
387.4021774718681854
 20
39.4223559771806791
 30
0.0
 11
387.4168557280681853
 21
39.4134558111806683
 31
0.0
  0
LINE
  5
7DAE
  8
0
 10
387.4230365609682281
 20
39.4225767665806828
 30
0.0
 11
387.4514494679681889
 21
39.4225767665806828
 31
0.0
  0
LINE
  5
7DAF
  8
0
 10
387.4230365609682281
 20
39.4225767665806828
 30
0.0
 11
387.4138561922144959
 21
39.4280055325776573
 31
0.0
  0
ARC
  5
7DB0
  8
0
 10
387.3971686990976195
 20
39.4491338410526282
 30
0.0
 40
0.027242279607474
 50
280.5946906700368118
 51
290.0030495264347792
  0
LINE
  5
7DB1
  8
0
 10
387.4064869972178258
 20
39.4235369309703501
 30
0.0
 11
387.4211664834681983
 21
39.4324384155806769
 31
0.0
  0
LINE
  5
7DB2
  8
0
 10
387.4211664834681983
 20
39.4324384155806769
 30
0.0
 11
387.4533207043681955
 21
39.4324370768806816
 31
0.0
  0
ARC
  5
7DB3
  8
0
 10
387.4254403820864923
 20
39.4363613957387074
 30
0.0
 40
0.0244614408520638
 50
249.4547893806779086
 51
259.9376460391964088
  0
LINE
  5
7DB4
  8
0
 10
387.4514494679681889
 20
39.4225767665806828
 30
0.0
 11
387.4606302404661164
 21
39.4280057713895289
 31
0.0
  0
LINE
  5
7DB5
  8
0
 10
387.4021774718181064
 20
39.4024894798806784
 30
0.0
 11
387.4168557280182199
 21
39.3935893138806819
 31
0.0
  0
LINE
  5
7DB6
  8
0
 10
387.4230365609182059
 20
39.4027102692806821
 30
0.0
 11
387.4514494679182235
 21
39.4027102692806821
 31
0.0
  0
LINE
  5
7DB7
  8
0
 10
387.4230365609182059
 20
39.4027102692806821
 30
0.0
 11
387.4138561921644168
 21
39.4081390352776566
 31
0.0
  0
ARC
  5
7DB8
  8
0
 10
387.3971686990475973
 20
39.4292673437526275
 30
0.0
 40
0.027242279607474
 50
280.5946906700368118
 51
290.0030495264347792
  0
LINE
  5
7DB9
  8
0
 10
387.4064869971679173
 20
39.4036704336703494
 30
0.0
 11
387.4211664834181761
 21
39.4125719182806833
 31
0.0
  0
LINE
  5
7DBA
  8
0
 10
387.4211664834181761
 20
39.4125719182806833
 30
0.0
 11
387.4533207043681955
 21
39.4122748773806819
 31
0.0
  0
ARC
  5
7DBB
  8
0
 10
387.4254403820365269
 20
39.4164948984387067
 30
0.0
 40
0.0244614408520638
 50
249.4547893806779086
 51
259.9376460391964088
  0
LINE
  5
7DBC
  8
0
 10
387.4514494679182235
 20
39.4027102692806821
 30
0.0
 11
387.4606302404160942
 21
39.4081392740895424
 31
0.0
  0
LINE
  5
7DBD
  8
0
 10
387.4021774718181064
 20
39.3823272803806788
 30
0.0
 11
387.4168557280182199
 21
39.3734271143806822
 31
0.0
  0
LINE
  5
7DBE
  8
0
 10
387.4230365609182059
 20
39.3825480697806825
 30
0.0
 11
387.4514494679182235
 21
39.3825480697806825
 31
0.0
  0
LINE
  5
7DBF
  8
0
 10
387.4230365609182059
 20
39.3825480697806825
 30
0.0
 11
387.4138561921644168
 21
39.387976835777657
 31
0.0
  0
ARC
  5
7DC0
  8
0
 10
387.3971686990475973
 20
39.4091051442526279
 30
0.0
 40
0.027242279607474
 50
280.5946906700368118
 51
290.0030495264347792
  0
LINE
  5
7DC1
  8
0
 10
387.4064869971679173
 20
39.3835082341703497
 30
0.0
 11
387.4211664834181761
 21
39.3924097187806765
 31
0.0
  0
LINE
  5
7DC2
  8
0
 10
387.4211664834181761
 20
39.3924097187806765
 30
0.0
 11
387.4533207043681955
 21
39.3921126778806681
 31
0.0
  0
ARC
  5
7DC3
  8
0
 10
387.4254403820365269
 20
39.396332698938707
 30
0.0
 40
0.0244614408520638
 50
249.4547893806779086
 51
259.9376460391964088
  0
LINE
  5
7DC4
  8
0
 10
387.4514494679182235
 20
39.3825480697806825
 30
0.0
 11
387.4606302404160942
 21
39.3879770745895428
 31
0.0
  0
LINE
  5
7DC5
  8
0
 10
387.4021774718681854
 20
39.3618693785806784
 30
0.0
 11
387.4168557280681853
 21
39.3529692125806818
 31
0.0
  0
LINE
  5
7DC6
  8
0
 10
387.4230365609682281
 20
39.3620901679806821
 30
0.0
 11
387.4514494679681889
 21
39.3620901679806821
 31
0.0
  0
LINE
  5
7DC7
  8
0
 10
387.4230365609682281
 20
39.3620901679806821
 30
0.0
 11
387.4138561922144959
 21
39.3675189339776566
 31
0.0
  0
ARC
  5
7DC8
  8
0
 10
387.3971686990976195
 20
39.3886472424526275
 30
0.0
 40
0.027242279607474
 50
280.5946906700368118
 51
290.0030495264347792
  0
LINE
  5
7DC9
  8
0
 10
387.4064869972178258
 20
39.3630503323703493
 30
0.0
 11
387.4211664834681983
 21
39.3719518169806832
 31
0.0
  0
LINE
  5
7DCA
  8
0
 10
387.4211664834681983
 20
39.3719518169806832
 30
0.0
 11
387.4533207043681955
 21
39.3719504783806826
 31
0.0
  0
ARC
  5
7DCB
  8
0
 10
387.4254403820864923
 20
39.3758747971387066
 30
0.0
 40
0.0244614408520638
 50
249.4547893806779086
 51
259.9376460391964088
  0
LINE
  5
7DCC
  8
0
 10
387.4514494679681889
 20
39.3620901679806821
 30
0.0
 11
387.4606302404661164
 21
39.3675191727895424
 31
0.0
  0
LINE
  5
7DCD
  8
0
 10
387.4021774718681854
 20
39.3417071790806787
 30
0.0
 11
387.4168557280681853
 21
39.3328070130806822
 31
0.0
  0
LINE
  5
7DCE
  8
0
 10
387.4230365609682281
 20
39.3419279684806824
 30
0.0
 11
387.4514494679681889
 21
39.3419279684806824
 31
0.0
  0
LINE
  5
7DCF
  8
0
 10
387.4230365609682281
 20
39.3419279684806824
 30
0.0
 11
387.4138561922144959
 21
39.3473567344776569
 31
0.0
  0
ARC
  5
7DD0
  8
0
 10
387.3971686990976195
 20
39.3684850429526279
 30
0.0
 40
0.027242279607474
 50
280.5946906700368118
 51
290.0030495264347792
  0
LINE
  5
7DD1
  8
0
 10
387.4064869972178258
 20
39.3428881328703497
 30
0.0
 11
387.4211664834681983
 21
39.3517896174806765
 31
0.0
  0
LINE
  5
7DD2
  8
0
 10
387.4211664834681983
 20
39.3517896174806765
 30
0.0
 11
387.4533207043681955
 21
39.351788278880683
 31
0.0
  0
ARC
  5
7DD3
  8
0
 10
387.4254403820864923
 20
39.355712597638707
 30
0.0
 40
0.0244614408520638
 50
249.4547893806779086
 51
259.9376460391964088
  0
LINE
  5
7DD4
  8
0
 10
387.4514494679681889
 20
39.3419279684806824
 30
0.0
 11
387.4606302404661164
 21
39.3473569732895427
 31
0.0
  0
LINE
  5
7DD5
  8
0
 10
387.3510342393681753
 20
39.4122748773806819
 30
0.0
 11
387.3657124955681752
 21
39.4033747113806783
 31
0.0
  0
LINE
  5
7DD6
  8
0
 10
387.371893328468218
 20
39.4124956667806785
 30
0.0
 11
387.4003062354681788
 21
39.4124956667806785
 31
0.0
  0
LINE
  5
7DD7
  8
0
 10
387.371893328468218
 20
39.4124956667806785
 30
0.0
 11
387.3627129597143721
 21
39.4179244327776601
 31
0.0
  0
ARC
  5
7DD8
  8
0
 10
387.3460254665976095
 20
39.4390527412526168
 30
0.0
 40
0.027242279607474
 50
280.5946906700368118
 51
290.0030495264347792
  0
LINE
  5
7DD9
  8
0
 10
387.3553437647178157
 20
39.4134558311703529
 30
0.0
 11
387.3700232509681882
 21
39.4223573157806797
 31
0.0
  0
LINE
  5
7DDA
  8
0
 10
387.3700232509681882
 20
39.4223573157806797
 30
0.0
 11
387.4021774718681854
 21
39.4223559771806791
 31
0.0
  0
ARC
  5
7DDB
  8
0
 10
387.3742971495864822
 20
39.4262802959387102
 30
0.0
 40
0.0244614408520638
 50
249.4547893806779086
 51
259.9376460391964088
  0
LINE
  5
7DDC
  8
0
 10
387.4003062354681788
 20
39.4124956667806785
 30
0.0
 11
387.4094870079661064
 21
39.4179246715895388
 31
0.0
  0
LINE
  5
7DDD
  8
0
 10
387.3510342393681753
 20
39.3921126778806681
 30
0.0
 11
387.3657124955681752
 21
39.3832125118806786
 31
0.0
  0
LINE
  5
7DDE
  8
0
 10
387.371893328468218
 20
39.3923334672806789
 30
0.0
 11
387.4003062354681788
 21
39.3923334672806789
 31
0.0
  0
LINE
  5
7DDF
  8
0
 10
387.371893328468218
 20
39.3923334672806789
 30
0.0
 11
387.3627129597143721
 21
39.3977622332776534
 31
0.0
  0
ARC
  5
7DE0
  8
0
 10
387.3460254665976095
 20
39.4188905417526314
 30
0.0
 40
0.027242279607474
 50
280.5946906700368118
 51
290.0030495264347792
  0
LINE
  5
7DE1
  8
0
 10
387.3553437647178157
 20
39.3932936316703532
 30
0.0
 11
387.3700232509681882
 21
39.4021951162806801
 31
0.0
  0
LINE
  5
7DE2
  8
0
 10
387.3700232509681882
 20
39.4021951162806801
 30
0.0
 11
387.4021774718181064
 21
39.4024894798806784
 31
0.0
  0
ARC
  5
7DE3
  8
0
 10
387.3742971495864822
 20
39.4061180964387106
 30
0.0
 40
0.0244614408520638
 50
249.4547893806779086
 51
259.9376460391964088
  0
LINE
  5
7DE4
  8
0
 10
387.4003062354681788
 20
39.3923334672806789
 30
0.0
 11
387.4094870079661064
 21
39.3977624720895392
 31
0.0
  0
LINE
  5
7DE5
  8
0
 10
387.3510342393681753
 20
39.3719504783806826
 30
0.0
 11
387.3657124955681752
 21
39.363050312380679
 31
0.0
  0
LINE
  5
7DE6
  8
0
 10
387.371893328468218
 20
39.3721712677806792
 30
0.0
 11
387.4003062354681788
 21
39.3721712677806792
 31
0.0
  0
LINE
  5
7DE7
  8
0
 10
387.371893328468218
 20
39.3721712677806792
 30
0.0
 11
387.3627129597143721
 21
39.3776000337776608
 31
0.0
  0
ARC
  5
7DE8
  8
0
 10
387.3460254665976095
 20
39.3987283422526176
 30
0.0
 40
0.027242279607474
 50
280.5946906700368118
 51
290.0030495264347792
  0
LINE
  5
7DE9
  8
0
 10
387.3553437647178157
 20
39.3731314321703465
 30
0.0
 11
387.3700232509681882
 21
39.3820329167806804
 31
0.0
  0
LINE
  5
7DEA
  8
0
 10
387.3700232509681882
 20
39.3820329167806804
 30
0.0
 11
387.4021774718181064
 21
39.3823272803806788
 31
0.0
  0
ARC
  5
7DEB
  8
0
 10
387.3742971495864822
 20
39.3859558969386967
 30
0.0
 40
0.0244614408520638
 50
249.4547893806779086
 51
259.9376460391964088
  0
LINE
  5
7DEC
  8
0
 10
387.4003062354681788
 20
39.3721712677806792
 30
0.0
 11
387.4094870079661064
 21
39.3776002725895395
 31
0.0
  0
LINE
  5
7DED
  8
0
 10
387.371893328468218
 20
39.3520090682806796
 30
0.0
 11
387.4003062354681788
 21
39.3520090682806796
 31
0.0
  0
LINE
  5
7DEE
  8
0
 10
387.371893328468218
 20
39.3520090682806796
 30
0.0
 11
387.3627129597143721
 21
39.3574378342776612
 31
0.0
  0
LINE
  5
7DEF
  8
0
 10
387.3610759059288853
 20
39.3564451422426629
 30
0.0
 11
387.3700232509681882
 21
39.3618707172806808
 31
0.0
  0
LINE
  5
7DF0
  8
0
 10
387.3700232509681882
 20
39.3618707172806808
 30
0.0
 11
387.4021774718681854
 21
39.3618693785806784
 31
0.0
  0
LINE
  5
7DF1
  8
0
 10
387.4003062354681788
 20
39.3520090682806796
 30
0.0
 11
387.4094870079661064
 21
39.3574380730895399
 31
0.0
  0
ARC
  5
7DF2
  8
0
 10
387.4893082807043925
 20
39.36606204001545
 30
0.0
 40
0.1318680224057473
 50
179.1331546117511095
 51
181.5947999946124867
  0
ARC
  5
7DF3
  8
0
 10
387.3645423290763006
 20
39.3625883436452924
 30
0.0
 40
0.0070537233364144
 50
181.5947999946166078
 51
240.5652743930992017
  0
LINE
  5
7DF4
  8
0
 10
387.3510342393681753
 20
39.4122748773806819
 30
0.0
 11
387.3390457524942008
 21
39.4122768133806787
 31
0.0
  0
LINE
  5
7DF5
  8
0
 10
387.3583733674681753
 20
39.4078247943806801
 30
0.0
 11
387.3491642563682262
 21
39.4024156585806793
 31
0.0
  0
LINE
  5
7DF6
  8
0
 10
387.3491642563682262
 20
39.4024156585806793
 30
0.0
 11
387.3331704064078167
 21
39.4024156585806793
 31
0.0
  0
LINE
  5
7DF7
  8
0
 10
387.3510342393681753
 20
39.3921126778806681
 30
0.0
 11
387.3303237504916865
 21
39.3921126778806681
 31
0.0
  0
LINE
  5
7DF8
  8
0
 10
387.3583733674681753
 20
39.3876625948806804
 30
0.0
 11
387.3491642563682262
 21
39.3822534590806796
 31
0.0
  0
LINE
  5
7DF9
  8
0
 10
387.3491642563682262
 20
39.3822534590806796
 30
0.0
 11
387.3412349617681798
 21
39.3822534590806796
 31
0.0
  0
LINE
  5
7DFA
  8
0
 10
387.3412349617681798
 20
39.3822534590806796
 30
0.0
 11
387.3431508896682089
 21
39.3719536423806815
 31
0.0
  0
LINE
  5
7DFB
  8
0
 10
387.3431508896682089
 20
39.3719536423806815
 30
0.0
 11
387.3510342393681753
 21
39.3719504783806826
 31
0.0
  0
LINE
  5
7DFC
  8
0
 10
387.3412349617681798
 20
39.3822534590806796
 30
0.0
 11
387.3347135674056858
 21
39.3921126778806681
 31
0.0
  0
LINE
  5
7DFD
  8
0
 10
387.4021800734681733
 20
39.3417091150806826
 30
0.0
 11
387.386154945968201
 21
39.3417082706806767
 31
0.0
  0
LINE
  5
7DFE
  8
0
 10
387.3816616956681855
 20
39.3483097137806794
 30
0.0
 11
387.3816616956681855
 21
39.3520090682806796
 31
0.0
  0
ARC
  5
7DFF
  8
0
 10
387.3876012472487105
 20
39.3475147711561988
 30
0.0
 40
0.0059925125576443
 50
172.3769016860744046
 51
256.0494822767773258
  0
LINE
  5
7E00
  8
0
 10
387.3668526347174179
 20
39.4356404885894491
 30
0.0
 11
387.3718945819682062
 21
39.4326589578806832
 31
0.0
  0
LINE
  5
7E01
  8
0
 10
387.3718945819682062
 20
39.4326589578806832
 30
0.0
 11
387.4003074888681795
 21
39.4326589578806832
 31
0.0
  0
LINE
  5
7E02
  8
0
 10
387.4003074888681795
 20
39.4326589578806832
 30
0.0
 11
387.409484331381293
 21
39.4380876597500887
 31
0.0
  0
LINE
  5
7E03
  8
0
 10
387.3571841981201942
 20
39.4285797298391998
 30
0.0
 11
387.3659255805678754
 21
39.4234160963605405
 31
0.0
  0
LINE
  5
7E04
  8
0
 10
387.3659255805678754
 20
39.4234160963605405
 30
0.0
 11
387.3700245043681889
 21
39.422358407280683
 31
0.0
  0
LINE
  5
7E05
  8
0
 10
387.3512600247320847
 20
39.4238171804147015
 30
0.0
 11
387.3582489897681853
 21
39.4279500705806782
 31
0.0
  0
LINE
  5
7E06
  8
0
 10
387.4021774718681854
 20
39.4425181766806787
 30
0.0
 11
387.3775279146448156
 21
39.4425181766806787
 31
0.0
  0
LINE
  5
7E07
  8
0
 10
387.4211664834681983
 20
39.4526006150806765
 30
0.0
 11
387.4172852750112952
 21
39.4535490079153277
 31
0.0
  0
LINE
  5
7E08
  8
0
 10
387.4172852750112952
 20
39.4535490079153277
 30
0.0
 11
387.4097089361574149
 21
39.4583507457556166
 31
0.0
  0
LINE
  5
7E09
  8
0
 10
387.4233693945749906
 20
39.4631503951022822
 30
0.0
 11
387.451840289726988
 21
39.4631326264172984
 31
0.0
  0
LINE
  5
7E0A
  8
0
 10
387.451840289726988
 20
39.4631326264172984
 30
0.0
 11
387.4605594783349147
 21
39.4682886757988882
 31
0.0
  0
LINE
  5
7E0B
  8
0
 10
387.4555797610872787
 20
39.4712527732875529
 30
0.0
 11
387.4680002851678182
 21
39.4638596538784086
 31
0.0
  0
LINE
  5
7E0C
  8
0
 10
387.4680002851678182
 20
39.4638596538784086
 30
0.0
 11
387.4723097159682084
 21
39.462681714780679
 31
0.0
  0
LINE
  5
7E0D
  8
0
 10
387.4709515829682118
 20
39.4748930845806782
 30
0.0
 11
387.4741810469682264
 21
39.4729833568806683
 31
0.0
  0
LINE
  5
7E0E
  8
0
 10
387.4741810469682264
 20
39.4729833568806683
 30
0.0
 11
387.5025939539681872
 21
39.4729833568806683
 31
0.0
  0
LINE
  5
7E0F
  8
0
 10
387.5025939539681872
 20
39.4729833568806683
 30
0.0
 11
387.5116786872682155
 21
39.47835556928068
 31
0.0
  0
LINE
  5
7E10
  8
0
 10
387.5059297891917822
 20
39.4817551519287591
 30
0.0
 11
387.5191430448682013
 21
39.4739415580806821
 31
0.0
  0
LINE
  5
7E11
  8
0
 10
387.5191430448682013
 20
39.4739415580806821
 30
0.0
 11
387.5234529484682184
 21
39.4727628145806833
 31
0.0
  0
LINE
  5
7E12
  8
0
 10
387.522910380515782
 20
39.484381521024531
 30
0.0
 11
387.5253242794681796
 21
39.4830644565806779
 31
0.0
  0
LINE
  5
7E13
  8
0
 10
387.5253242794681796
 20
39.4830644565806779
 30
0.0
 11
387.5537371864681973
 21
39.4830644565806779
 31
0.0
  0
LINE
  5
7E14
  8
0
 10
387.5537371864681973
 20
39.4830644565806779
 30
0.0
 11
387.5628550957234779
 21
39.4884562875192415
 31
0.0
  0
LINE
  5
7E15
  8
0
 10
387.5234529484682184
 20
39.3114652184806772
 30
0.0
 11
387.5556084228682039
 21
39.3114649713806799
 31
0.0
  0
LINE
  5
7E16
  8
0
 10
387.5044639368682056
 20
39.3215449795806791
 30
0.0
 11
387.4723097159682084
 21
39.3215463182806815
 31
0.0
  0
LINE
  5
7E17
  8
0
 10
387.4211664834681983
 20
39.3316274179806769
 30
0.0
 11
387.4533207043681955
 21
39.3316260793806833
 31
0.0
  0
LINE
  5
7E18
  8
0
 10
387.4176022214682007
 20
39.3292969741806786
 30
0.0
 11
387.4214228058027061
 21
39.3316271708806795
 31
0.0
  0
LINE
  5
7E19
  8
0
 10
387.4120066743681718
 20
39.3350657700806821
 30
0.0
 11
387.4120038059019748
 21
39.3357489778556584
 31
0.0
  0
ARC
  5
7E1A
  8
0
 10
387.418457238804308
 20
39.3348889507713224
 30
0.0
 40
0.006452987417704
 50
178.4298329283996054
 51
238.1681869482858076
  0
ARC
  5
7E1B
  8
0
 10
387.4164252852147001
 20
39.3316158045023698
 30
0.0
 40
0.0026004140065619
 50
238.1681869482897866
 51
296.9103451068485242
  0
ARC
  5
7E1C
  8
0
 10
387.4621091690668209
 20
39.3210451183666265
 30
0.0
 40
0.0051823741026098
 50
177.0854098663513128
 51
283.4671313726519202
  0
ARC
  5
7E1D
  8
0
 10
387.5128080186785269
 20
39.3109160517245826
 30
0.0
 40
0.0051992972063351
 50
179.6166150058132018
 51
291.7456925207919767
  0
ARC
  5
7E1E
  8
0
 10
387.5693222547222945
 20
39.3042555972504601
 30
0.0
 40
0.0053513961101779
 50
183.1594393113483932
 51
298.6580479478196253
  0
ARC
  5
7E1F
  8
0
 10
387.6168050506763052
 20
39.3022792163541297
 30
0.0
 40
0.0061060031121602
 50
234.7816546079355078
 51
345.9036769238089732
  0
LINE
  5
7E20
  8
0
 10
387.6132837557681796
 20
39.297290854280682
 30
0.0
 11
387.6065252593317041
 21
39.3013838715806827
 31
0.0
  0
LINE
  5
7E21
  8
0
 10
387.5718886832681846
 20
39.2995597602806797
 30
0.0
 11
387.5749195287924067
 21
39.301385212322252
 31
0.0
  0
LINE
  5
7E22
  8
0
 10
387.5639789925681953
 20
39.3039606567806814
 30
0.0
 11
387.5639789925681953
 21
39.3063945333579596
 31
0.0
  0
LINE
  5
7E23
  8
0
 10
387.5147342938681732
 20
39.306086749980679
 30
0.0
 11
387.5236993251457989
 21
39.3114649713806799
 31
0.0
  0
LINE
  5
7E24
  8
0
 10
387.5076135797161783
 20
39.3107412958512796
 30
0.0
 11
387.507608837823625
 21
39.3146512877543017
 31
0.0
  0
LINE
  5
7E25
  8
0
 10
387.507608837823625
 20
39.3146512877543017
 30
0.0
 11
387.4723097159682084
 21
39.3215463182806815
 31
0.0
  0
LINE
  5
7E26
  8
0
 10
387.4723097159682084
 20
39.3215463182806815
 30
0.0
 11
387.463316079268111
 21
39.3160052404806777
 31
0.0
  0
LINE
  5
7E27
  8
0
 10
387.4569334986682065
 20
39.3213086278806827
 30
0.0
 11
387.4569334986859985
 21
39.3250090739034519
 31
0.0
  0
LINE
  5
7E28
  8
0
 10
387.4569334986859985
 20
39.3250090739034519
 30
0.0
 11
387.4606203711099965
 21
39.3271999237895713
 31
0.0
  0
LINE
  5
7E29
  8
0
 10
387.4569334985819182
 20
39.3250090739296212
 30
0.0
 11
387.4331265147375802
 21
39.3316271708806795
 31
0.0
  0
LINE
  5
7E2A
  8
0
 10
387.5076088378681902
 20
39.3146512509781374
 30
0.0
 11
387.5117142300002229
 21
39.3171487616958899
 31
0.0
  0
LINE
  5
7E2B
  8
0
 10
387.5290287848205253
 20
39.3114651756329465
 30
0.0
 11
387.5615816803972962
 21
39.3078430844994813
 31
0.0
  0
ARC
  5
7E2C
  8
0
 10
387.6331815582973945
 20
38.5151149485710818
 30
0.0
 40
1.273437084423789
 50
66.4303125930820073
 51
89.6116322211320266
  0
ARC
  5
7E2D
  8
0
 10
388.0489022098249734
 20
39.4995288344030016
 30
0.0
 40
0.2053032942179855
 50
306.5118629495585765
 51
62.9136857921273034
  0
ARC
  5
7E2E
  8
0
 10
387.5879925547213247
 20
40.5689767551708727
 30
0.0
 40
1.3652276964655461
 50
272.2593276147426877
 51
295.2824593784724243
  0
ARC
  5
7E2F
  8
0
 10
387.6514527695176184
 20
38.5206692296507569
 30
0.0
 40
1.025420511459473
 50
65.0994047477186797
 51
90.5386212518521631
  0
ARC
  5
7E30
  8
0
 10
388.0463535435840186
 20
39.379932292173109
 30
0.0
 40
0.079844869396254
 50
305.045864588334382
 51
62.516671989194208
  0
ARC
  5
7E31
  8
0
 10
387.6130392081138893
 20
40.3832731847233006
 30
0.0
 40
1.1712119902253739
 50
271.4077687929346894
 51
294.1494359047554781
  0
ARC
  5
7E32
  8
0
 10
387.6659300008321907
 20
40.0032675021803499
 30
0.0
 40
0.7527903458020661
 50
268.1641291247553909
 51
292.5683205778731235
  0
ARC
  5
7E33
  8
0
 10
387.9135588807798172
 20
39.4147799579990732
 30
0.0
 40
0.1143660828274083
 50
291.1586488020807906
 51
328.2006521307508251
  0
ARC
  5
7E34
  8
0
 10
387.9693324486055985
 20
39.380199759669118
 30
0.0
 40
0.0487422991468073
 50
328.200652130750882
 51
50.0380262515982821
  0
ARC
  5
7E35
  8
0
 10
387.6442292799850975
 20
38.4835931003120066
 30
0.0
 40
1.024005321103634
 50
81.258160004129266
 51
90.1351846583630163
  0
ARC
  5
7E36
  8
0
 10
387.7121268183984739
 20
38.894222186160512
 30
0.0
 40
0.6078453726237872
 50
69.0291095171766074
 51
81.7012166624254093
  0
ARC
  5
7E37
  8
0
 10
387.8510358814210122
 20
39.2566429169715576
 30
0.0
 40
0.2197158660007966
 50
47.08663145782225
 51
69.0291095171766074
  0
ARC
  5
7E38
  8
0
 10
387.6565680406317824
 20
39.9420711178942724
 30
0.0
 40
0.6629203957774137
 50
268.724645657925123
 51
290.9980589844266206
  0
ARC
  5
7E39
  8
0
 10
387.8518776771761054
 20
39.433220595444709
 30
0.0
 40
0.1178747937180305
 50
290.9980589844266206
 51
323.4788627652854984
  0
ARC
  5
7E3A
  8
0
 10
387.9121927414955735
 20
39.3862989737158031
 30
0.0
 40
0.041519007845384
 50
325.982006581787175
 51
47.4560505942004198
  0
ARC
  5
7E3B
  8
0
 10
387.7971417200971018
 20
39.2616759211197106
 30
0.0
 40
0.2111291300135547
 50
47.3202812337245078
 51
79.3388351796255478
  0
ARC
  5
7E3C
  8
0
 10
387.6687072918838908
 20
38.8332991409230388
 30
0.0
 40
0.6575514286356997
 50
75.2428311879651375
 51
84.1706328245965949
  0
ARC
  5
7E3D
  8
0
 10
387.6423826011641154
 20
38.6074584593709531
 30
0.0
 40
0.8849039088473023
 50
83.9601509624865088
 51
90.0368659019632958
  0
ARC
  5
7E3E
  8
0
 10
387.648369595632289
 20
40.0765798273865101
 30
0.0
 40
0.8013241459967163
 50
269.5312053346204948
 51
284.1994296070307087
  0
ARC
  5
7E3F
  8
0
 10
387.7710291407204863
 20
39.5918137318568029
 30
0.0
 40
0.3012806165151538
 50
284.1994296070307087
 51
304.140603004357672
  0
ARC
  5
7E40
  8
0
 10
387.8725150188880093
 20
39.4224981698014503
 30
0.0
 40
0.1047699720373543
 50
310.1827839425811248
 51
324.2055144829002984
  0
ARC
  5
7E41
  8
0
 10
387.9229539759512022
 20
39.3862622166848695
 30
0.0
 40
0.0426643884869661
 50
324.0591241430453806
 51
46.5696571035302611
  0
ARC
  5
7E42
  8
0
 10
387.7930404429160944
 20
39.2381184665854477
 30
0.0
 40
0.2396772842037426
 50
48.3628804682670506
 51
78.2366883922993708
  0
ARC
  5
7E43
  8
0
 10
387.65994504834282
 20
38.7615882936216565
 30
0.0
 40
0.7340823839137895
 50
75.6483968491597949
 51
86.710756277533406
  0
ARC
  5
7E44
  8
0
 10
387.6420281605946911
 20
38.5632567546578997
 30
0.0
 40
0.9331378959891971
 50
86.3111675100129361
 51
90.0134410907356255
  0
ARC
  5
7E45
  8
0
 10
387.6459653727204113
 20
40.1259854162315008
 30
0.0
 40
0.863320336400285
 50
269.7244344019579216
 51
285.1648416149370746
  0
ARC
  5
7E46
  8
0
 10
387.8003624713762179
 20
39.5563283546527771
 30
0.0
 40
0.2731105161839165
 50
285.1648416149370746
 51
304.038085146737501
  0
ARC
  5
7E47
  8
0
 10
387.9047652174364202
 20
39.4017666327422376
 30
0.0
 40
0.086591725535711
 50
304.0380851467373873
 51
336.4455964830654011
  0
ARC
  5
7E48
  8
0
 10
387.9383312630627074
 20
39.3803091321392813
 30
0.0
 40
0.0476599090068855
 50
343.9882391286390089
 51
47.3840128506350595
  0
ARC
  5
7E49
  8
0
 10
387.6627258478919202
 20
38.7151888545015694
 30
0.0
 40
0.7816896977207697
 50
77.1977786702986606
 51
85.0000656243605448
  0
ARC
  5
7E4A
  8
0
 10
387.6421990156429729
 20
38.512643506765059
 30
0.0
 40
0.9852572945712921
 50
84.837471371135095
 51
90.0224348539621246
  0
ARC
  5
7E4B
  8
0
 10
387.6464745546098811
 20
40.1725239949927726
 30
0.0
 40
0.9122130963778683
 50
269.7072223537990112
 51
281.5013166418967216
  0
ARC
  5
7E4C
  8
0
 10
387.7597378122674741
 20
39.6554619118375484
 30
0.0
 40
0.3830312501900515
 50
280.3207517608988724
 51
300.7332091064191104
  0
ARC
  5
7E4D
  8
0
 10
387.7020419604295967
 20
38.9179602955738133
 30
0.0
 40
0.5781268302102071
 50
67.4562509685343059
 51
84.2974773630908487
  0
ARC
  5
7E4E
  8
0
 10
387.643657124652691
 20
38.5423293675181284
 30
0.0
 40
0.9579253971452528
 50
83.0549651355042045
 51
90.1105255380063284
  0
ARC
  5
7E4F
  8
0
 10
387.8962860409948803
 20
39.4169939017621118
 30
0.0
 40
0.1083661303494198
 50
303.1110889453432264
 51
326.1682330554618829
  0
ARC
  5
7E50
  8
0
 10
387.9509116056119069
 20
39.3803813978546486
 30
0.0
 40
0.0426057490237332
 50
326.1682330554615987
 51
35.9050133622632828
  0
ARC
  5
7E51
  8
0
 10
387.8882716859798734
 20
39.3350293046042196
 30
0.0
 40
0.1199399063780395
 50
35.9050133622632828
 51
54.2142127948957508
  0
ARC
  5
7E52
  8
0
 10
387.8531582340252726
 20
39.2863178385143073
 30
0.0
 40
0.1799878991571487
 50
54.2142127948957508
 51
66.9293709663870686
  0
ARC
  5
7E53
  8
0
 10
387.8634681166980158
 20
39.3105748831026816
 30
0.0
 40
0.1498734759456294
 50
44.3714285736841703
 51
65.5582882716957727
  0
ARC
  5
7E54
  8
0
 10
387.727535935727019
 20
39.0114930043752111
 30
0.0
 40
0.4783967293185029
 50
65.5582882716987427
 51
76.9033940179613182
  0
LINE
  5
7E55
  8
0
 10
387.728018029668192
 20
39.3114649713806799
 30
0.0
 11
387.7133397734681921
 21
39.3025648053806833
 31
0.0
  0
LINE
  5
7E56
  8
0
 10
387.7090290180681791
 20
39.301385210280678
 30
0.0
 11
387.6768758476682137
 21
39.3013854140806771
 31
0.0
  0
LINE
  5
7E57
  8
0
 10
387.6729934941727151
 20
39.3023346516422478
 30
0.0
 11
387.6578857855682259
 21
39.3114663099806805
 31
0.0
  0
LINE
  5
7E58
  8
0
 10
387.7071589405682062
 20
39.3116857607806836
 30
0.0
 11
387.6787460335681885
 21
39.3116857607806836
 31
0.0
  0
LINE
  5
7E59
  8
0
 10
387.6787460335681885
 20
39.3116857607806836
 30
0.0
 11
387.6695654196386727
 21
39.3171146718208817
 31
0.0
  0
LINE
  5
7E5A
  8
0
 10
387.7071589405682062
 20
39.3116857607806836
 30
0.0
 11
387.716338858245706
 21
39.3171142600359076
 31
0.0
  0
ARC
  5
7E5B
  8
0
 10
387.7330268024388147
 20
39.338242835252629
 30
0.0
 40
0.027242279607474
 50
249.9969504735651924
 51
259.4053093299633019
  0
LINE
  5
7E5C
  8
0
 10
387.7237085043184948
 20
39.3126459251703508
 30
0.0
 11
387.7090278187682202
 21
39.3215470607806807
 31
0.0
  0
LINE
  5
7E5D
  8
0
 10
387.676874648368198
 20
39.3215472645806798
 30
0.0
 11
387.662196540968182
 21
39.3126459050806787
 31
0.0
  0
ARC
  5
7E5E
  8
0
 10
387.6572701692389273
 20
39.3221999457580296
 30
0.0
 40
0.0107512752948552
 50
273.2825427158380762
 51
297.2742498770613793
  0
ARC
  5
7E5F
  8
0
 10
387.7047551194498851
 20
39.3254703899387081
 30
0.0
 40
0.0244614408520638
 50
280.0623539608035912
 51
290.5452106193221198
  0
ARC
  5
7E60
  8
0
 10
387.687530786811692
 20
39.3533777735623289
 30
0.0
 40
0.0530729043168032
 50
254.1028273233189054
 51
258.4185695201401813
  0
LINE
  5
7E61
  8
0
 10
387.7280168303681762
 20
39.3316268218806826
 30
0.0
 11
387.7133385741681764
 21
39.3227266558806789
 31
0.0
  0
LINE
  5
7E62
  8
0
 10
387.7090278187682202
 20
39.3215470607806807
 30
0.0
 11
387.676874648368198
 21
39.3215472645806798
 31
0.0
  0
LINE
  5
7E63
  8
0
 10
387.6729922948725857
 20
39.3224965021422506
 30
0.0
 11
387.6578845862682101
 21
39.331628160480669
 31
0.0
  0
LINE
  5
7E64
  8
0
 10
387.7071577412681904
 20
39.3318476112806792
 30
0.0
 11
387.6787448342681728
 21
39.3318476112806792
 31
0.0
  0
LINE
  5
7E65
  8
0
 10
387.6787448342681728
 20
39.3318476112806792
 30
0.0
 11
387.669564061770302
 21
39.3372766160895395
 31
0.0
  0
LINE
  5
7E66
  8
0
 10
387.7071577412681904
 20
39.3318476112806792
 30
0.0
 11
387.7163381100219226
 21
39.3372763772776466
 31
0.0
  0
ARC
  5
7E67
  8
0
 10
387.7330256031386853
 20
39.3584046857526317
 30
0.0
 40
0.027242279607474
 50
249.9969504735651924
 51
259.4053093299633019
  0
LINE
  5
7E68
  8
0
 10
387.723707305018479
 20
39.3328077756703465
 30
0.0
 11
387.7090278187682202
 21
39.3417092602806804
 31
0.0
  0
LINE
  5
7E69
  8
0
 10
387.7090278187682202
 20
39.3417092602806804
 30
0.0
 11
387.6768722497682234
 21
39.3417087660806786
 31
0.0
  0
LINE
  5
7E6A
  8
0
 10
387.6768722497682234
 20
39.3417087660806786
 30
0.0
 11
387.6621953416682231
 21
39.3328077555806814
 31
0.0
  0
ARC
  5
7E6B
  8
0
 10
387.6572689699387979
 20
39.3423617962580323
 30
0.0
 40
0.0107512752948552
 50
273.2825427158380762
 51
297.2742498770613793
  0
ARC
  5
7E6C
  8
0
 10
387.7047539201499262
 20
39.3456322404386967
 30
0.0
 40
0.0244614408520638
 50
280.0623539608035912
 51
290.5452106193221198
  0
ARC
  5
7E6D
  8
0
 10
387.6875295875116763
 20
39.3735396240623317
 30
0.0
 40
0.0530729043168032
 50
254.1028273233189054
 51
258.4185695201401813
  0
LINE
  5
7E6E
  8
0
 10
387.7280192831681802
 20
39.351788278880683
 30
0.0
 11
387.7133410269681804
 21
39.3428881128806793
 31
0.0
  0
LINE
  5
7E6F
  8
0
 10
387.6729947476727034
 20
39.3426579591422509
 30
0.0
 11
387.6578870390682141
 21
39.3517896174806765
 31
0.0
  0
LINE
  5
7E70
  8
0
 10
387.7071601940681944
 20
39.3520090682806796
 30
0.0
 11
387.6787472870681768
 21
39.3520090682806796
 31
0.0
  0
LINE
  5
7E71
  8
0
 10
387.6787472870681768
 20
39.3520090682806796
 30
0.0
 11
387.669566514570306
 21
39.3574380730895399
 31
0.0
  0
LINE
  5
7E72
  8
0
 10
387.7071601940681944
 20
39.3520090682806796
 30
0.0
 11
387.7163405628219266
 21
39.3574378342776612
 31
0.0
  0
ARC
  5
7E73
  8
0
 10
387.7330280559386892
 20
39.3785661427526321
 30
0.0
 40
0.027242279607474
 50
249.9969504735651924
 51
259.4053093299633019
  0
LINE
  5
7E74
  8
0
 10
387.7237097578185967
 20
39.3529692326703469
 30
0.0
 11
387.7090302715682242
 21
39.3618707172806808
 31
0.0
  0
LINE
  5
7E75
  8
0
 10
387.7090302715682242
 20
39.3618707172806808
 30
0.0
 11
387.6768747025682273
 21
39.361870223080679
 31
0.0
  0
LINE
  5
7E76
  8
0
 10
387.6768747025682273
 20
39.361870223080679
 30
0.0
 11
387.6621977944682271
 21
39.3529692125806818
 31
0.0
  0
ARC
  5
7E77
  8
0
 10
387.6572714227389156
 20
39.3625232532580327
 30
0.0
 40
0.0107512752948552
 50
273.2825427158380762
 51
297.2742498770613793
  0
ARC
  5
7E78
  8
0
 10
387.7047987856125815
 20
39.3656625770049473
 30
0.0
 40
0.0243237765062039
 50
280.012566464754002
 51
290.5600534155569221
  0
ARC
  5
7E79
  8
0
 10
387.6877025987719207
 20
39.3943457879516927
 30
0.0
 40
0.0537396737149814
 50
254.1162156568717023
 51
258.373346856163721
  0
LINE
  5
7E7A
  8
0
 10
387.7280192831681802
 20
39.3719504783806826
 30
0.0
 11
387.7133410269681804
 21
39.363050312380679
 31
0.0
  0
LINE
  5
7E7B
  8
0
 10
387.6729947476727034
 20
39.3628201586422506
 30
0.0
 11
387.6578870390682141
 21
39.3719518169806904
 31
0.0
  0
LINE
  5
7E7C
  8
0
 10
387.7071601940681944
 20
39.3721712677806792
 30
0.0
 11
387.6787472870681768
 21
39.3721712677806792
 31
0.0
  0
LINE
  5
7E7D
  8
0
 10
387.6787472870681768
 20
39.3721712677806792
 30
0.0
 11
387.669566514570306
 21
39.3776002725895395
 31
0.0
  0
LINE
  5
7E7E
  8
0
 10
387.7071601940681944
 20
39.3721712677806792
 30
0.0
 11
387.7163405628219266
 21
39.3776000337776608
 31
0.0
  0
ARC
  5
7E7F
  8
0
 10
387.7330280559386892
 20
39.3987283422526176
 30
0.0
 40
0.027242279607474
 50
249.9969504735651924
 51
259.4053093299633019
  0
LINE
  5
7E80
  8
0
 10
387.7237097578185967
 20
39.3731314321703465
 30
0.0
 11
387.7090302715682242
 21
39.3820329167806804
 31
0.0
  0
LINE
  5
7E81
  8
0
 10
387.7090302715682242
 20
39.3820329167806804
 30
0.0
 11
387.6768747025682273
 21
39.3820324225806786
 31
0.0
  0
LINE
  5
7E82
  8
0
 10
387.6768747025682273
 20
39.3820324225806786
 30
0.0
 11
387.6621977944682271
 21
39.3731314120806815
 31
0.0
  0
ARC
  5
7E83
  8
0
 10
387.6572714227389156
 20
39.3826854527580323
 30
0.0
 40
0.0107512752948552
 50
273.2825427158380762
 51
297.2742498770613793
  0
ARC
  5
7E84
  8
0
 10
387.7047563729498734
 20
39.3859558969386967
 30
0.0
 40
0.0244614408520638
 50
280.0623539608035912
 51
290.5452106193221198
  0
ARC
  5
7E85
  8
0
 10
387.6877458929358795
 20
39.4146716383531626
 30
0.0
 40
0.0539089253722099
 50
254.1195614169222949
 51
258.3660425099524787
  0
LINE
  5
7E86
  8
0
 10
387.7280192831681802
 20
39.3921126778806823
 30
0.0
 11
387.7133410269681804
 21
39.3832125118806786
 31
0.0
  0
LINE
  5
7E87
  8
0
 10
387.6729947476727034
 20
39.3829823581422502
 30
0.0
 11
387.6578870390682141
 21
39.3921140164806829
 31
0.0
  0
LINE
  5
7E88
  8
0
 10
387.7071601940681944
 20
39.3923334672806789
 30
0.0
 11
387.6787472870681768
 21
39.3923334672806789
 31
0.0
  0
LINE
  5
7E89
  8
0
 10
387.6787472870681768
 20
39.3923334672806789
 30
0.0
 11
387.669566514570306
 21
39.3977624720895392
 31
0.0
  0
LINE
  5
7E8A
  8
0
 10
387.7071601940681944
 20
39.3923334672806789
 30
0.0
 11
387.7163405628219266
 21
39.3977622332776534
 31
0.0
  0
ARC
  5
7E8B
  8
0
 10
387.7330280559386892
 20
39.4188905417526314
 30
0.0
 40
0.027242279607474
 50
249.9969504735651924
 51
259.4053093299633019
  0
LINE
  5
7E8C
  8
0
 10
387.7237097578185967
 20
39.3932936316703532
 30
0.0
 11
387.7090302715682242
 21
39.4021951162806801
 31
0.0
  0
LINE
  5
7E8D
  8
0
 10
387.7090302715682242
 20
39.4021951162806801
 30
0.0
 11
387.6768747025682273
 21
39.4021946220806782
 31
0.0
  0
LINE
  5
7E8E
  8
0
 10
387.6768747025682273
 20
39.4021946220806782
 30
0.0
 11
387.6621977944682271
 21
39.3932936115806811
 31
0.0
  0
ARC
  5
7E8F
  8
0
 10
387.6572714227389156
 20
39.402847652258032
 30
0.0
 40
0.0107512752948552
 50
273.2825427158380762
 51
297.2742498770613793
  0
ARC
  5
7E90
  8
0
 10
387.7047563729498734
 20
39.4061180964387106
 30
0.0
 40
0.0244614408520638
 50
280.0623539608035912
 51
290.5452106193221198
  0
ARC
  5
7E91
  8
0
 10
387.6877458929359932
 20
39.434833837853752
 30
0.0
 40
0.0539089253728258
 50
254.1195614169390069
 51
258.3660425099192253
  0
LINE
  5
7E92
  8
0
 10
387.7280192831681802
 20
39.4122748773806819
 30
0.0
 11
387.7133410269681804
 21
39.4033747113806783
 31
0.0
  0
LINE
  5
7E93
  8
0
 10
387.6729947476727034
 20
39.4031445576422499
 30
0.0
 11
387.6578870390682141
 21
39.4122762159806825
 31
0.0
  0
LINE
  5
7E94
  8
0
 10
387.7071601940681944
 20
39.4124956667806785
 30
0.0
 11
387.6787472870681768
 21
39.4124956667806785
 31
0.0
  0
LINE
  5
7E95
  8
0
 10
387.6787472870681768
 20
39.4124956667806785
 30
0.0
 11
387.669566514570306
 21
39.4179246715895388
 31
0.0
  0
LINE
  5
7E96
  8
0
 10
387.7071601940681944
 20
39.4124956667806785
 30
0.0
 11
387.7163405628219266
 21
39.4179244327776601
 31
0.0
  0
ARC
  5
7E97
  8
0
 10
387.7330280559386892
 20
39.4390527412526168
 30
0.0
 40
0.027242279607474
 50
249.9969504735651924
 51
259.4053093299633019
  0
LINE
  5
7E98
  8
0
 10
387.7237097578185967
 20
39.4134558311703529
 30
0.0
 11
387.7090302715682242
 21
39.4223573157806797
 31
0.0
  0
LINE
  5
7E99
  8
0
 10
387.7090302715682242
 20
39.4223573157806797
 30
0.0
 11
387.6768747025682273
 21
39.4223568215806779
 31
0.0
  0
LINE
  5
7E9A
  8
0
 10
387.6768747025682273
 20
39.4223568215806779
 30
0.0
 11
387.6621977944682271
 21
39.4134558110806807
 31
0.0
  0
ARC
  5
7E9B
  8
0
 10
387.6572714227389156
 20
39.4230098517580316
 30
0.0
 40
0.0107512752948552
 50
273.2825427158380762
 51
297.2742498770613793
  0
ARC
  5
7E9C
  8
0
 10
387.7047563729498734
 20
39.4262802959387102
 30
0.0
 40
0.0244614408520638
 50
280.0623539608035912
 51
290.5452106193221198
  0
ARC
  5
7E9D
  8
0
 10
387.6877458929359932
 20
39.45499603735378
 30
0.0
 40
0.0539089253728612
 50
254.11956141693571
 51
258.3660425099158147
  0
LINE
  5
7E9E
  8
0
 10
387.7280192831681802
 20
39.4324370768806816
 30
0.0
 11
387.7133410269681804
 21
39.4235369108806779
 31
0.0
  0
LINE
  5
7E9F
  8
0
 10
387.6729947476727034
 20
39.4233067571422495
 30
0.0
 11
387.6578870390682141
 21
39.4324384154806822
 31
0.0
  0
LINE
  5
7EA0
  8
0
 10
387.7071601940681944
 20
39.4326578662806781
 30
0.0
 11
387.6787472870681768
 21
39.4326578662806781
 31
0.0
  0
LINE
  5
7EA1
  8
0
 10
387.6787472870681768
 20
39.4326578662806781
 30
0.0
 11
387.669566514570306
 21
39.4380868710895385
 31
0.0
  0
LINE
  5
7EA2
  8
0
 10
387.7071601940681944
 20
39.4326578662806781
 30
0.0
 11
387.7163405628219266
 21
39.4380866322776527
 31
0.0
  0
ARC
  5
7EA3
  8
0
 10
387.7330280559386892
 20
39.4592149407526307
 30
0.0
 40
0.027242279607474
 50
249.9969504735651924
 51
259.4053093299633019
  0
LINE
  5
7EA4
  8
0
 10
387.7237097578185967
 20
39.4336180306703383
 30
0.0
 11
387.7090302715682242
 21
39.4425195152806793
 31
0.0
  0
LINE
  5
7EA5
  8
0
 10
387.7090302715682242
 20
39.4425195152806793
 30
0.0
 11
387.6768747025682273
 21
39.4425190210806775
 31
0.0
  0
LINE
  5
7EA6
  8
0
 10
387.6768747025682273
 20
39.4425190210806775
 30
0.0
 11
387.6621977944682271
 21
39.4336180105806804
 31
0.0
  0
ARC
  5
7EA7
  8
0
 10
387.6572714227389156
 20
39.4431720512580313
 30
0.0
 40
0.0107512752948552
 50
273.2825427158380762
 51
297.2742498770613793
  0
ARC
  5
7EA8
  8
0
 10
387.7047563729498734
 20
39.4464424954387027
 30
0.0
 40
0.0244614408520638
 50
280.0623539608035912
 51
290.5452106193221198
  0
ARC
  5
7EA9
  8
0
 10
387.6877458929358795
 20
39.4751582368531473
 30
0.0
 40
0.0539089253722029
 50
254.119561416922096
 51
258.3660425099524787
  0
LINE
  5
7EAA
  8
0
 10
387.7280192831681802
 20
39.4525992763806812
 30
0.0
 11
387.7133410269681804
 21
39.4436991103806776
 31
0.0
  0
LINE
  5
7EAB
  8
0
 10
387.6729947476727034
 20
39.4434689566422492
 30
0.0
 11
387.6578870390682141
 21
39.4526006149806818
 31
0.0
  0
LINE
  5
7EAC
  8
0
 10
387.7071601940681944
 20
39.4528200657806778
 30
0.0
 11
387.6787472870681768
 21
39.4528200657806778
 31
0.0
  0
LINE
  5
7EAD
  8
0
 10
387.6787472870681768
 20
39.4528200657806778
 30
0.0
 11
387.669566514570306
 21
39.4582490705895381
 31
0.0
  0
LINE
  5
7EAE
  8
0
 10
387.7071601940681944
 20
39.4528200657806778
 30
0.0
 11
387.7163405628219266
 21
39.4582488317776523
 31
0.0
  0
ARC
  5
7EAF
  8
0
 10
387.7330280559386892
 20
39.4793771402526303
 30
0.0
 40
0.027242279607474
 50
249.9969504735651924
 51
259.4053093299633019
  0
LINE
  5
7EB0
  8
0
 10
387.7237097578185967
 20
39.4537802301703522
 30
0.0
 11
387.7090302715682242
 21
39.462681714780679
 31
0.0
  0
LINE
  5
7EB1
  8
0
 10
387.7090302715682242
 20
39.462681714780679
 30
0.0
 11
387.6768747025682273
 21
39.4626812205806772
 31
0.0
  0
LINE
  5
7EB2
  8
0
 10
387.6768747025682273
 20
39.4626812205806772
 30
0.0
 11
387.6621977944682271
 21
39.45378021008068
 31
0.0
  0
ARC
  5
7EB3
  8
0
 10
387.6572714227389156
 20
39.4633342507580309
 30
0.0
 40
0.0107512752948552
 50
273.2825427158380762
 51
297.2742498770613793
  0
ARC
  5
7EB4
  8
0
 10
387.7047563729498734
 20
39.4666046949387095
 30
0.0
 40
0.0244614408520638
 50
280.0623539608035912
 51
290.5452106193221198
  0
ARC
  5
7EB5
  8
0
 10
387.6877458929358795
 20
39.4953204363531825
 30
0.0
 40
0.0539089253722327
 50
254.1195614169255066
 51
258.3660425099524787
  0
LINE
  5
7EB6
  8
0
 10
387.7280192831681802
 20
39.4727614758806808
 30
0.0
 11
387.7133410269681804
 21
39.4638613098806772
 31
0.0
  0
LINE
  5
7EB7
  8
0
 10
387.6729947476727034
 20
39.4636311561422488
 30
0.0
 11
387.6578870390682141
 21
39.4727628144806815
 31
0.0
  0
LINE
  5
7EB8
  8
0
 10
387.7071601940681944
 20
39.4729822652806774
 30
0.0
 11
387.6787472870681768
 21
39.4729822652806774
 31
0.0
  0
LINE
  5
7EB9
  8
0
 10
387.6787472870681768
 20
39.4729822652806774
 30
0.0
 11
387.669566514570306
 21
39.4784112700895378
 31
0.0
  0
LINE
  5
7EBA
  8
0
 10
387.7071601940681944
 20
39.4729822652806774
 30
0.0
 11
387.7163405628219266
 21
39.4784110312776519
 31
0.0
  0
ARC
  5
7EBB
  8
0
 10
387.7330280559386892
 20
39.4995393397526229
 30
0.0
 40
0.027242279607474
 50
249.9969504735651924
 51
259.4053093299633019
  0
LINE
  5
7EBC
  8
0
 10
387.7237097578185967
 20
39.4739424296703518
 30
0.0
 11
387.7090302715682242
 21
39.4828439142806786
 31
0.0
  0
LINE
  5
7EBD
  8
0
 10
387.7090302715682242
 20
39.4828439142806786
 30
0.0
 11
387.6768747025682273
 21
39.4828434200806768
 31
0.0
  0
LINE
  5
7EBE
  8
0
 10
387.6768747025682273
 20
39.4828434200806768
 30
0.0
 11
387.6621977944682271
 21
39.4739424095806797
 31
0.0
  0
ARC
  5
7EBF
  8
0
 10
387.6572714227389156
 20
39.4834964502580306
 30
0.0
 40
0.0107512752948552
 50
273.2825427158380762
 51
297.2742498770613793
  0
ARC
  5
7EC0
  8
0
 10
387.7047563729498734
 20
39.486766894438702
 30
0.0
 40
0.0244614408520638
 50
280.0623539608035912
 51
290.5452106193221198
  0
ARC
  5
7EC1
  8
0
 10
387.6877458929358795
 20
39.5154826358531324
 30
0.0
 40
0.0539089253721933
 50
254.1195614169187991
 51
258.3660425099491817
  0
LINE
  5
7EC2
  8
0
 10
387.7213855126968269
 20
39.4888286811634686
 30
0.0
 11
387.7133385741681764
 21
39.48394941705196
 31
0.0
  0
LINE
  5
7EC3
  8
0
 10
387.6729922948725857
 20
39.4837192633135317
 30
0.0
 11
387.658949455502011
 21
39.4922072752676314
 31
0.0
  0
ARC
  5
7EC4
  8
0
 10
387.7067431197572773
 20
39.5007050598532317
 30
0.0
 40
0.0180069871041677
 50
277.2971162743867808
 51
291.4858821069257147
  0
ARC
  5
7EC5
  8
0
 10
387.6808590381031081
 20
39.5095478684415724
 30
0.0
 40
0.0270000461465197
 50
253.0605835030335129
 51
261.5140008106034202
  0
LINE
  5
7EC6
  8
0
 10
387.7791625156681903
 20
39.4626803761806784
 30
0.0
 11
387.7644842594681904
 21
39.4537802101806818
 31
0.0
  0
LINE
  5
7EC7
  8
0
 10
387.7583034265682045
 20
39.4629011655806821
 30
0.0
 11
387.7298905195681868
 21
39.4629011655806821
 31
0.0
  0
LINE
  5
7EC8
  8
0
 10
387.7583034265682045
 20
39.4629011655806821
 30
0.0
 11
387.7674837953219935
 21
39.4683299315776566
 31
0.0
  0
ARC
  5
7EC9
  8
0
 10
387.784171288438813
 20
39.4894582400526275
 30
0.0
 40
0.027242279607474
 50
249.9969504735651924
 51
259.4053093299633019
  0
LINE
  5
7ECA
  8
0
 10
387.7748529903186068
 20
39.4638613299703493
 30
0.0
 11
387.7601735040681774
 21
39.4727628145806833
 31
0.0
  0
LINE
  5
7ECB
  8
0
 10
387.7601735040681774
 20
39.4727628145806833
 30
0.0
 11
387.7280192831681802
 21
39.4727614758806808
 31
0.0
  0
ARC
  5
7ECC
  8
0
 10
387.7558996054498834
 20
39.4766857947387066
 30
0.0
 40
0.0244614408520638
 50
280.0623539608035912
 51
290.5452106193221198
  0
LINE
  5
7ECD
  8
0
 10
387.7791625156681903
 20
39.4425181766806787
 30
0.0
 11
387.7644842594681904
 21
39.4336180106806822
 31
0.0
  0
LINE
  5
7ECE
  8
0
 10
387.7583034265682045
 20
39.4427389660806824
 30
0.0
 11
387.7298905195681868
 21
39.4427389660806824
 31
0.0
  0
LINE
  5
7ECF
  8
0
 10
387.7583034265682045
 20
39.4427389660806824
 30
0.0
 11
387.7674837953219935
 21
39.4481677320776569
 31
0.0
  0
ARC
  5
7ED0
  8
0
 10
387.784171288438813
 20
39.4692960405526279
 30
0.0
 40
0.027242279607474
 50
249.9969504735651924
 51
259.4053093299633019
  0
LINE
  5
7ED1
  8
0
 10
387.7748529903186068
 20
39.4436991304703497
 30
0.0
 11
387.7601735040681774
 21
39.4526006150806765
 31
0.0
  0
LINE
  5
7ED2
  8
0
 10
387.7601735040681774
 20
39.4526006150806765
 30
0.0
 11
387.7280192831681802
 21
39.4525992763806812
 31
0.0
  0
ARC
  5
7ED3
  8
0
 10
387.7558996054498834
 20
39.456523595238707
 30
0.0
 40
0.0244614408520638
 50
280.0623539608035912
 51
290.5452106193221198
  0
LINE
  5
7ED4
  8
0
 10
387.7791625156681903
 20
39.4223559771806791
 30
0.0
 11
387.7644842594681904
 21
39.4134558111806683
 31
0.0
  0
LINE
  5
7ED5
  8
0
 10
387.7583034265682045
 20
39.4225767665806828
 30
0.0
 11
387.7298905195681868
 21
39.4225767665806828
 31
0.0
  0
LINE
  5
7ED6
  8
0
 10
387.7583034265682045
 20
39.4225767665806828
 30
0.0
 11
387.7674837953219935
 21
39.4280055325776573
 31
0.0
  0
ARC
  5
7ED7
  8
0
 10
387.784171288438813
 20
39.4491338410526282
 30
0.0
 40
0.027242279607474
 50
249.9969504735651924
 51
259.4053093299633019
  0
LINE
  5
7ED8
  8
0
 10
387.7748529903186068
 20
39.4235369309703501
 30
0.0
 11
387.7601735040681774
 21
39.4324384155806769
 31
0.0
  0
LINE
  5
7ED9
  8
0
 10
387.7601735040681774
 20
39.4324384155806769
 30
0.0
 11
387.7280192831681802
 21
39.4324370768806816
 31
0.0
  0
ARC
  5
7EDA
  8
0
 10
387.7558996054498834
 20
39.4363613957387074
 30
0.0
 40
0.0244614408520638
 50
280.0623539608035912
 51
290.5452106193221198
  0
LINE
  5
7EDB
  8
0
 10
387.7791625156681903
 20
39.4021937775806776
 30
0.0
 11
387.7644842594681904
 21
39.3932936115806811
 31
0.0
  0
LINE
  5
7EDC
  8
0
 10
387.7583034265682045
 20
39.4024145669806813
 30
0.0
 11
387.7298905195681868
 21
39.4024145669806813
 31
0.0
  0
LINE
  5
7EDD
  8
0
 10
387.7583034265682045
 20
39.4024145669806813
 30
0.0
 11
387.7674837953219935
 21
39.407843332977663
 31
0.0
  0
ARC
  5
7EDE
  8
0
 10
387.784171288438813
 20
39.4289716414526268
 30
0.0
 40
0.027242279607474
 50
249.9969504735651924
 51
259.4053093299633019
  0
LINE
  5
7EDF
  8
0
 10
387.7748529903186068
 20
39.4033747313703486
 30
0.0
 11
387.7601735040681774
 21
39.4122762159806825
 31
0.0
  0
LINE
  5
7EE0
  8
0
 10
387.7601735040681774
 20
39.4122762159806825
 30
0.0
 11
387.7280192831681802
 21
39.4122748773806819
 31
0.0
  0
ARC
  5
7EE1
  8
0
 10
387.7558996054498834
 20
39.4161991961386988
 30
0.0
 40
0.0244614408520638
 50
280.0623539608035912
 51
290.5452106193221198
  0
LINE
  5
7EE2
  8
0
 10
387.7791625156681903
 20
39.382031578080678
 30
0.0
 11
387.7644842594681904
 21
39.3731314120806815
 31
0.0
  0
LINE
  5
7EE3
  8
0
 10
387.7583034265682045
 20
39.3822523674806817
 30
0.0
 11
387.7298905195681868
 21
39.3822523674806817
 31
0.0
  0
LINE
  5
7EE4
  8
0
 10
387.7583034265682045
 20
39.3822523674806817
 30
0.0
 11
387.7674837953219935
 21
39.3876811334776633
 31
0.0
  0
ARC
  5
7EE5
  8
0
 10
387.784171288438813
 20
39.4088094419526271
 30
0.0
 40
0.027242279607474
 50
249.9969504735651924
 51
259.4053093299633019
  0
LINE
  5
7EE6
  8
0
 10
387.7748529903186068
 20
39.383212531870349
 30
0.0
 11
387.7601735040681774
 21
39.3921140164806829
 31
0.0
  0
LINE
  5
7EE7
  8
0
 10
387.7601735040681774
 20
39.3921140164806829
 30
0.0
 11
387.7280192831681802
 21
39.3921126778806823
 31
0.0
  0
ARC
  5
7EE8
  8
0
 10
387.7558996054498834
 20
39.3960369966387134
 30
0.0
 40
0.0244614408520638
 50
280.0623539608035912
 51
290.5452106193221198
  0
LINE
  5
7EE9
  8
0
 10
387.7791625156681903
 20
39.3618693785806784
 30
0.0
 11
387.7644842594681904
 21
39.3529692125806818
 31
0.0
  0
LINE
  5
7EEA
  8
0
 10
387.7583034265682045
 20
39.3620901679806821
 30
0.0
 11
387.7298905195681868
 21
39.3620901679806821
 31
0.0
  0
LINE
  5
7EEB
  8
0
 10
387.7583034265682045
 20
39.3620901679806821
 30
0.0
 11
387.7674837953219935
 21
39.3675189339776566
 31
0.0
  0
ARC
  5
7EEC
  8
0
 10
387.784171288438813
 20
39.3886472424526275
 30
0.0
 40
0.027242279607474
 50
249.9969504735651924
 51
259.4053093299633019
  0
LINE
  5
7EED
  8
0
 10
387.7748529903186068
 20
39.3630503323703493
 30
0.0
 11
387.7601735040681774
 21
39.3719518169806832
 31
0.0
  0
LINE
  5
7EEE
  8
0
 10
387.7601735040681774
 20
39.3719518169806832
 30
0.0
 11
387.7280192831681802
 21
39.3719504783806826
 31
0.0
  0
ARC
  5
7EEF
  8
0
 10
387.7558996054498834
 20
39.3758747971387066
 30
0.0
 40
0.0244614408520638
 50
280.0623539608035912
 51
290.5452106193221198
  0
LINE
  5
7EF0
  8
0
 10
387.7791625156681903
 20
39.3417071790806787
 30
0.0
 11
387.7644842594681904
 21
39.3328070130806822
 31
0.0
  0
LINE
  5
7EF1
  8
0
 10
387.7583034265682045
 20
39.3419279684806824
 30
0.0
 11
387.7298905195681868
 21
39.3419279684806824
 31
0.0
  0
LINE
  5
7EF2
  8
0
 10
387.7583034265682045
 20
39.3419279684806824
 30
0.0
 11
387.7674837953219935
 21
39.3473567344776569
 31
0.0
  0
ARC
  5
7EF3
  8
0
 10
387.784171288438813
 20
39.3684850429526279
 30
0.0
 40
0.027242279607474
 50
249.9969504735651924
 51
259.4053093299633019
  0
LINE
  5
7EF4
  8
0
 10
387.7748529903186068
 20
39.3428881328703497
 30
0.0
 11
387.7601735040681774
 21
39.3517896174806765
 31
0.0
  0
LINE
  5
7EF5
  8
0
 10
387.7601735040681774
 20
39.3517896174806765
 30
0.0
 11
387.7280192831681802
 21
39.351788278880683
 31
0.0
  0
ARC
  5
7EF6
  8
0
 10
387.7558996054498834
 20
39.355712597638707
 30
0.0
 40
0.0244614408520638
 50
280.0623539608035912
 51
290.5452106193221198
  0
LINE
  5
7EF7
  8
0
 10
387.7791625156681903
 20
39.3215449795806791
 30
0.0
 11
387.7644842594681904
 21
39.3126448135806825
 31
0.0
  0
LINE
  5
7EF8
  8
0
 10
387.7583034265682045
 20
39.3217657689806828
 30
0.0
 11
387.7298905195681868
 21
39.3217657689806828
 31
0.0
  0
LINE
  5
7EF9
  8
0
 10
387.7583034265682045
 20
39.3217657689806828
 30
0.0
 11
387.7674837953219935
 21
39.3271945349776502
 31
0.0
  0
ARC
  5
7EFA
  8
0
 10
387.784171288438813
 20
39.3483228434526211
 30
0.0
 40
0.027242279607474
 50
249.9969504735651924
 51
259.4053093299633019
  0
LINE
  5
7EFB
  8
0
 10
387.7748529903186068
 20
39.32272593337035
 30
0.0
 11
387.7601735040681774
 21
39.3316274179806769
 31
0.0
  0
LINE
  5
7EFC
  8
0
 10
387.7601735040681774
 20
39.3316274179806769
 30
0.0
 11
387.7280168303681762
 21
39.3316268218806826
 31
0.0
  0
ARC
  5
7EFD
  8
0
 10
387.7558996054498834
 20
39.3355503981387074
 30
0.0
 40
0.0244614408520638
 50
280.0623539608035912
 51
290.5452106193221198
  0
LINE
  5
7EFE
  8
0
 10
387.7298905195971201
 20
39.4629011655806821
 30
0.0
 11
387.7207097470991926
 21
39.4683301703895424
 31
0.0
  0
LINE
  5
7EFF
  8
0
 10
387.7298905195681868
 20
39.4427389660806824
 30
0.0
 11
387.7207097470702024
 21
39.4481679708895427
 31
0.0
  0
LINE
  5
7F00
  8
0
 10
387.7298905195681868
 20
39.4225767665806828
 30
0.0
 11
387.7207097470702024
 21
39.4280057713895289
 31
0.0
  0
LINE
  5
7F01
  8
0
 10
387.7298905195681868
 20
39.4024145669806813
 30
0.0
 11
387.7207097470702024
 21
39.4078435717895417
 31
0.0
  0
LINE
  5
7F02
  8
0
 10
387.7298905195971201
 20
39.3822523674806817
 30
0.0
 11
387.7207097470991926
 21
39.387681372289542
 31
0.0
  0
LINE
  5
7F03
  8
0
 10
387.7298905195681868
 20
39.3620901679806821
 30
0.0
 11
387.7207097470702024
 21
39.3675191727895424
 31
0.0
  0
LINE
  5
7F04
  8
0
 10
387.7298905195681868
 20
39.3419279684806824
 30
0.0
 11
387.7207097470702024
 21
39.3473569732895427
 31
0.0
  0
LINE
  5
7F05
  8
0
 10
387.7298905195681868
 20
39.3217657689806828
 30
0.0
 11
387.7207097470702024
 21
39.3271947737895431
 31
0.0
  0
LINE
  5
7F06
  8
0
 10
387.8303057481682004
 20
39.3316260793806833
 30
0.0
 11
387.8156274919682005
 21
39.3227259133806797
 31
0.0
  0
LINE
  5
7F07
  8
0
 10
387.8094466590681009
 20
39.3318468687806799
 30
0.0
 11
387.7810337520681969
 21
39.3318468687806799
 31
0.0
  0
LINE
  5
7F08
  8
0
 10
387.8094466590681009
 20
39.3318468687806799
 30
0.0
 11
387.8186270278220036
 21
39.3372756347776473
 31
0.0
  0
ARC
  5
7F09
  8
0
 10
387.8353145209388231
 20
39.3584039432526325
 30
0.0
 40
0.027242279607474
 50
249.9969504735651924
 51
259.4053093299633019
  0
LINE
  5
7F0A
  8
0
 10
387.8259962228185032
 20
39.3328070331703472
 30
0.0
 11
387.8113167365681875
 21
39.3417085177806811
 31
0.0
  0
LINE
  5
7F0B
  8
0
 10
387.8113167365681875
 20
39.3417085177806811
 30
0.0
 11
387.7791625156681903
 21
39.3417071790806787
 31
0.0
  0
ARC
  5
7F0C
  8
0
 10
387.8070428379498935
 20
39.3456314979386974
 30
0.0
 40
0.0244614408520638
 50
280.0623539608035912
 51
290.5452106193221198
  0
LINE
  5
7F0D
  8
0
 10
387.7810337520681969
 20
39.3318468687806799
 30
0.0
 11
387.7718529795703262
 21
39.3372758735895403
 31
0.0
  0
LINE
  5
7F0E
  8
0
 10
387.8303057481682004
 20
39.351788278880683
 30
0.0
 11
387.8156274919682005
 21
39.3428881128806793
 31
0.0
  0
LINE
  5
7F0F
  8
0
 10
387.8094466590681009
 20
39.3520090682806796
 30
0.0
 11
387.7810337520681969
 21
39.3520090682806796
 31
0.0
  0
LINE
  5
7F10
  8
0
 10
387.8094466590681009
 20
39.3520090682806796
 30
0.0
 11
387.8186270278220036
 21
39.3574378342776612
 31
0.0
  0
ARC
  5
7F11
  8
0
 10
387.8353145209388231
 20
39.3785661427526321
 30
0.0
 40
0.027242279607474
 50
249.9969504735651924
 51
259.4053093299633019
  0
LINE
  5
7F12
  8
0
 10
387.8259962228185032
 20
39.3529692326703469
 30
0.0
 11
387.8113167365681875
 21
39.3618707172806808
 31
0.0
  0
LINE
  5
7F13
  8
0
 10
387.8113167365681875
 20
39.3618707172806808
 30
0.0
 11
387.7791625156681903
 21
39.3618693785806784
 31
0.0
  0
ARC
  5
7F14
  8
0
 10
387.8070428379498935
 20
39.3657936974387113
 30
0.0
 40
0.0244614408520638
 50
280.0623539608035912
 51
290.5452106193221198
  0
LINE
  5
7F15
  8
0
 10
387.7810337520681969
 20
39.3520090682806796
 30
0.0
 11
387.7718529795703262
 21
39.3574380730895399
 31
0.0
  0
LINE
  5
7F16
  8
0
 10
387.8303057481682004
 20
39.3719504783806826
 30
0.0
 11
387.8156274919682005
 21
39.363050312380679
 31
0.0
  0
LINE
  5
7F17
  8
0
 10
387.8094466590681009
 20
39.3721712677806792
 30
0.0
 11
387.7810337520681969
 21
39.3721712677806792
 31
0.0
  0
LINE
  5
7F18
  8
0
 10
387.8094466590681009
 20
39.3721712677806792
 30
0.0
 11
387.8186270278220036
 21
39.3776000337776608
 31
0.0
  0
ARC
  5
7F19
  8
0
 10
387.8353145209388231
 20
39.3987283422526176
 30
0.0
 40
0.027242279607474
 50
249.9969504735651924
 51
259.4053093299633019
  0
LINE
  5
7F1A
  8
0
 10
387.8259962228185032
 20
39.3731314321703465
 30
0.0
 11
387.8113167365681875
 21
39.3820329167806804
 31
0.0
  0
LINE
  5
7F1B
  8
0
 10
387.8113167365681875
 20
39.3820329167806804
 30
0.0
 11
387.7791625156681903
 21
39.382031578080678
 31
0.0
  0
ARC
  5
7F1C
  8
0
 10
387.8070428379498935
 20
39.3859558969386967
 30
0.0
 40
0.0244614408520638
 50
280.0623539608035912
 51
290.5452106193221198
  0
LINE
  5
7F1D
  8
0
 10
387.7810337520681969
 20
39.3721712677806792
 30
0.0
 11
387.7718529795703262
 21
39.3776002725895395
 31
0.0
  0
LINE
  5
7F1E
  8
0
 10
387.8303057481682004
 20
39.3921126778806681
 30
0.0
 11
387.8156274919682005
 21
39.3832125118806786
 31
0.0
  0
LINE
  5
7F1F
  8
0
 10
387.8094466590681009
 20
39.3923334672806789
 30
0.0
 11
387.7810337520681969
 21
39.3923334672806789
 31
0.0
  0
LINE
  5
7F20
  8
0
 10
387.8094466590681009
 20
39.3923334672806789
 30
0.0
 11
387.8186270278220036
 21
39.3977622332776534
 31
0.0
  0
ARC
  5
7F21
  8
0
 10
387.8353145209388231
 20
39.4188905417526314
 30
0.0
 40
0.027242279607474
 50
249.9969504735651924
 51
259.4053093299633019
  0
LINE
  5
7F22
  8
0
 10
387.8259962228185032
 20
39.3932936316703532
 30
0.0
 11
387.8113167365681875
 21
39.4021951162806801
 31
0.0
  0
LINE
  5
7F23
  8
0
 10
387.8113167365681875
 20
39.4021951162806801
 30
0.0
 11
387.7791625156681903
 21
39.4021937775806776
 31
0.0
  0
ARC
  5
7F24
  8
0
 10
387.8070428379498935
 20
39.4061180964387106
 30
0.0
 40
0.0244614408520638
 50
280.0623539608035912
 51
290.5452106193221198
  0
LINE
  5
7F25
  8
0
 10
387.7810337520681969
 20
39.3923334672806789
 30
0.0
 11
387.7718529795703262
 21
39.3977624720895392
 31
0.0
  0
LINE
  5
7F26
  8
0
 10
387.8303057481682004
 20
39.4122748773806819
 30
0.0
 11
387.8156274919682005
 21
39.4033747113806783
 31
0.0
  0
LINE
  5
7F27
  8
0
 10
387.8094466590681009
 20
39.4124956667806785
 30
0.0
 11
387.7810337520681969
 21
39.4124956667806785
 31
0.0
  0
LINE
  5
7F28
  8
0
 10
387.8094466590681009
 20
39.4124956667806785
 30
0.0
 11
387.8186270278220036
 21
39.4179244327776601
 31
0.0
  0
ARC
  5
7F29
  8
0
 10
387.8353145209388231
 20
39.4390527412526168
 30
0.0
 40
0.027242279607474
 50
249.9969504735651924
 51
259.4053093299633019
  0
LINE
  5
7F2A
  8
0
 10
387.8259962228185032
 20
39.4134558311703529
 30
0.0
 11
387.8113167365681875
 21
39.4223573157806797
 31
0.0
  0
LINE
  5
7F2B
  8
0
 10
387.8113167365681875
 20
39.4223573157806797
 30
0.0
 11
387.7791625156681903
 21
39.4223559771806791
 31
0.0
  0
ARC
  5
7F2C
  8
0
 10
387.8070428379498935
 20
39.4262802959387102
 30
0.0
 40
0.0244614408520638
 50
280.0623539608035912
 51
290.5452106193221198
  0
LINE
  5
7F2D
  8
0
 10
387.7810337520681969
 20
39.4124956667806785
 30
0.0
 11
387.7718529795703262
 21
39.4179246715895388
 31
0.0
  0
LINE
  5
7F2E
  8
0
 10
387.8303057481682004
 20
39.4324370768806816
 30
0.0
 11
387.8156274919682005
 21
39.4235369108806779
 31
0.0
  0
LINE
  5
7F2F
  8
0
 10
387.8094466590681009
 20
39.4326578662806781
 30
0.0
 11
387.7810337520681969
 21
39.4326578662806781
 31
0.0
  0
LINE
  5
7F30
  8
0
 10
387.8094466590681009
 20
39.4326578662806781
 30
0.0
 11
387.8186270278220036
 21
39.4380866322776527
 31
0.0
  0
ARC
  5
7F31
  8
0
 10
387.8353145209388231
 20
39.4592149407526307
 30
0.0
 40
0.027242279607474
 50
249.9969504735651924
 51
259.4053093299633019
  0
LINE
  5
7F32
  8
0
 10
387.8259962228185032
 20
39.4336180306703383
 30
0.0
 11
387.8113167365681875
 21
39.4425195152806793
 31
0.0
  0
LINE
  5
7F33
  8
0
 10
387.8113167365681875
 20
39.4425195152806793
 30
0.0
 11
387.7791625156681903
 21
39.4425181766806787
 31
0.0
  0
ARC
  5
7F34
  8
0
 10
387.8070428379498935
 20
39.4464424954387027
 30
0.0
 40
0.0244614408520638
 50
280.0623539608035912
 51
290.5452106193221198
  0
LINE
  5
7F35
  8
0
 10
387.7810337520681969
 20
39.4326578662806781
 30
0.0
 11
387.7718529795703262
 21
39.4380868710895385
 31
0.0
  0
LINE
  5
7F36
  8
0
 10
387.8303057481682004
 20
39.4525992763806812
 30
0.0
 11
387.8156274919682005
 21
39.4436991103806776
 31
0.0
  0
LINE
  5
7F37
  8
0
 10
387.8094466590681009
 20
39.4528200657806778
 30
0.0
 11
387.7810337520681969
 21
39.4528200657806778
 31
0.0
  0
LINE
  5
7F38
  8
0
 10
387.8094466590681009
 20
39.4528200657806778
 30
0.0
 11
387.8186270278220036
 21
39.4582488317776523
 31
0.0
  0
ARC
  5
7F39
  8
0
 10
387.8353145209388231
 20
39.4793771402526303
 30
0.0
 40
0.027242279607474
 50
249.9969504735651924
 51
259.4053093299633019
  0
LINE
  5
7F3A
  8
0
 10
387.8259962228185032
 20
39.4537802301703522
 30
0.0
 11
387.8113167365681875
 21
39.462681714780679
 31
0.0
  0
LINE
  5
7F3B
  8
0
 10
387.8113167365681875
 20
39.462681714780679
 30
0.0
 11
387.7791625156681903
 21
39.4626803761806784
 31
0.0
  0
ARC
  5
7F3C
  8
0
 10
387.8070428379498935
 20
39.4666046949387024
 30
0.0
 40
0.0244614408520638
 50
280.0623539608035912
 51
290.5452106193221198
  0
LINE
  5
7F3D
  8
0
 10
387.7810337520681969
 20
39.4528200657806778
 30
0.0
 11
387.7718529795703262
 21
39.4582490705895381
 31
0.0
  0
LINE
  5
7F3E
  8
0
 10
387.8814489806682104
 20
39.4425181766806787
 30
0.0
 11
387.8667707244682106
 21
39.4336180106806822
 31
0.0
  0
LINE
  5
7F3F
  8
0
 10
387.8605898915682246
 20
39.4427389660806824
 30
0.0
 11
387.832176984568207
 21
39.4427389660806824
 31
0.0
  0
LINE
  5
7F40
  8
0
 10
387.8605898915682246
 20
39.4427389660806824
 30
0.0
 11
387.8697702603219
 21
39.4481677320776569
 31
0.0
  0
ARC
  5
7F41
  8
0
 10
387.8864577534387763
 20
39.4692960405526279
 30
0.0
 40
0.027242279607474
 50
249.9969504735651924
 51
259.4053093299633019
  0
LINE
  5
7F42
  8
0
 10
387.8771394553185132
 20
39.4436991304703497
 30
0.0
 11
387.8624599690681976
 21
39.4526006150806765
 31
0.0
  0
LINE
  5
7F43
  8
0
 10
387.8624599690681976
 20
39.4526006150806765
 30
0.0
 11
387.8303057481682004
 21
39.4525992763806812
 31
0.0
  0
ARC
  5
7F44
  8
0
 10
387.8581860704497899
 20
39.456523595238707
 30
0.0
 40
0.0244614408520638
 50
280.0623539608035912
 51
290.5452106193221198
  0
LINE
  5
7F45
  8
0
 10
387.832176984568207
 20
39.4427389660806824
 30
0.0
 11
387.8229962120702794
 21
39.4481679708895427
 31
0.0
  0
LINE
  5
7F46
  8
0
 10
387.8814489806682104
 20
39.4223559771806791
 30
0.0
 11
387.8667707244682106
 21
39.4134558111806683
 31
0.0
  0
LINE
  5
7F47
  8
0
 10
387.8605898915682246
 20
39.4225767665806828
 30
0.0
 11
387.832176984568207
 21
39.4225767665806828
 31
0.0
  0
LINE
  5
7F48
  8
0
 10
387.8605898915682246
 20
39.4225767665806828
 30
0.0
 11
387.8697702603219
 21
39.4280055325776573
 31
0.0
  0
ARC
  5
7F49
  8
0
 10
387.8864577534387763
 20
39.4491338410526282
 30
0.0
 40
0.027242279607474
 50
249.9969504735651924
 51
259.4053093299633019
  0
LINE
  5
7F4A
  8
0
 10
387.8771394553185132
 20
39.4235369309703501
 30
0.0
 11
387.8624599690681976
 21
39.4324384155806769
 31
0.0
  0
LINE
  5
7F4B
  8
0
 10
387.8624599690681976
 20
39.4324384155806769
 30
0.0
 11
387.8303057481682004
 21
39.4324370768806816
 31
0.0
  0
ARC
  5
7F4C
  8
0
 10
387.8581860704497899
 20
39.4363613957387074
 30
0.0
 40
0.0244614408520638
 50
280.0623539608035912
 51
290.5452106193221198
  0
LINE
  5
7F4D
  8
0
 10
387.832176984568207
 20
39.4225767665806828
 30
0.0
 11
387.8229962120702794
 21
39.4280057713895289
 31
0.0
  0
LINE
  5
7F4E
  8
0
 10
387.8814489807181758
 20
39.4024894798806784
 30
0.0
 11
387.8667707245181759
 21
39.3935893138806819
 31
0.0
  0
LINE
  5
7F4F
  8
0
 10
387.86058989161819
 20
39.4027102692806821
 30
0.0
 11
387.8321769846181724
 21
39.4027102692806821
 31
0.0
  0
LINE
  5
7F50
  8
0
 10
387.86058989161819
 20
39.4027102692806821
 30
0.0
 11
387.8697702603719222
 21
39.4081390352776566
 31
0.0
  0
ARC
  5
7F51
  8
0
 10
387.8864577534886848
 20
39.4292673437526275
 30
0.0
 40
0.027242279607474
 50
249.9969504735651924
 51
259.4053093299633019
  0
LINE
  5
7F52
  8
0
 10
387.8771394553684786
 20
39.4036704336703494
 30
0.0
 11
387.8624599691182198
 21
39.4125719182806833
 31
0.0
  0
LINE
  5
7F53
  8
0
 10
387.8624599691182198
 20
39.4125719182806833
 30
0.0
 11
387.8303057481682004
 21
39.4122748773806819
 31
0.0
  0
ARC
  5
7F54
  8
0
 10
387.8581860704999258
 20
39.4164948984387067
 30
0.0
 40
0.0244614408520638
 50
280.0623539608035912
 51
290.5452106193221198
  0
LINE
  5
7F55
  8
0
 10
387.8321769846181724
 20
39.4027102692806821
 30
0.0
 11
387.8229962121203016
 21
39.4081392740895424
 31
0.0
  0
LINE
  5
7F56
  8
0
 10
387.8814489807181758
 20
39.3823272803806788
 30
0.0
 11
387.8667707245181759
 21
39.3734271143806822
 31
0.0
  0
LINE
  5
7F57
  8
0
 10
387.86058989161819
 20
39.3825480697806825
 30
0.0
 11
387.8321769846181724
 21
39.3825480697806825
 31
0.0
  0
LINE
  5
7F58
  8
0
 10
387.86058989161819
 20
39.3825480697806825
 30
0.0
 11
387.8697702603719222
 21
39.387976835777657
 31
0.0
  0
ARC
  5
7F59
  8
0
 10
387.8864577534886848
 20
39.4091051442526279
 30
0.0
 40
0.027242279607474
 50
249.9969504735651924
 51
259.4053093299633019
  0
LINE
  5
7F5A
  8
0
 10
387.8771394553684786
 20
39.3835082341703497
 30
0.0
 11
387.8624599691182198
 21
39.3924097187806765
 31
0.0
  0
LINE
  5
7F5B
  8
0
 10
387.8624599691182198
 20
39.3924097187806765
 30
0.0
 11
387.8303057481682004
 21
39.3921126778806681
 31
0.0
  0
ARC
  5
7F5C
  8
0
 10
387.8581860704999258
 20
39.396332698938707
 30
0.0
 40
0.0244614408520638
 50
280.0623539608035912
 51
290.5452106193221198
  0
LINE
  5
7F5D
  8
0
 10
387.8321769846181724
 20
39.3825480697806825
 30
0.0
 11
387.8229962121203016
 21
39.3879770745895428
 31
0.0
  0
LINE
  5
7F5E
  8
0
 10
387.8814489806682104
 20
39.3618693785806784
 30
0.0
 11
387.8667707244682106
 21
39.3529692125806818
 31
0.0
  0
LINE
  5
7F5F
  8
0
 10
387.8605898915682246
 20
39.3620901679806821
 30
0.0
 11
387.832176984568207
 21
39.3620901679806821
 31
0.0
  0
LINE
  5
7F60
  8
0
 10
387.8605898915682246
 20
39.3620901679806821
 30
0.0
 11
387.8697702603219
 21
39.3675189339776566
 31
0.0
  0
ARC
  5
7F61
  8
0
 10
387.8864577534387763
 20
39.3886472424526275
 30
0.0
 40
0.027242279607474
 50
249.9969504735651924
 51
259.4053093299633019
  0
LINE
  5
7F62
  8
0
 10
387.8771394553185132
 20
39.3630503323703493
 30
0.0
 11
387.8624599690681976
 21
39.3719518169806832
 31
0.0
  0
LINE
  5
7F63
  8
0
 10
387.8624599690681976
 20
39.3719518169806832
 30
0.0
 11
387.8303057481682004
 21
39.3719504783806826
 31
0.0
  0
ARC
  5
7F64
  8
0
 10
387.8581860704497899
 20
39.3758747971387066
 30
0.0
 40
0.0244614408520638
 50
280.0623539608035912
 51
290.5452106193221198
  0
LINE
  5
7F65
  8
0
 10
387.832176984568207
 20
39.3620901679806821
 30
0.0
 11
387.8229962120702794
 21
39.3675191727895424
 31
0.0
  0
LINE
  5
7F66
  8
0
 10
387.8814489806682104
 20
39.3417071790806787
 30
0.0
 11
387.8667707244682106
 21
39.3328070130806822
 31
0.0
  0
LINE
  5
7F67
  8
0
 10
387.8605898915682246
 20
39.3419279684806824
 30
0.0
 11
387.832176984568207
 21
39.3419279684806824
 31
0.0
  0
LINE
  5
7F68
  8
0
 10
387.8605898915682246
 20
39.3419279684806824
 30
0.0
 11
387.8697702603219
 21
39.3473567344776569
 31
0.0
  0
ARC
  5
7F69
  8
0
 10
387.8864577534387763
 20
39.3684850429526279
 30
0.0
 40
0.027242279607474
 50
249.9969504735651924
 51
259.4053093299633019
  0
LINE
  5
7F6A
  8
0
 10
387.8771394553185132
 20
39.3428881328703497
 30
0.0
 11
387.8624599690681976
 21
39.3517896174806765
 31
0.0
  0
LINE
  5
7F6B
  8
0
 10
387.8624599690681976
 20
39.3517896174806765
 30
0.0
 11
387.8303057481682004
 21
39.351788278880683
 31
0.0
  0
ARC
  5
7F6C
  8
0
 10
387.8581860704497899
 20
39.355712597638707
 30
0.0
 40
0.0244614408520638
 50
280.0623539608035912
 51
290.5452106193221198
  0
LINE
  5
7F6D
  8
0
 10
387.832176984568207
 20
39.3419279684806824
 30
0.0
 11
387.8229962120702794
 21
39.3473569732895427
 31
0.0
  0
LINE
  5
7F6E
  8
0
 10
387.9325922131682205
 20
39.4122748773806819
 30
0.0
 11
387.9179139569682206
 21
39.4033747113806783
 31
0.0
  0
LINE
  5
7F6F
  8
0
 10
387.9117331240681779
 20
39.4124956667806785
 30
0.0
 11
387.8833202170682171
 21
39.4124956667806785
 31
0.0
  0
LINE
  5
7F70
  8
0
 10
387.9117331240681779
 20
39.4124956667806785
 30
0.0
 11
387.92091349282191
 21
39.4179244327776601
 31
0.0
  0
ARC
  5
7F71
  8
0
 10
387.9376009859387864
 20
39.4390527412526168
 30
0.0
 40
0.027242279607474
 50
249.9969504735651924
 51
259.4053093299633019
  0
LINE
  5
7F72
  8
0
 10
387.9282826878185233
 20
39.4134558311703529
 30
0.0
 11
387.9136032015682076
 21
39.4223573157806797
 31
0.0
  0
LINE
  5
7F73
  8
0
 10
387.9136032015682076
 20
39.4223573157806797
 30
0.0
 11
387.8814489806682104
 21
39.4223559771806791
 31
0.0
  0
ARC
  5
7F74
  8
0
 10
387.9093293029498
 20
39.4262802959387102
 30
0.0
 40
0.0244614408520638
 50
280.0623539608035912
 51
290.5452106193221198
  0
LINE
  5
7F75
  8
0
 10
387.8833202170682171
 20
39.4124956667806785
 30
0.0
 11
387.8741394445702895
 21
39.4179246715895388
 31
0.0
  0
LINE
  5
7F76
  8
0
 10
387.9325922131682205
 20
39.3921126778806681
 30
0.0
 11
387.9179139569682206
 21
39.3832125118806786
 31
0.0
  0
LINE
  5
7F77
  8
0
 10
387.9117331240681779
 20
39.3923334672806789
 30
0.0
 11
387.8833202170682171
 21
39.3923334672806789
 31
0.0
  0
LINE
  5
7F78
  8
0
 10
387.9117331240681779
 20
39.3923334672806789
 30
0.0
 11
387.92091349282191
 21
39.3977622332776534
 31
0.0
  0
ARC
  5
7F79
  8
0
 10
387.9376009859387864
 20
39.4188905417526314
 30
0.0
 40
0.027242279607474
 50
249.9969504735651924
 51
259.4053093299633019
  0
LINE
  5
7F7A
  8
0
 10
387.9282826878185233
 20
39.3932936316703532
 30
0.0
 11
387.9136032015682076
 21
39.4021951162806801
 31
0.0
  0
LINE
  5
7F7B
  8
0
 10
387.9136032015682076
 20
39.4021951162806801
 30
0.0
 11
387.8814489807181758
 21
39.4024894798806784
 31
0.0
  0
ARC
  5
7F7C
  8
0
 10
387.9093293029498
 20
39.4061180964387106
 30
0.0
 40
0.0244614408520638
 50
280.0623539608035912
 51
290.5452106193221198
  0
LINE
  5
7F7D
  8
0
 10
387.8833202170682171
 20
39.3923334672806789
 30
0.0
 11
387.8741394445702895
 21
39.3977624720895392
 31
0.0
  0
LINE
  5
7F7E
  8
0
 10
387.9325922131682205
 20
39.3719504783806826
 30
0.0
 11
387.9179139569682206
 21
39.363050312380679
 31
0.0
  0
LINE
  5
7F7F
  8
0
 10
387.9117331240681779
 20
39.3721712677806792
 30
0.0
 11
387.8833202170682171
 21
39.3721712677806792
 31
0.0
  0
LINE
  5
7F80
  8
0
 10
387.9117331240681779
 20
39.3721712677806792
 30
0.0
 11
387.92091349282191
 21
39.3776000337776608
 31
0.0
  0
ARC
  5
7F81
  8
0
 10
387.9376009859387864
 20
39.3987283422526176
 30
0.0
 40
0.027242279607474
 50
249.9969504735651924
 51
259.4053093299633019
  0
LINE
  5
7F82
  8
0
 10
387.9282826878185233
 20
39.3731314321703465
 30
0.0
 11
387.9136032015682076
 21
39.3820329167806804
 31
0.0
  0
LINE
  5
7F83
  8
0
 10
387.9136032015682076
 20
39.3820329167806804
 30
0.0
 11
387.8814489807181758
 21
39.3823272803806788
 31
0.0
  0
ARC
  5
7F84
  8
0
 10
387.9093293029498
 20
39.3859558969386967
 30
0.0
 40
0.0244614408520638
 50
280.0623539608035912
 51
290.5452106193221198
  0
LINE
  5
7F85
  8
0
 10
387.8833202170682171
 20
39.3721712677806792
 30
0.0
 11
387.8741394445702895
 21
39.3776002725895395
 31
0.0
  0
LINE
  5
7F86
  8
0
 10
387.9117331240681779
 20
39.3520090682806796
 30
0.0
 11
387.8833202170682171
 21
39.3520090682806796
 31
0.0
  0
LINE
  5
7F87
  8
0
 10
387.9117331240681779
 20
39.3520090682806796
 30
0.0
 11
387.92091349282191
 21
39.3574378342776612
 31
0.0
  0
LINE
  5
7F88
  8
0
 10
387.9225505466075106
 20
39.3564451422426629
 30
0.0
 11
387.9136032015682076
 21
39.3618707172806808
 31
0.0
  0
LINE
  5
7F89
  8
0
 10
387.9136032015682076
 20
39.3618707172806808
 30
0.0
 11
387.8814489806682104
 21
39.3618693785806784
 31
0.0
  0
LINE
  5
7F8A
  8
0
 10
387.8833202170682171
 20
39.3520090682806796
 30
0.0
 11
387.8741394445702895
 21
39.3574380730895399
 31
0.0
  0
ARC
  5
7F8B
  8
0
 10
387.7943181718320034
 20
39.36606204001545
 30
0.0
 40
0.1318680224057473
 50
358.4052000053874281
 51
0.8668453882489039
  0
ARC
  5
7F8C
  8
0
 10
387.9190841234600953
 20
39.3625883436452924
 30
0.0
 40
0.0070537233364144
 50
299.4347256069008267
 51
358.4052000053833922
  0
LINE
  5
7F8D
  8
0
 10
387.9325922131682205
 20
39.4122748773806819
 30
0.0
 11
387.9445807000421951
 21
39.4122768133806787
 31
0.0
  0
LINE
  5
7F8E
  8
0
 10
387.9252530850682206
 20
39.4078247943806801
 30
0.0
 11
387.9344621961682265
 21
39.4024156585806793
 31
0.0
  0
LINE
  5
7F8F
  8
0
 10
387.9344621961682265
 20
39.4024156585806793
 30
0.0
 11
387.9504560461285223
 21
39.4024156585806793
 31
0.0
  0
LINE
  5
7F90
  8
0
 10
387.9325922131682205
 20
39.3921126778806681
 30
0.0
 11
387.9533027020447093
 21
39.3921126778806681
 31
0.0
  0
LINE
  5
7F91
  8
0
 10
387.9252530850682206
 20
39.3876625948806804
 30
0.0
 11
387.9344621961682265
 21
39.3822534590806796
 31
0.0
  0
LINE
  5
7F92
  8
0
 10
387.9344621961682265
 20
39.3822534590806796
 30
0.0
 11
387.942391490768216
 21
39.3822534590806796
 31
0.0
  0
LINE
  5
7F93
  8
0
 10
387.942391490768216
 20
39.3822534590806796
 30
0.0
 11
387.9404755628681869
 21
39.3719536423806815
 31
0.0
  0
LINE
  5
7F94
  8
0
 10
387.9404755628681869
 20
39.3719536423806815
 30
0.0
 11
387.9325922131682205
 21
39.3719504783806826
 31
0.0
  0
LINE
  5
7F95
  8
0
 10
387.942391490768216
 20
39.3822534590806796
 30
0.0
 11
387.94891288513071
 21
39.3921126778806681
 31
0.0
  0
LINE
  5
7F96
  8
0
 10
387.8814463790682225
 20
39.3417091150806826
 30
0.0
 11
387.8974715065681949
 21
39.3417082706806767
 31
0.0
  0
LINE
  5
7F97
  8
0
 10
387.9019647568682103
 20
39.3483097137806794
 30
0.0
 11
387.9019647568682103
 21
39.3520090682806796
 31
0.0
  0
ARC
  5
7F98
  8
0
 10
387.8960252052876854
 20
39.3475147711561988
 30
0.0
 40
0.0059925125576443
 50
283.9505177232226742
 51
7.6230983139255892
  0
LINE
  5
7F99
  8
0
 10
387.9167738178189779
 20
39.4356404885894491
 30
0.0
 11
387.9117318705681896
 21
39.4326589578806832
 31
0.0
  0
LINE
  5
7F9A
  8
0
 10
387.9117318705681896
 20
39.4326589578806832
 30
0.0
 11
387.8833189636682164
 21
39.4326589578806832
 31
0.0
  0
LINE
  5
7F9B
  8
0
 10
387.8833189636682164
 20
39.4326589578806832
 30
0.0
 11
387.8741421211551028
 21
39.4380876597500887
 31
0.0
  0
LINE
  5
7F9C
  8
0
 10
387.9264422544162016
 20
39.4285797298391998
 30
0.0
 11
387.9177008719685205
 21
39.4234160963605405
 31
0.0
  0
LINE
  5
7F9D
  8
0
 10
387.9177008719685205
 20
39.4234160963605405
 30
0.0
 11
387.9136019481682069
 21
39.422358407280683
 31
0.0
  0
LINE
  5
7F9E
  8
0
 10
387.9323664278044248
 20
39.4238171804147015
 30
0.0
 11
387.9253774627682105
 21
39.4279500705806782
 31
0.0
  0
LINE
  5
7F9F
  8
0
 10
387.8814489806682104
 20
39.4425181766806787
 30
0.0
 11
387.9060985378915802
 21
39.4425181766806787
 31
0.0
  0
LINE
  5
7FA0
  8
0
 10
387.8624599690681976
 20
39.4526006150806765
 30
0.0
 11
387.866341177524987
 21
39.4535490079153277
 31
0.0
  0
LINE
  5
7FA1
  8
0
 10
387.866341177524987
 20
39.4535490079153277
 30
0.0
 11
387.8739175163789241
 21
39.4583507457556166
 31
0.0
  0
LINE
  5
7FA2
  8
0
 10
387.8602570579614053
 20
39.4631503951022822
 30
0.0
 11
387.8317861628094079
 21
39.4631326264172984
 31
0.0
  0
LINE
  5
7FA3
  8
0
 10
387.8317861628094079
 20
39.4631326264172984
 30
0.0
 11
387.8230669742014811
 21
39.4682886757988882
 31
0.0
  0
LINE
  5
7FA4
  8
0
 10
387.8280466914491171
 20
39.4712527732875529
 30
0.0
 11
387.8156261673685776
 21
39.4638596538784086
 31
0.0
  0
LINE
  5
7FA5
  8
0
 10
387.8156261673685776
 20
39.4638596538784086
 30
0.0
 11
387.8113167365681875
 21
39.462681714780679
 31
0.0
  0
LINE
  5
7FA6
  8
0
 10
387.812674869568184
 20
39.4748930845806782
 30
0.0
 11
387.8094454055682263
 21
39.4729833568806683
 31
0.0
  0
LINE
  5
7FA7
  8
0
 10
387.8094454055682263
 20
39.4729833568806683
 30
0.0
 11
387.7810324985682087
 21
39.4729833568806683
 31
0.0
  0
LINE
  5
7FA8
  8
0
 10
387.7810324985682087
 20
39.4729833568806683
 30
0.0
 11
387.7719477652681803
 21
39.47835556928068
 31
0.0
  0
LINE
  5
7FA9
  8
0
 10
387.7776966633446136
 20
39.4817551519287591
 30
0.0
 11
387.7644834076681946
 21
39.4739415580806821
 31
0.0
  0
LINE
  5
7FAA
  8
0
 10
387.7644834076681946
 20
39.4739415580806821
 30
0.0
 11
387.7601735040681774
 21
39.4727628145806833
 31
0.0
  0
LINE
  5
7FAB
  8
0
 10
387.7607160720206139
 20
39.484381521024531
 30
0.0
 11
387.7583021730682162
 21
39.4830644565806779
 31
0.0
  0
LINE
  5
7FAC
  8
0
 10
387.7583021730682162
 20
39.4830644565806779
 30
0.0
 11
387.7298892660681986
 21
39.4830644565806779
 31
0.0
  0
LINE
  5
7FAD
  8
0
 10
387.7298892660681986
 20
39.4830644565806779
 30
0.0
 11
387.7207713568128042
 21
39.4884562875192415
 31
0.0
  0
LINE
  5
7FAE
  8
0
 10
387.7601735040681774
 20
39.3114652184806772
 30
0.0
 11
387.728018029668192
 21
39.3114649713806799
 31
0.0
  0
LINE
  5
7FAF
  8
0
 10
387.7791625156681903
 20
39.3215449795806791
 30
0.0
 11
387.8113167365681875
 21
39.3215463182806815
 31
0.0
  0
LINE
  5
7FB0
  8
0
 10
387.8624599690681976
 20
39.3316274179806769
 30
0.0
 11
387.8303057481682004
 21
39.3316260793806833
 31
0.0
  0
LINE
  5
7FB1
  8
0
 10
387.8660242310681951
 20
39.3292969741806786
 30
0.0
 11
387.8622036467336898
 21
39.3316271708806795
 31
0.0
  0
LINE
  5
7FB2
  8
0
 10
387.871619778168224
 20
39.3350657700806821
 30
0.0
 11
387.871622646634421
 21
39.3357489778556584
 31
0.0
  0
ARC
  5
7FB3
  8
0
 10
387.8651692137319742
 20
39.3348889507713224
 30
0.0
 40
0.006452987417704
 50
301.8318130517142208
 51
1.5701670716003471
  0
ARC
  5
7FB4
  8
0
 10
387.867201167321582
 20
39.3316158045023698
 30
0.0
 40
0.0026004140065619
 50
243.0896548931515042
 51
301.8318130517101281
  0
ARC
  5
7FB5
  8
0
 10
387.8215172834695181
 20
39.3210451183666265
 30
0.0
 40
0.0051823741026098
 50
256.5328686273480798
 51
2.9145901336487241
  0
ARC
  5
7FB6
  8
0
 10
387.7708184338578121
 20
39.3109160517245826
 30
0.0
 40
0.0051992972063351
 50
248.2543074792081086
 51
0.3833849941868185
  0
ARC
  5
7FB7
  8
0
 10
387.7143041978141014
 20
39.3042555972504601
 30
0.0
 40
0.0053513961101779
 50
241.3419520521804031
 51
356.8405606886515216
  0
ARC
  5
7FB8
  8
0
 10
387.6668214018600906
 20
39.3022792163541297
 30
0.0
 40
0.0061060031121602
 50
194.0963230761909131
 51
305.2183453920645206
  0
LINE
  5
7FB9
  8
0
 10
387.6703426967682162
 20
39.297290854280682
 30
0.0
 11
387.6771011932046918
 21
39.3013838715806827
 31
0.0
  0
LINE
  5
7FBA
  8
0
 10
387.7117377692682112
 20
39.2995597602806797
 30
0.0
 11
387.7087069237439891
 21
39.301385212322252
 31
0.0
  0
LINE
  5
7FBB
  8
0
 10
387.7196474599682006
 20
39.3039606567806814
 30
0.0
 11
387.7196474599682006
 21
39.3063945333579596
 31
0.0
  0
LINE
  5
7FBC
  8
0
 10
387.7688921586682227
 20
39.306086749980679
 30
0.0
 11
387.759927127390597
 21
39.3114649713806799
 31
0.0
  0
LINE
  5
7FBD
  8
0
 10
387.7760128728202176
 20
39.3107412958512796
 30
0.0
 11
387.7760176147128277
 21
39.3146512877543017
 31
0.0
  0
LINE
  5
7FBE
  8
0
 10
387.7760176147128277
 20
39.3146512877543017
 30
0.0
 11
387.8113167365681875
 21
39.3215463182806815
 31
0.0
  0
LINE
  5
7FBF
  8
0
 10
387.8113167365681875
 20
39.3215463182806815
 30
0.0
 11
387.820310373268228
 21
39.3160052404806777
 31
0.0
  0
LINE
  5
7FC0
  8
0
 10
387.8266929538681893
 20
39.3213086278806827
 30
0.0
 11
387.8266929538502836
 21
39.3250090739034519
 31
0.0
  0
LINE
  5
7FC1
  8
0
 10
387.8266929538502836
 20
39.3250090739034519
 30
0.0
 11
387.8230060814263993
 21
39.3271999237895713
 31
0.0
  0
LINE
  5
7FC2
  8
0
 10
387.8266929539544776
 20
39.3250090739296212
 30
0.0
 11
387.8504999377988156
 21
39.3316271708806795
 31
0.0
  0
LINE
  5
7FC3
  8
0
 10
387.7760176146682056
 20
39.3146512509781374
 30
0.0
 11
387.7719122225361161
 21
39.3171487616958899
 31
0.0
  0
LINE
  5
7FC4
  8
0
 10
387.7545976677159274
 20
39.3114651756329465
 30
0.0
 11
387.7220447721390997
 21
39.3078430844994813
 31
0.0
  0
LINE
  5
7FC5
  8
0
 10
387.622727187582484
 20
39.3044925283764783
 30
0.0
 11
387.6609072083577985
 21
39.3044925284336912
 31
0.0
  0
LINE
  5
7FC6
  8
0
 10
387.6227271876682039
 20
39.3007920823806813
 30
0.0
 11
387.6227271876626901
 21
39.3044925283764783
 31
0.0
  0
LINE
  5
7FC7
  8
0
 10
387.6608992648681919
 20
39.3007920823806813
 30
0.0
 11
387.6609072083577985
 21
39.3044925284336912
 31
0.0
  0
LINE
  5
7FC8
  8
0
 10
387.6257418662681857
 20
39.331628160480669
 30
0.0
 11
387.6578845862682101
 21
39.331628160480669
 31
0.0
  0
LINE
  5
7FC9
  8
0
 10
387.6257394134681817
 20
39.3517896174806765
 30
0.0
 11
387.6578870390682141
 21
39.3517896174806765
 31
0.0
  0
LINE
  5
7FCA
  8
0
 10
387.6257394134681817
 20
39.3719518169806904
 30
0.0
 11
387.6578870390682141
 21
39.3719518169806904
 31
0.0
  0
LINE
  5
7FCB
  8
0
 10
387.6257394134681817
 20
39.3921140164806829
 30
0.0
 11
387.6578870390682141
 21
39.3921140164806829
 31
0.0
  0
LINE
  5
7FCC
  8
0
 10
387.6257394134681817
 20
39.4122762159806825
 30
0.0
 11
387.6578870390682141
 21
39.4122762159806825
 31
0.0
  0
LINE
  5
7FCD
  8
0
 10
387.6257394134681817
 20
39.4324384154806822
 30
0.0
 11
387.6578870390682141
 21
39.4324384154806822
 31
0.0
  0
LINE
  5
7FCE
  8
0
 10
387.6257394134681817
 20
39.4526006149806818
 30
0.0
 11
387.6578870390682141
 21
39.4526006149806818
 31
0.0
  0
LINE
  5
7FCF
  8
0
 10
387.6257394134681817
 20
39.4727628144806815
 30
0.0
 11
387.6578870390682141
 21
39.4727628144806815
 31
0.0
  0
LINE
  5
7FD0
  8
0
 10
387.6560209332682234
 20
39.3217667585806794
 30
0.0
 11
387.6276080262682058
 21
39.3217667585806794
 31
0.0
  0
LINE
  5
7FD1
  8
0
 10
387.6276080262682058
 20
39.3217667585806794
 30
0.0
 11
387.6184179088198221
 21
39.3272012894802288
 31
0.0
  0
LINE
  5
7FD2
  8
0
 10
387.6560209332682234
 20
39.3217667585806794
 30
0.0
 11
387.6652097835428208
 21
39.3272005400833891
 31
0.0
  0
LINE
  5
7FD3
  8
0
 10
387.6257406669682268
 20
39.3114663099806805
 30
0.0
 11
387.6578857855682259
 21
39.3114663099806805
 31
0.0
  0
LINE
  5
7FD4
  8
0
 10
387.6560209332682234
 20
39.3419282155806798
 30
0.0
 11
387.6276080262682058
 21
39.3419282155806798
 31
0.0
  0
LINE
  5
7FD5
  8
0
 10
387.6276080262682058
 20
39.3419282155806798
 30
0.0
 11
387.6184166689926087
 21
39.347363479645928
 31
0.0
  0
LINE
  5
7FD6
  8
0
 10
387.6560209332682234
 20
39.3419282155806798
 30
0.0
 11
387.6652110233699773
 21
39.3473627302490883
 31
0.0
  0
LINE
  5
7FD7
  8
0
 10
387.6560209332682234
 20
39.3822526145806791
 30
0.0
 11
387.6276080262682058
 21
39.3822526145806791
 31
0.0
  0
LINE
  5
7FD8
  8
0
 10
387.6276080262682058
 20
39.3822526145806791
 30
0.0
 11
387.6184166689926087
 21
39.3876878786459272
 31
0.0
  0
LINE
  5
7FD9
  8
0
 10
387.6560209332682234
 20
39.3822526145806791
 30
0.0
 11
387.6652110233699773
 21
39.3876871292490875
 31
0.0
  0
LINE
  5
7FDA
  8
0
 10
387.6560209332682234
 20
39.4024148140806787
 30
0.0
 11
387.6276080262682058
 21
39.4024148140806787
 31
0.0
  0
LINE
  5
7FDB
  8
0
 10
387.6276080262682058
 20
39.4024148140806787
 30
0.0
 11
387.6184166689926087
 21
39.4078500781459269
 31
0.0
  0
LINE
  5
7FDC
  8
0
 10
387.6560209332682234
 20
39.4024148140806787
 30
0.0
 11
387.6652110233699773
 21
39.4078493287490872
 31
0.0
  0
LINE
  5
7FDD
  8
0
 10
387.6560209332682234
 20
39.4225770135806783
 30
0.0
 11
387.6276080262682058
 21
39.4225770135806783
 31
0.0
  0
LINE
  5
7FDE
  8
0
 10
387.6276080262682058
 20
39.4225770135806783
 30
0.0
 11
387.6184166689926087
 21
39.4280122776459265
 31
0.0
  0
LINE
  5
7FDF
  8
0
 10
387.6560209332682234
 20
39.4225770135806783
 30
0.0
 11
387.6652110233699773
 21
39.4280115282490868
 31
0.0
  0
LINE
  5
7FE0
  8
0
 10
387.6560209332682234
 20
39.442739213080678
 30
0.0
 11
387.6276080262682058
 21
39.442739213080678
 31
0.0
  0
LINE
  5
7FE1
  8
0
 10
387.6276080262682058
 20
39.442739213080678
 30
0.0
 11
387.6184166689926087
 21
39.4481744771459333
 31
0.0
  0
LINE
  5
7FE2
  8
0
 10
387.6560209332682234
 20
39.442739213080678
 30
0.0
 11
387.6652110233699773
 21
39.4481737277490865
 31
0.0
  0
LINE
  5
7FE3
  8
0
 10
387.6560209332682234
 20
39.4629014125806776
 30
0.0
 11
387.6276080262682058
 21
39.4629014125806776
 31
0.0
  0
LINE
  5
7FE4
  8
0
 10
387.6276080262682058
 20
39.4629014125806776
 30
0.0
 11
387.6184166689926087
 21
39.46833667664594
 31
0.0
  0
LINE
  5
7FE5
  8
0
 10
387.6560209332682234
 20
39.4629014125806776
 30
0.0
 11
387.6652110233699773
 21
39.4683359272490932
 31
0.0
  0
LINE
  5
7FE6
  8
0
 10
387.6560209332668023
 20
39.4825007831414112
 30
0.0
 11
387.6276080262667847
 21
39.4825007831414112
 31
0.0
  0
LINE
  5
7FE7
  8
0
 10
387.6276080262667847
 20
39.4825007831414112
 30
0.0
 11
387.6180091917090067
 21
39.4881770068998605
 31
0.0
  0
LINE
  5
7FE8
  8
0
 10
387.6560209332668023
 20
39.4825007831414112
 30
0.0
 11
387.6656185006543751
 21
39.4881762575025306
 31
0.0
  0
LINE
  5
7FE9
  8
0
 10
387.6560209332682234
 20
39.3620904150806794
 30
0.0
 11
387.6276080262682058
 21
39.3620904150806794
 31
0.0
  0
LINE
  5
7FEA
  8
0
 10
387.6276080262682058
 20
39.3620904150806794
 30
0.0
 11
387.6184166689926087
 21
39.3675256791459276
 31
0.0
  0
LINE
  5
7FEB
  8
0
 10
387.6560209332682234
 20
39.3620904150806794
 30
0.0
 11
387.6652110233699773
 21
39.3675249297490879
 31
0.0
  0
ARC
  5
7FEC
  8
0
 10
387.6249677283138908
 20
40.8733355407220529
 30
0.0
 40
0.5372725515532571
 50
8.3824098750465055
 51
88.2032691957935668
  0
LINE
  5
7FED
  8
0
 10
388.1969273647682144
 20
43.0905863779806708
 30
0.0
 11
388.1969273647682144
 21
43.1299564567806684
 31
0.0
  0
LINE
  5
7FEE
  8
0
 10
388.153620278168205
 20
43.1299564567806684
 30
0.0
 11
388.153620278168205
 21
43.135074566980677
 31
0.0
  0
LINE
  5
7FEF
  8
0
 10
388.1969273647682144
 20
43.0905863779806708
 30
0.0
 11
388.029676842068227
 21
43.0905863779806708
 31
0.0
  0
LINE
  5
7FF0
  8
0
 10
387.9991854380962195
 20
43.1299564567806684
 30
0.0
 11
388.1969273647682144
 21
43.1299564567806684
 31
0.0
  0
LINE
  5
7FF1
  8
0
 10
388.1970090685682067
 20
43.135074566980677
 30
0.0
 11
387.9959786087899829
 21
43.135074566980677
 31
0.0
  0
ARC
  5
7FF2
  8
0
 10
387.6614271472682276
 20
42.5117883039806728
 30
0.0
 40
0.9200787401999999
 50
62.1937650602859122
 51
66.7400359946959725
  0
ARC
  5
7FF3
  8
0
 10
387.9405793547682038
 20
43.0451271192806786
 30
0.0
 40
0.3181102362
 50
46.8476554629406223
 51
61.8560741156378313
  0
ARC
  5
7FF4
  8
0
 10
388.001869846268221
 20
43.1320458196806769
 30
0.0
 40
0.2161417323
 50
6.6392295638901837
 51
20.43641358803659
  0
ARC
  5
7FF5
  8
0
 10
388.0250490772681928
 20
43.1386469013806817
 30
0.0
 40
0.1921259843
 50
21.0053745901864417
 51
46.1503642601955733
  0
ARC
  5
7FF6
  8
0
 10
388.1898838957861813
 20
42.9308042321265617
 30
0.0
 40
0.1599373145611851
 50
308.8542299771680177
 51
87.4759385754639567
  0
ARC
  5
7FF7
  8
0
 10
388.1970090685682067
 20
43.1547596063806722
 30
0.0
 40
0.0196850394
 50
270.0
 51
6.6392295638881622
  0
ARC
  5
7FF8
  8
0
 10
388.1041350401828822
 20
42.164939329958159
 30
0.0
 40
0.7824435663471399
 50
324.006936913197876
 51
333.2454565231637957
  0
ARC
  5
7FF9
  8
0
 10
388.5437464211433962
 20
41.9433132336454619
 30
0.0
 40
0.2901262978740566
 50
333.2454565231637957
 51
27.4515181567147906
  0
ARC
  5
7FFA
  8
0
 10
388.333093410372328
 20
41.7676863197711725
 30
0.0
 40
0.5611068716115031
 50
33.4606878618164316
 51
63.3040129095690034
  0
ARC
  5
7FFB
  8
0
 10
389.2710713824261006
 20
43.6100165808979483
 30
0.0
 40
1.506264186359717
 50
232.6053899007831092
 51
242.911701941825612
  0
ARC
  5
7FFC
  8
0
 10
388.44962186722762
 20
42.5451604103533398
 30
0.0
 40
0.1615077436422114
 50
139.8460733228897936
 51
234.7096019004758887
  0
ARC
  5
7FFD
  8
0
 10
387.6836169184621781
 20
43.287231556824878
 30
0.0
 40
0.9054463797396497
 50
315.2075380370188213
 51
320.6179953372636078
  0
ARC
  5
7FFE
  8
0
 10
388.3293514706736005
 20
42.7438383405852065
 30
0.0
 40
0.0624155809793174
 50
330.1126550463075091
 51
90.0
  0
ARC
  5
7FFF
  8
0
 10
387.6152241922742974
 20
44.2107252357405969
 30
0.0
 40
0.9467990367034232
 50
271.6092535871123914
 51
295.6300000046725245
  0
ARC
  5
8000
  8
0
 10
387.9399427763974018
 20
43.5142866624820712
 30
0.0
 40
0.1786276229645732
 50
298.3515815908575064
 51
24.4888488352734797
  0
ARC
  5
8001
  8
0
 10
387.8353185372743042
 20
43.4709140301647565
 30
0.0
 40
0.2918447531971137
 50
23.7236541096627498
 51
72.6966940095025365
  0
ARC
  5
8002
  8
0
 10
387.670249085711589
 20
43.1170405147592604
 30
0.0
 40
0.6808152271805977
 50
68.2869923185622554
 51
88.6895962961124553
  0
ARC
  5
8003
  8
0
 10
388.2361856657398107
 20
43.2820162304604494
 30
0.0
 40
0.2815870783162198
 50
192.5097420212044881
 51
222.829946401186703
  0
ARC
  5
8004
  8
0
 10
388.217831460612615
 20
43.254542560791748
 30
0.0
 40
0.2587282856860085
 50
162.2329284400493066
 51
187.443906900841597
  0
ARC
  5
8005
  8
0
 10
387.6684022602620985
 20
44.2107252357405969
 30
0.0
 40
0.9467990367034232
 50
244.3699999953275039
 51
268.3907464128876086
  0
LINE
  5
8006
  8
0
 10
388.8918092545682157
 20
37.0207244078806781
 30
0.0
 11
388.8918092545682157
 21
36.9687244078806785
 31
0.0
  0
LINE
  5
8007
  8
0
 10
388.6418092545682157
 20
37.6187269079806796
 30
0.0
 11
388.6418092545682157
 21
37.6087244078806791
 31
0.0
  0
ARC
  5
8008
  8
0
 10
389.0218092545682111
 20
37.6087244078806791
 30
0.0
 40
0.38
 50
180.0
 51
216.1609019977861124
  0
ARC
  5
8009
  8
0
 10
388.4082162787681796
 20
37.1602785805806803
 30
0.0
 40
0.38
 50
355.3364800661776144
 51
36.1616726501664516
  0
ARC
  5
800A
  8
0
 10
388.6868092545681748
 20
37.7380157464806771
 30
0.0
 40
0.1
 50
270.0
 51
90.0
  0
ARC
  5
800B
  8
0
 10
388.8318092545682134
 20
37.0207244078806781
 30
0.0
 40
0.06
 50
0.0
 51
90.0
  0
ARC
  5
800C
  8
0
 10
388.5918092545682043
 20
37.6187269079806796
 30
0.0
 40
0.05
 50
0.0
 51
22.6919715601550784
  0
ARC
  5
800D
  8
0
 10
388.8318092545682134
 20
37.1257244078806821
 30
0.0
 40
0.045
 50
175.3364800661780123
 51
270.0
  0
LINE
  5
800E
  8
0
 10
386.4518171979681824
 20
37.0807244078806804
 30
0.0
 11
388.8318092545682134
 21
37.0807244078806804
 31
0.0
  0
LINE
  5
8010
  8
0
 10
387.1271257829944261
 20
40.9516587623225021
 30
0.0
 11
387.1271257829944261
 21
39.6743773805316167
 31
0.0
  0
LINE
  5
8011
  8
0
 10
388.1565006695420266
 20
40.9516587623225021
 30
0.0
 11
388.1565006695420266
 21
39.6743773805316167
 31
0.0
  0
ENDSEC
  0
EOF
