  0
SECTION
  2
HEADER
  9
$ACADVER
  1
AC1009
  9
$INSBASE
 10
394.5342647486921237
 20
42.7485825949014071
 30
0.0
  9
$EXTMIN
 10
393.2598785717826786
 20
37.0401738248117312
 30
-0.0015258207003583
  9
$EXTMAX
 10
395.7963372868808847
 20
44.6214162481437384
 30
0.0000000349246037
  9
$LIMMIN
 10
0.0
 20
0.0
  9
$LIMMAX
 10
11.6929133858000007
 20
8.2677165353999982
  9
$ORTHOMODE
 70
     0
  9
$REGENMODE
 70
     1
  9
$FILLMODE
 70
     1
  9
$QTEXTMODE
 70
     0
  9
$MIRRTEXT
 70
     0
  9
$DRAGMODE
 70
     2
  9
$LTSCALE
 40
0.6431102362
  9
$OSMODE
 70
  4095
  9
$ATTMODE
 70
     1
  9
$TEXTSIZE
 40
0.2
  9
$TRACEWID
 40
0.05
  9
$TEXTSTYLE
  7
STANDARD
  9
$CLAYER
  8
0
  9
$CELTYPE
  6
BYLAYER
  9
$CECOLOR
 62
   256
  9
$DIMSCALE
 40
1.0
  9
$DIMASZ
 40
0.1875
  9
$DIMEXO
 40
0.0625
  9
$DIMDLI
 40
0.4443307087
  9
$DIMRND
 40
0.0
  9
$DIMDLE
 40
0.0
  9
$DIMEXE
 40
0.125
  9
$DIMTP
 40
0.01
  9
$DIMTM
 40
0.01
  9
$DIMTXT
 40
1.0
  9
$DIMCEN
 40
0.1052362205
  9
$DIMTSZ
 40
0.0
  9
$DIMTOL
 70
     1
  9
$DIMLIM
 70
     0
  9
$DIMTIH
 70
     0
  9
$DIMTOH
 70
     1
  9
$DIMSE1
 70
     0
  9
$DIMSE2
 70
     0
  9
$DIMTAD
 70
     0
  9
$DIMZIN
 70
     0
  9
$DIMBLK
  1

  9
$DIMASO
 70
     1
  9
$DIMSHO
 70
     1
  9
$DIMPOST
  1
\X
  9
$DIMAPOST
  1

  9
$DIMALT
 70
     1
  9
$DIMALTD
 70
     2
  9
$DIMALTF
 40
25.3999999999999986
  9
$DIMLFAC
 40
1.0
  9
$DIMTOFL
 70
     0
  9
$DIMTVP
 40
0.0
  9
$DIMTIX
 70
     0
  9
$DIMSOXD
 70
     0
  9
$DIMSAH
 70
     0
  9
$DIMBLK1
  1

  9
$DIMBLK2
  1

  9
$DIMSTYLE
  2
STANDARD
  9
$DIMCLRD
 70
     0
  9
$DIMCLRE
 70
     0
  9
$DIMCLRT
 70
     0
  9
$DIMTFAC
 40
1.0
  9
$DIMGAP
 40
0.09
  9
$LUNITS
 70
     2
  9
$LUPREC
 70
     4
  9
$SKETCHINC
 40
0.1
  9
$FILLETRAD
 40
0.0
  9
$AUNITS
 70
     0
  9
$AUPREC
 70
     0
  9
$MENU
  1
.
  9
$ELEVATION
 40
0.0
  9
$PELEVATION
 40
0.0
  9
$THICKNESS
 40
0.0
  9
$LIMCHECK
 70
     0
  9
$BLIPMODE
 70
     0
  9
$CHAMFERA
 40
0.0
  9
$CHAMFERB
 40
0.0
  9
$SKPOLY
 70
     0
  9
$TDCREATE
 40
2458172.5207638889551163
  9
$TDUPDATE
 40
2459100.3692824081517756
  9
$TDINDWG
 40
0.1410044444
  9
$TDUSRTIMER
 40
0.1410044444
  9
$USRTIMER
 70
     1
  9
$ANGBASE
 50
0.0
  9
$ANGDIR
 70
     0
  9
$PDMODE
 70
     0
  9
$PDSIZE
 40
0.3125
  9
$PLINEWID
 40
0.0
  9
$COORDS
 70
     1
  9
$SPLFRAME
 70
     0
  9
$SPLINETYPE
 70
     6
  9
$SPLINESEGS
 70
     8
  9
$ATTDIA
 70
     1
  9
$ATTREQ
 70
     1
  9
$HANDLING
 70
     1
  9
$HANDSEED
  5
8024
  9
$SURFTAB1
 70
     6
  9
$SURFTAB2
 70
     6
  9
$SURFTYPE
 70
     6
  9
$SURFU
 70
     6
  9
$SURFV
 70
     6
  9
$UCSNAME
  2

  9
$UCSORG
 10
0.0
 20
0.0
 30
0.0
  9
$UCSXDIR
 10
1.0
 20
0.0
 30
0.0
  9
$UCSYDIR
 10
0.0
 20
1.0
 30
0.0
  9
$PUCSNAME
  2

  9
$PUCSORG
 10
0.0
 20
0.0
 30
0.0
  9
$PUCSXDIR
 10
1.0
 20
0.0
 30
0.0
  9
$PUCSYDIR
 10
0.0
 20
1.0
 30
0.0
  9
$USERI1
 70
     0
  9
$USERI2
 70
     0
  9
$USERI3
 70
     0
  9
$USERI4
 70
     0
  9
$USERI5
 70
     0
  9
$USERR1
 40
0.0
  9
$USERR2
 40
0.0
  9
$USERR3
 40
0.0
  9
$USERR4
 40
0.0
  9
$USERR5
 40
0.0
  9
$WORLDVIEW
 70
     1
  9
$SHADEDGE
 70
     3
  9
$SHADEDIF
 70
    70
  9
$TILEMODE
 70
     1
  9
$MAXACTVP
 70
    64
  9
$PLIMCHECK
 70
     0
  9
$PEXTMIN
 10
1.0000000000000000E+20
 20
1.0000000000000000E+20
 30
1.0000000000000000E+20
  9
$PEXTMAX
 10
-1.0000000000000000E+20
 20
-1.0000000000000000E+20
 30
-1.0000000000000000E+20
  9
$PLIMMIN
 10
0.0
 20
0.0
  9
$PLIMMAX
 10
12.0
 20
9.0
  9
$UNITMODE
 70
     0
  9
$VISRETAIN
 70
     1
  9
$PLINEGEN
 70
     0
  9
$PSLTSCALE
 70
     1
  0
ENDSEC
  0
SECTION
  2
TABLES
  0
TABLE
  2
VPORT
 70
     1
  0
VPORT
  2
*ACTIVE
 70
     0
 10
0.0
 20
0.0
 11
1.0
 21
1.0
 12
20.7069714547224102
 22
-1.0556530957857291
 13
0.0
 23
0.0
 14
1.0
 24
1.0
 15
0.0
 25
0.0
 16
0.0
 26
0.0
 36
25.5757211105568096
 17
373.821136474609375
 27
41.8864481322634603
 37
0.0
 40
7.6443318193652914
 41
2.6486111111111108
 42
50.0
 43
0.0
 44
0.0
 50
0.0
 51
0.0
 71
     0
 72
   100
 73
     1
 74
     1
 75
     0
 76
     0
 77
     0
 78
     0
  0
ENDTAB
  0
TABLE
  2
LTYPE
 70
     2
  0
LTYPE
  2
CONTINUOUS
 70
     0
  3
Solid line
 72
    65
 73
     0
 40
0.0
  0
LTYPE
  2
PHANTOM2
 70
     0
  3
___ _ _ ___ _ _ ___ _ _ ___ _ _
 72
    65
 73
     6
 40
1.25
 49
0.625
 49
-0.125
 49
0.125
 49
-0.125
 49
0.125
 49
-0.125
  0
ENDTAB
  0
TABLE
  2
LAYER
 70
     2
  0
LAYER
  2
0
 70
     0
 62
   255
  6
CONTINUOUS
  0
LAYER
  2
DEFPOINTS
 70
     0
 62
     7
  6
CONTINUOUS
  0
ENDTAB
  0
TABLE
  2
STYLE
 70
     1
  0
STYLE
  2
STANDARD
 70
     0
 40
0.0
 41
0.8
 50
0.0
 71
     0
 42
0.2
  3
txt
  4

  0
ENDTAB
  0
TABLE
  2
VIEW
 70
     0
  0
ENDTAB
  0
TABLE
  2
UCS
 70
     0
  0
ENDTAB
  0
TABLE
  2
APPID
 70
    10
  0
APPID
  2
ACAD
 70
     0
  0
APPID
  2
ACAD_MLEADERVER
 70
     0
  0
APPID
  2
ACAD_EXEMPT_FROM_CAD_STANDARDS
 70
     0
  0
APPID
  2
ACAD_DSTYLE_DIMJAG
 70
     0
  0
APPID
  2
ACAD_DSTYLE_DIMTALN
 70
     0
  0
APPID
  2
ACAD_NAV_VCDISPLAY
 70
     0
  0
APPID
  2
ACAECLAYERSTANDARD
 70
     0
  0
APPID
  2
ACCMTRANSPARENCY
 70
     0
  0
APPID
  2
DCO15
 70
     0
  0
APPID
  2
ACDBATTR
 70
     0
  0
ENDTAB
  0
TABLE
  2
DIMSTYLE
 70
     1
  0
DIMSTYLE
  2
STANDARD
 70
     0
  3

  4

  5

  6

  7

 40
1.0
 41
0.1875
 42
0.0625
 43
0.38
 44
0.125
 45
0.0
 46
0.0
 47
0.01
 48
0.01
140
0.15625
141
0.09
142
0.0
143
25.3999999999999986
144
1.0
145
0.0
146
1.0
147
0.09
 71
     1
 72
     0
 73
     1
 74
     1
 75
     0
 76
     0
 77
     0
 78
     4
170
     0
171
     2
172
     0
173
     0
174
     0
175
     0
176
     0
177
     0
178
     0
  0
ENDTAB
  0
ENDSEC
  0
SECTION
  2
BLOCKS
  0
BLOCK
  8
0
  2
$MODEL_SPACE
 70
     0
 10
0.0
 20
0.0
 30
0.0
  3
$MODEL_SPACE
  1

  0
ENDBLK
  5
21
  8
0
  0
BLOCK
 67
     1
  8
0
  2
$PAPER_SPACE
 70
     0
 10
0.0
 20
0.0
 30
0.0
  3
$PAPER_SPACE
  1

  0
ENDBLK
  5
1D
 67
     1
  8
0
  0
BLOCK
  8
0
  2
_FILLED
 70
     0
 10
0.0
 20
0.0
 30
0.0
  3
_FILLED
  1

  0
SOLID
  5
7CCA
  8
0
  6
BYBLOCK
 62
     0
 10
0.0
 20
0.0
 30
0.0
 11
-1.0
 21
0.1666666667
 31
0.0
 12
-1.0
 22
-0.1666666667
 32
0.0
 13
-1.0
 23
-0.1666666667
 33
0.0
  0
ENDBLK
  5
7CCB
  8
0
  6
BYBLOCK
 62
     0
  0
ENDSEC
  0
SECTION
  2
ENTITIES
  0
ATTDEF
  5
829
  8
DEFPOINTS
 10
394.5346620820535009
 20
42.7526095549171714
 30
0.0
 40
0.001
  1
K-8657IN
  3

  2
MODELNUMBER
 70
     0
1001
ACDBATTR
1070
     0
1070
     1
  0
ATTDEF
  5
82A
  8
DEFPOINTS
 10
394.5346620820535009
 20
42.7509428882505134
 30
0.0
 40
0.001
  1
FAIRFAX
  3

  2
TRADENAME
 70
     0
1001
ACDBATTR
1070
     0
1070
     1
  0
ATTDEF
  5
82B
  8
DEFPOINTS
 10
394.5346620820535009
 20
42.7492762215838411
 30
0.0
 40
0.001
  1
BATHROOM SINK FAUCET
  3

  2
PRODUCT
 70
     0
1001
ACDBATTR
1070
     0
1070
     1
  0
LINE
  5
7D13
  8
0
 10
394.0201077395919924
 20
39.4269793704014191
 30
0.0
 11
394.0247097371920972
 21
38.857146836501407
 31
0.0
  0
LINE
  5
7D14
  8
0
 10
394.0247097371920972
 20
38.857146836501407
 30
0.0
 11
394.0336810465025223
 21
37.6177376885491412
 31
0.0
  0
LINE
  5
7D15
  8
0
 10
394.0201077395919924
 20
39.4269793704014191
 30
0.0
 11
394.0072020558919803
 21
40.9914405721014106
 31
0.0
  0
LINE
  5
7D16
  8
0
 10
394.4555304858984073
 20
44.1047195704690083
 30
0.0
 11
394.455530515360806
 21
43.938039090430081
 31
0.0
  0
LINE
  5
7D17
  8
0
 10
395.187335785392122
 20
42.475055456701412
 30
0.0
 11
395.1884042776919728
 21
42.4776307754014084
 31
0.0
  0
ARC
  5
7D18
  8
0
 10
394.5342687203919922
 20
42.7485825949014071
 30
0.0
 40
1.25
 50
93.611484910932603
 51
237.4527932166917878
  0
ARC
  5
7D19
  8
0
 10
394.5342687203919922
 20
42.7485825949014071
 30
0.0
 40
0.7500000087000001
 50
315.6474906385518011
 51
224.3507568842211128
  0
ARC
  5
7D1A
  8
0
 10
394.4663577312430789
 20
42.7619082593480684
 30
0.0
 40
0.7760036875783582
 50
338.5360570167874812
 51
359.1337614030898067
  0
ARC
  5
7D1B
  8
0
 10
394.5342777676386845
 20
42.7486173793392581
 30
0.0
 40
0.7079966819097159
 50
0.1261766720625032
 51
179.8738233279374867
  0
ARC
  5
7D1C
  8
0
 10
399.4558304337923005
 20
44.9170248294128811
 30
0.0
 40
6.0859758473616594
 50
203.6296053564765032
 51
208.5419792584937966
  0
ARC
  5
7D1D
  8
0
 10
393.0850558024093857
 20
41.5311107888225024
 30
0.0
 40
1.130481373127
 50
3.456698336941836
 51
25.0143933860237411
  0
ARC
  5
7D1E
  8
0
 10
391.6188660467939258
 20
41.4844090108556003
 30
0.0
 40
2.5971556337555359
 50
351.4731817240174223
 51
2.5348211635787279
  0
ARC
  5
7D1F
  8
0
 10
371.4539357260940164
 20
44.062396308992831
 30
0.0
 40
22.925669065397571
 50
351.0198307355270799
 51
352.5739193977547075
  0
ARC
  5
7D20
  8
0
 10
398.0526341477103074
 20
39.9117765339595607
 30
0.0
 40
3.9952148178419429
 50
171.7672655265205037
 51
179.6191839784634965
  0
ARC
  5
7D21
  8
0
 10
394.5172362986236863
 20
39.6922986847606865
 30
0.0
 40
0.4053006001803174
 50
219.7634740715261046
 51
240.6226290257970959
  0
ARC
  5
7D22
  8
0
 10
394.5115214511819772
 20
39.6818522282019615
 30
0.0
 40
0.3933940314240553
 50
240.6015617719205864
 51
256.1386361418796014
  0
ARC
  5
7D23
  8
0
 10
394.5311046466949847
 20
39.7462086911634671
 30
0.0
 40
0.4605819634064278
 50
255.6914430987507956
 51
270.3931155412990961
  0
ARC
  5
7D24
  8
0
 10
395.5737694838709899
 20
39.9849702143742078
 30
0.0
 40
1.516979049539215
 50
181.7618434098419868
 51
192.5451714980308964
  0
ARC
  5
7D25
  8
0
 10
394.6779358664578012
 20
39.8120598238369183
 30
0.0
 40
0.6055256039196335
 50
194.98725902818191
 51
218.7483906714188038
  0
ARC
  5
7D26
  8
0
 10
391.767174799987913
 20
40.8951178666159976
 30
0.0
 40
2.2420972705897002
 50
2.4622408808331482
 51
23.6066853312612999
  0
ARC
  5
7D27
  8
0
 10
394.5148931488299127
 20
37.6801989904328991
 30
0.0
 40
0.5015348472150275
 50
213.4120024199432919
 51
245.2668478211824947
  0
ARC
  5
7D28
  8
0
 10
394.5336965365161177
 20
37.7165013691022111
 30
0.0
 40
0.5423775644395401
 50
245.0672089215339042
 51
270.0600249118755869
  0
ARC
  5
7D29
  8
0
 10
394.5303863532449782
 20
37.6672160454178808
 30
0.0
 40
0.6251286843160964
 50
215.8192854113675025
 51
270.3554741952648897
  0
ARC
  5
7D2A
  8
0
 10
394.5380506221695782
 20
37.6147085075161627
 30
0.0
 40
0.6161871894700025
 50
145.3472153677793131
 51
179.6896703829571038
  0
ARC
  5
7D2B
  8
0
 10
394.4711988502767781
 20
37.6196782082945305
 30
0.0
 40
0.5493288044460105
 50
180.1702492520265935
 51
215.4116180240251026
  0
ARC
  5
7D2C
  8
0
 10
394.4928477330386158
 20
37.6361461126194001
 30
0.0
 40
0.4595355438932903
 50
182.2958121772697098
 51
210.3392473587703932
  0
ARC
  5
7D2D
  8
0
 10
394.4742286945282785
 20
37.6553240267386684
 30
0.0
 40
0.4537463857928129
 50
166.6993637099270984
 51
213.2869462940475103
  0
ARC
  5
7D2E
  8
0
 10
394.5382850369088032
 20
44.3310882973576099
 30
0.0
 40
0.2889941159990077
 50
90.7970853547971473
 51
159.8774968287796128
  0
ARC
  5
7D2F
  8
0
 10
394.496917928214998
 20
44.370127232116289
 30
0.0
 40
0.2377813403661573
 50
165.2889456052853063
 51
235.208930187059309
  0
ARC
  5
7D30
  8
0
 10
394.5329738861738065
 20
44.4128097088386298
 30
0.0
 40
0.2934539109344873
 50
234.1825588783542003
 51
270.2520368957380015
  0
ARC
  5
7D31
  8
0
 10
394.530302637912996
 20
44.3770290822072084
 30
0.0
 40
0.2823886415916921
 50
213.0972342232352901
 51
270.8039263664239797
  0
ARC
  5
7D32
  8
0
 10
394.4951108769079156
 20
44.3472551729932505
 30
0.0
 40
0.2367177964341312
 50
175.3679148815255076
 51
211.7111441839134898
  0
LINE
  5
7D33
  8
0
 10
395.0484217577920845
 20
39.4269793704014191
 30
0.0
 11
395.0438197601919796
 21
38.857146836501407
 31
0.0
  0
LINE
  5
7D34
  8
0
 10
395.0438197601919796
 20
38.857146836501407
 30
0.0
 11
395.0348484508817251
 21
37.6177376885491412
 31
0.0
  0
LINE
  5
7D35
  8
0
 10
395.0484217577920845
 20
39.4269793704014191
 30
0.0
 11
395.0613274414919829
 21
40.9914405721014106
 31
0.0
  0
ARC
  5
7D36
  8
0
 10
389.6126990635917764
 20
44.9170248294128811
 30
0.0
 40
6.0859758473616594
 50
331.458020741506175
 51
336.3737594300807245
  0
ARC
  5
7D37
  8
0
 10
395.9834736949746912
 20
41.5311107888225024
 30
0.0
 40
1.130481373127
 50
154.9856066139761879
 51
176.543301663058088
  0
ARC
  5
7D38
  8
0
 10
397.449663450590208
 20
41.4844090108556003
 30
0.0
 40
2.5971556337555359
 50
177.4651788364213019
 51
188.5268182759826061
  0
ARC
  5
7D39
  8
0
 10
417.6145937712901173
 20
44.062396308992831
 30
0.0
 40
22.925669065397571
 50
187.4260806022448946
 51
188.9801692644728917
  0
ARC
  5
7D3A
  8
0
 10
388.1528820863849774
 20
39.6961650158705126
 30
0.0
 40
6.862414016016813
 50
2.022311964955767
 51
6.5912385300609957
  0
ARC
  5
7D3B
  8
0
 10
394.5512931987602769
 20
39.6922986847606865
 30
0.0
 40
0.4053006001803174
 50
299.3773709742026767
 51
320.2365259284737817
  0
ARC
  5
7D3C
  8
0
 10
394.5570080462020996
 20
39.6818522282019615
 30
0.0
 40
0.3933940314240553
 50
283.8613638581203986
 51
299.3984382280793284
  0
ARC
  5
7D3D
  8
0
 10
394.5374248506892059
 20
39.7462086911634671
 30
0.0
 40
0.4605819634064278
 50
269.6068844587009039
 51
284.308556901249176
  0
ARC
  5
7D3E
  8
0
 10
393.8472600667508914
 20
39.9407296723613783
 30
0.0
 40
1.1637643280435399
 50
345.8111036130649154
 51
359.881881479062713
  0
ARC
  5
7D3F
  8
0
 10
394.3905936309262756
 20
39.8120598238369183
 30
0.0
 40
0.6055256039196335
 50
321.2516093285810825
 51
345.0127409718181184
  0
ARC
  5
7D40
  8
0
 10
397.3013546973962775
 20
40.8951178666159976
 30
0.0
 40
2.2420972705897002
 50
156.3933146687386966
 51
177.5377591191667932
  0
ARC
  5
7D41
  8
0
 10
394.5536363485542211
 20
37.6801989904328991
 30
0.0
 40
0.5015348472150275
 50
294.7331521788174769
 51
326.5879975800565944
  0
ARC
  5
7D42
  8
0
 10
394.5348329608680729
 20
37.7165013691022111
 30
0.0
 40
0.5423775644395401
 50
269.9399750881244131
 51
294.9327910784660958
  0
ARC
  5
7D43
  8
0
 10
394.545734772638184
 20
37.6350474667630621
 30
0.0
 40
0.5930590025091007
 50
268.8918051367783164
 51
326.3192118943948117
  0
ARC
  5
7D44
  8
0
 10
394.6073580663473876
 20
37.6293390324538919
 30
0.0
 40
0.539417187859436
 50
323.1923107200091749
 51
358.8003822965143854
  0
ARC
  5
7D45
  8
0
 10
394.4930164141807722
 20
37.6029098951296703
 30
0.0
 40
0.6538158376554577
 50
1.3265331392049
 51
33.636581110059339
  0
ARC
  5
7D46
  8
0
 10
394.5756817643455179
 20
37.6361461126194001
 30
0.0
 40
0.4595355438932909
 50
329.6607526412295215
 51
357.7041878227299208
  0
ARC
  5
7D47
  8
0
 10
394.5943008028557983
 20
37.6553240267386684
 30
0.0
 40
0.4537463857928133
 50
326.7130537059525182
 51
13.3006362900728892
  0
ARC
  5
7D48
  8
0
 10
394.5294575875935266
 20
44.3299784892424427
 30
0.0
 40
0.2901157886002257
 50
20.2748409721707006
 51
89.0505768442529018
  0
ARC
  5
7D49
  8
0
 10
394.5716115691690788
 20
44.370127232116289
 30
0.0
 40
0.2377813403661573
 50
304.791069812940691
 51
14.7110543947147008
  0
ARC
  5
7D4A
  8
0
 10
394.5355556112103272
 20
44.4128097088386298
 30
0.0
 40
0.2934539109344873
 50
269.7479631042618848
 51
305.8174411216459134
  0
ARC
  5
7D4B
  8
0
 10
394.5382268594710808
 20
44.3770290822072084
 30
0.0
 40
0.2823886415916921
 50
269.1960736335760203
 51
326.9027657767646815
  0
ARC
  5
7D4C
  8
0
 10
394.5734186204762182
 20
44.3472551729932505
 30
0.0
 40
0.2367177964341312
 50
328.2888558160864818
 51
4.6320851184744649
  0
LINE
  5
7D4D
  8
0
 10
394.6129990114857264
 20
44.1047195704690083
 30
0.0
 11
394.6129989820233277
 21
43.938039090430081
 31
0.0
  0
ARC
  5
7D4E
  8
0
 10
394.5342607769920278
 20
42.7485825949014071
 30
0.0
 40
1.25
 50
302.5472067833081837
 51
86.3885150890641142
  0
ARC
  5
7D4F
  8
0
 10
394.60175733311371
 20
42.7618645328815674
 30
0.0
 40
0.7755886417564553
 50
180.8634715741148113
 51
201.498523916270301
  0
CIRCLE
  5
7D50
  8
0
 10
394.5342647486921237
 20
42.7485825949014071
 30
0.0
 40
0.5748808816999978
  0
ARC
  5
7D51
  8
0
 10
394.5342647486921237
 20
42.7485825949014071
 30
0.0
 40
1.1920594927492529
 50
306.712925414107815
 51
233.2870745858920998
  0
ENDSEC
  0
EOF
