  0
SECTION
  2
HEADER
  9
$ACADVER
  1
AC1009
  9
$INSBASE
 10
403.1407589748548048
 20
37.9204102212935297
 30
0.0
  9
$EXTMIN
 10
397.4231969028375033
 20
37.9175722911901332
 30
-0.0015258207003583
  9
$EXTMAX
 10
405.0245917636577815
 20
44.6404011083803027
 30
0.0000000349246037
  9
$LIMMIN
 10
0.0
 20
0.0
  9
$LIMMAX
 10
11.6929133858000007
 20
8.2677165353999982
  9
$ORTHOMODE
 70
     0
  9
$REGENMODE
 70
     1
  9
$FILLMODE
 70
     1
  9
$QTEXTMODE
 70
     0
  9
$MIRRTEXT
 70
     0
  9
$DRAGMODE
 70
     2
  9
$LTSCALE
 40
0.6431102362
  9
$OSMODE
 70
  4095
  9
$ATTMODE
 70
     1
  9
$TEXTSIZE
 40
0.2
  9
$TRACEWID
 40
0.05
  9
$TEXTSTYLE
  7
STANDARD
  9
$CLAYER
  8
0
  9
$CELTYPE
  6
BYLAYER
  9
$CECOLOR
 62
   256
  9
$DIMSCALE
 40
1.0
  9
$DIMASZ
 40
0.1875
  9
$DIMEXO
 40
0.0625
  9
$DIMDLI
 40
0.4443307087
  9
$DIMRND
 40
0.0
  9
$DIMDLE
 40
0.0
  9
$DIMEXE
 40
0.125
  9
$DIMTP
 40
0.01
  9
$DIMTM
 40
0.01
  9
$DIMTXT
 40
1.0
  9
$DIMCEN
 40
0.1052362205
  9
$DIMTSZ
 40
0.0
  9
$DIMTOL
 70
     1
  9
$DIMLIM
 70
     0
  9
$DIMTIH
 70
     0
  9
$DIMTOH
 70
     1
  9
$DIMSE1
 70
     0
  9
$DIMSE2
 70
     0
  9
$DIMTAD
 70
     0
  9
$DIMZIN
 70
     0
  9
$DIMBLK
  1

  9
$DIMASO
 70
     1
  9
$DIMSHO
 70
     1
  9
$DIMPOST
  1
\X
  9
$DIMAPOST
  1

  9
$DIMALT
 70
     1
  9
$DIMALTD
 70
     2
  9
$DIMALTF
 40
25.3999999999999986
  9
$DIMLFAC
 40
1.0
  9
$DIMTOFL
 70
     0
  9
$DIMTVP
 40
0.0
  9
$DIMTIX
 70
     0
  9
$DIMSOXD
 70
     0
  9
$DIMSAH
 70
     0
  9
$DIMBLK1
  1

  9
$DIMBLK2
  1

  9
$DIMSTYLE
  2
STANDARD
  9
$DIMCLRD
 70
     0
  9
$DIMCLRE
 70
     0
  9
$DIMCLRT
 70
     0
  9
$DIMTFAC
 40
1.0
  9
$DIMGAP
 40
0.09
  9
$LUNITS
 70
     2
  9
$LUPREC
 70
     4
  9
$SKETCHINC
 40
0.1
  9
$FILLETRAD
 40
0.0
  9
$AUNITS
 70
     0
  9
$AUPREC
 70
     0
  9
$MENU
  1
.
  9
$ELEVATION
 40
0.0
  9
$PELEVATION
 40
0.0
  9
$THICKNESS
 40
0.0
  9
$LIMCHECK
 70
     0
  9
$BLIPMODE
 70
     0
  9
$CHAMFERA
 40
0.0
  9
$CHAMFERB
 40
0.0
  9
$SKPOLY
 70
     0
  9
$TDCREATE
 40
2458172.5207638889551163
  9
$TDUPDATE
 40
2459100.3686805558390915
  9
$TDINDWG
 40
0.1390947222
  9
$TDUSRTIMER
 40
0.1390947222
  9
$USRTIMER
 70
     1
  9
$ANGBASE
 50
0.0
  9
$ANGDIR
 70
     0
  9
$PDMODE
 70
     0
  9
$PDSIZE
 40
0.3125
  9
$PLINEWID
 40
0.0
  9
$COORDS
 70
     1
  9
$SPLFRAME
 70
     0
  9
$SPLINETYPE
 70
     6
  9
$SPLINESEGS
 70
     8
  9
$ATTDIA
 70
     1
  9
$ATTREQ
 70
     1
  9
$HANDLING
 70
     1
  9
$HANDSEED
  5
80E8
  9
$SURFTAB1
 70
     6
  9
$SURFTAB2
 70
     6
  9
$SURFTYPE
 70
     6
  9
$SURFU
 70
     6
  9
$SURFV
 70
     6
  9
$UCSNAME
  2

  9
$UCSORG
 10
0.0
 20
0.0
 30
0.0
  9
$UCSXDIR
 10
1.0
 20
0.0
 30
0.0
  9
$UCSYDIR
 10
0.0
 20
1.0
 30
0.0
  9
$PUCSNAME
  2

  9
$PUCSORG
 10
0.0
 20
0.0
 30
0.0
  9
$PUCSXDIR
 10
1.0
 20
0.0
 30
0.0
  9
$PUCSYDIR
 10
0.0
 20
1.0
 30
0.0
  9
$USERI1
 70
     0
  9
$USERI2
 70
     0
  9
$USERI3
 70
     0
  9
$USERI4
 70
     0
  9
$USERI5
 70
     0
  9
$USERR1
 40
0.0
  9
$USERR2
 40
0.0
  9
$USERR3
 40
0.0
  9
$USERR4
 40
0.0
  9
$USERR5
 40
0.0
  9
$WORLDVIEW
 70
     1
  9
$SHADEDGE
 70
     3
  9
$SHADEDIF
 70
    70
  9
$TILEMODE
 70
     1
  9
$MAXACTVP
 70
    64
  9
$PLIMCHECK
 70
     0
  9
$PEXTMIN
 10
1.0000000000000000E+20
 20
1.0000000000000000E+20
 30
1.0000000000000000E+20
  9
$PEXTMAX
 10
-1.0000000000000000E+20
 20
-1.0000000000000000E+20
 30
-1.0000000000000000E+20
  9
$PLIMMIN
 10
0.0
 20
0.0
  9
$PLIMMAX
 10
12.0
 20
9.0
  9
$UNITMODE
 70
     0
  9
$VISRETAIN
 70
     1
  9
$PLINEGEN
 70
     0
  9
$PSLTSCALE
 70
     1
  0
ENDSEC
  0
SECTION
  2
TABLES
  0
TABLE
  2
VPORT
 70
     1
  0
VPORT
  2
*ACTIVE
 70
     0
 10
0.0
 20
0.0
 11
1.0
 21
1.0
 12
27.4027578586383314
 22
-0.6074614324782531
 13
0.0
 23
0.0
 14
1.0
 24
1.0
 15
0.0
 25
0.0
 16
0.0
 26
0.0
 36
25.5757211105568096
 17
373.821136474609375
 27
41.8864481322634603
 37
0.0
 40
6.7787746880683191
 41
2.6486111111111108
 42
50.0
 43
0.0
 44
0.0
 50
0.0
 51
0.0
 71
     0
 72
   100
 73
     1
 74
     1
 75
     0
 76
     0
 77
     0
 78
     0
  0
ENDTAB
  0
TABLE
  2
LTYPE
 70
     2
  0
LTYPE
  2
CONTINUOUS
 70
     0
  3
Solid line
 72
    65
 73
     0
 40
0.0
  0
LTYPE
  2
PHANTOM2
 70
     0
  3
___ _ _ ___ _ _ ___ _ _ ___ _ _
 72
    65
 73
     6
 40
1.25
 49
0.625
 49
-0.125
 49
0.125
 49
-0.125
 49
0.125
 49
-0.125
  0
ENDTAB
  0
TABLE
  2
LAYER
 70
     2
  0
LAYER
  2
0
 70
     0
 62
   255
  6
CONTINUOUS
  0
LAYER
  2
DEFPOINTS
 70
     0
 62
     7
  6
CONTINUOUS
  0
ENDTAB
  0
TABLE
  2
STYLE
 70
     1
  0
STYLE
  2
STANDARD
 70
     0
 40
0.0
 41
0.8
 50
0.0
 71
     0
 42
0.2
  3
txt
  4

  0
ENDTAB
  0
TABLE
  2
VIEW
 70
     0
  0
ENDTAB
  0
TABLE
  2
UCS
 70
     0
  0
ENDTAB
  0
TABLE
  2
APPID
 70
    10
  0
APPID
  2
ACAD
 70
     0
  0
APPID
  2
ACAD_MLEADERVER
 70
     0
  0
APPID
  2
ACAD_EXEMPT_FROM_CAD_STANDARDS
 70
     0
  0
APPID
  2
ACAD_DSTYLE_DIMJAG
 70
     0
  0
APPID
  2
ACAD_DSTYLE_DIMTALN
 70
     0
  0
APPID
  2
ACAD_NAV_VCDISPLAY
 70
     0
  0
APPID
  2
ACAECLAYERSTANDARD
 70
     0
  0
APPID
  2
ACCMTRANSPARENCY
 70
     0
  0
APPID
  2
DCO15
 70
     0
  0
APPID
  2
ACDBATTR
 70
     0
  0
ENDTAB
  0
TABLE
  2
DIMSTYLE
 70
     1
  0
DIMSTYLE
  2
STANDARD
 70
     0
  3

  4

  5

  6

  7

 40
1.0
 41
0.1875
 42
0.0625
 43
0.38
 44
0.125
 45
0.0
 46
0.0
 47
0.01
 48
0.01
140
0.15625
141
0.09
142
0.0
143
25.3999999999999986
144
1.0
145
0.0
146
1.0
147
0.09
 71
     1
 72
     0
 73
     1
 74
     1
 75
     0
 76
     0
 77
     0
 78
     4
170
     0
171
     2
172
     0
173
     0
174
     0
175
     0
176
     0
177
     0
178
     0
  0
ENDTAB
  0
ENDSEC
  0
SECTION
  2
BLOCKS
  0
BLOCK
  8
0
  2
$MODEL_SPACE
 70
     0
 10
0.0
 20
0.0
 30
0.0
  3
$MODEL_SPACE
  1

  0
ENDBLK
  5
21
  8
0
  0
BLOCK
 67
     1
  8
0
  2
$PAPER_SPACE
 70
     0
 10
0.0
 20
0.0
 30
0.0
  3
$PAPER_SPACE
  1

  0
ENDBLK
  5
1D
 67
     1
  8
0
  0
BLOCK
  8
0
  2
_FILLED
 70
     0
 10
0.0
 20
0.0
 30
0.0
  3
_FILLED
  1

  0
SOLID
  5
7D76
  8
0
  6
BYBLOCK
 62
     0
 10
0.0
 20
0.0
 30
0.0
 11
-1.0
 21
0.1666666667
 31
0.0
 12
-1.0
 22
-0.1666666667
 32
0.0
 13
-1.0
 23
-0.1666666667
 33
0.0
  0
ENDBLK
  5
7D77
  8
0
  6
BYBLOCK
 62
     0
  0
ENDSEC
  0
SECTION
  2
ENTITIES
  0
ATTDEF
  5
829
  8
DEFPOINTS
 10
403.1411320021317124
 20
37.9244253529583872
 30
0.0
 40
0.001
  1
K-8657IN
  3

  2
MODELNUMBER
 70
     0
1001
ACDBATTR
1070
     0
1070
     1
  0
ATTDEF
  5
82A
  8
DEFPOINTS
 10
403.1411320021317124
 20
37.9227586862917292
 30
0.0
 40
0.001
  1
FAIRFAX
  3

  2
TRADENAME
 70
     0
1001
ACDBATTR
1070
     0
1070
     1
  0
ATTDEF
  5
82B
  8
DEFPOINTS
 10
403.1411320021317124
 20
37.9210920196250711
 30
0.0
 40
0.001
  1
BATHROOM SINK FAUCET
  3

  2
PRODUCT
 70
     0
1001
ACDBATTR
1070
     0
1070
     1
  0
LINE
  5
7DEC
  8
0
 10
397.5175241731549249
 20
40.483730244893529
 30
0.0
 11
398.4360093811549177
 21
40.1501005173935184
 31
0.0
  0
LINE
  5
7DED
  8
0
 10
397.5467540229548717
 20
40.7244343784935268
 30
0.0
 11
398.5680771274547851
 21
40.3534499074935269
 31
0.0
  0
LINE
  5
7DEE
  8
0
 10
404.1013875173547945
 20
41.8899633426935267
 30
0.0
 11
402.1739190940547815
 21
41.8899633426935267
 31
0.0
  0
LINE
  5
7DEF
  8
0
 10
404.5298029016055921
 20
41.7895310525904335
 30
0.0
 11
404.7265048274239803
 21
41.6989995875334571
 31
0.0
  0
LINE
  5
7DF0
  8
0
 10
404.4868446175548797
 20
42.0964005508935273
 30
0.0
 11
404.9875404286548246
 21
41.8659568216935298
 31
0.0
  0
LINE
  5
7DF1
  8
0
 10
405.0122308282548147
 20
41.919602801493518
 30
0.0
 11
404.5115350170548254
 21
42.1500465305935208
 31
0.0
  0
LINE
  5
7DF2
  8
0
 10
404.5115350170548254
 20
42.1500465305935208
 30
0.0
 11
404.4868446175548797
 21
42.0964005508935273
 31
0.0
  0
LINE
  5
7DF3
  8
0
 10
405.0122308282548147
 20
41.919602801493518
 30
0.0
 11
404.9875404286548246
 21
41.8659568216935298
 31
0.0
  0
ARC
  5
7DF4
  8
0
 10
398.4792174289548257
 20
40.269052605693517
 30
0.0
 40
0.1265564487
 50
250.0370000000006883
 51
35.7171630121988173
  0
ARC
  5
7DF5
  8
0
 10
397.560732220954776
 20
40.6026823331935205
 30
0.0
 40
0.1265564487
 50
104.3568369877990989
 51
250.0370000000006883
  0
ARC
  5
7DF6
  8
0
 10
397.5366729231549243
 20
40.6966810331935278
 30
0.0
 40
0.0295275591
 50
70.0370000000007309
 51
104.356836988000893
  0
ARC
  5
7DF7
  8
0
 10
398.5579960276548945
 20
40.3256965622935226
 30
0.0
 40
0.0295275591
 50
35.71716301199816
 51
70.0370000000007309
  0
ARC
  5
7DF8
  8
0
 10
403.7437699880547939
 20
41.8359368583935307
 30
0.0
 40
0.7874015748000001
 50
356.6212939928976766
 51
19.3166648517987909
  0
ARC
  5
7DF9
  8
0
 10
405.2729902747548181
 20
41.1321178574935189
 30
0.0
 40
0.7874015748000001
 50
111.2551189367011943
 51
133.9504897967709098
  0
ARC
  5
7DFA
  8
0
 10
404.56231279905478
 20
41.6012093739935196
 30
0.0
 40
0.5511811024000001
 50
35.2858918941995228
 51
95.2858918941983148
  0
ARC
  5
7DFB
  8
0
 10
402.1739246472741911
 20
41.8505929452394412
 30
0.0
 40
0.0393703978457175
 50
90.0080816058278828
 51
171.3220492850180108
  0
ARC
  5
7DFC
  8
0
 10
404.1013888961547877
 20
41.8505932639935168
 30
0.0
 40
0.0393700787
 50
0.0
 51
90.0
  0
ARC
  5
7DFD
  8
0
 10
422.6317484117548133
 20
33.7211926927935366
 30
0.0
 40
19.7877079219999992
 50
155.9777566594999882
 51
159.0002751681890061
  0
ARC
  5
7DFE
  8
0
 10
422.6313720958548856
 20
33.721299625993538
 30
0.0
 40
19.6298382449000002
 50
155.9831424458018034
 51
160.2325348372160931
  0
ARC
  5
7DFF
  8
0
 10
400.1145906771992031
 20
39.6164033612767312
 30
0.0
 40
1.7513961016381641
 50
50.5814102377201067
 51
154.6389026362238042
  0
ARC
  5
7E00
  8
0
 10
400.1040143475707964
 20
39.6013523451571317
 30
0.0
 40
2.7466774110081471
 50
58.8994644242419625
 51
156.2268718632371076
  0
LINE
  5
7E01
  8
0
 10
401.890762946554787
 20
37.9204102212935297
 30
0.0
 11
404.3907550031548794
 21
37.9204102212935297
 31
0.0
  0
LINE
  5
7E02
  8
0
 10
402.0957629465548848
 20
38.5897015598935269
 30
0.0
 11
404.1857550031548953
 21
38.5897015598935269
 31
0.0
  0
LINE
  5
7E03
  8
0
 10
404.1857550031548953
 20
38.7897015598935297
 30
0.0
 11
402.0957629465548848
 21
38.7897015598935297
 31
0.0
  0
LINE
  5
7E04
  8
0
 10
401.890762946554787
 20
37.9724102212935293
 30
0.0
 11
401.890762946554787
 21
37.9204102212935297
 31
0.0
  0
LINE
  5
7E05
  8
0
 10
402.140762946554787
 20
38.5704127213935308
 30
0.0
 11
402.140762946554787
 21
38.5604102212935302
 31
0.0
  0
ARC
  5
7E06
  8
0
 10
401.7176335115188976
 20
38.5600746888557566
 30
0.0
 40
0.42312956807079
 50
325.7916136781917089
 51
0.0454342972927142
  0
ARC
  5
7E07
  8
0
 10
402.3379829001794974
 20
38.110205021346033
 30
0.0
 40
0.3436064605193899
 50
141.9070268703983118
 51
184.8642388719896985
  0
ARC
  5
7E08
  8
0
 10
402.0957629465548848
 20
38.6897015598935283
 30
0.0
 40
0.1
 50
90.0
 51
270.0
  0
ARC
  5
7E09
  8
0
 10
401.9507629465547893
 20
37.9724102212935293
 30
0.0
 40
0.06
 50
90.0
 51
180.0
  0
ARC
  5
7E0A
  8
0
 10
402.1907629465549121
 20
38.5704127213935308
 30
0.0
 40
0.05
 50
157.3080284398448896
 51
180.0
  0
ARC
  5
7E0B
  8
0
 10
401.9507629465547893
 20
38.0774102212935404
 30
0.0
 40
0.045
 50
270.0
 51
4.6635199338223439
  0
LINE
  5
7E0C
  8
0
 10
404.3907550031548794
 20
37.9724102212935293
 30
0.0
 11
404.3907550031548794
 21
37.9204102212935297
 31
0.0
  0
LINE
  5
7E0D
  8
0
 10
404.1407550031548794
 20
38.5704127213935308
 30
0.0
 11
404.1407550031548794
 21
38.5604102212935302
 31
0.0
  0
ARC
  5
7E0E
  8
0
 10
404.5638844381905983
 20
38.56007468885565
 30
0.0
 40
0.4231295680707349
 50
179.954565702693003
 51
214.2083863217962119
  0
ARC
  5
7E0F
  8
0
 10
403.9435350495301122
 20
38.110205021346033
 30
0.0
 40
0.3436064605193916
 50
355.1357611280103015
 51
38.0929731296017167
  0
ARC
  5
7E10
  8
0
 10
404.1857550031548953
 20
38.6897015598935283
 30
0.0
 40
0.1
 50
270.0
 51
90.0
  0
ARC
  5
7E11
  8
0
 10
404.3307550031548203
 20
37.9724102212935293
 30
0.0
 40
0.06
 50
0.0
 51
90.0
  0
ARC
  5
7E12
  8
0
 10
404.0907550031549249
 20
38.5704127213935308
 30
0.0
 40
0.05
 50
0.0
 51
22.6919715601550784
  0
ARC
  5
7E13
  8
0
 10
404.3307550031548203
 20
38.0774102212935404
 30
0.0
 40
0.045
 50
175.3364800661776997
 51
270.0
  0
LINE
  5
7E14
  8
0
 10
401.9507629465547893
 20
38.0324102212935315
 30
0.0
 11
404.3307550031548203
 21
38.0324102212935315
 31
0.0
  0
LINE
  5
7E15
  8
0
 10
402.1919400772547988
 20
41.8899633426935267
 30
0.0
 11
402.1919400772547988
 21
42.4253410807935296
 31
0.0
  0
LINE
  5
7E16
  8
0
 10
402.5856408646548061
 20
43.9319474164935286
 30
0.0
 11
402.5856408646548061
 21
43.9713174952935333
 31
0.0
  0
LINE
  5
7E17
  8
0
 10
402.6289479512548724
 20
43.9713174952935333
 30
0.0
 11
402.6289479512548724
 21
43.9764356054935277
 31
0.0
  0
LINE
  5
7E18
  8
0
 10
404.0895778724548109
 20
41.8899633426935267
 30
0.0
 11
404.0895778724548109
 21
42.4253410807935296
 31
0.0
  0
LINE
  5
7E19
  8
0
 10
402.0700585166547967
 20
42.5335193061935328
 30
0.0
 11
404.2114589644547777
 21
42.5335193061935328
 31
0.0
  0
LINE
  5
7E1A
  8
0
 10
402.5856408646548061
 20
43.9319474164935286
 30
0.0
 11
403.6958691416547822
 21
43.9319474164935286
 31
0.0
  0
LINE
  5
7E1B
  8
0
 10
403.6958691416547822
 20
43.9713174952935333
 30
0.0
 11
402.5856408646548061
 21
43.9713174952935333
 31
0.0
  0
LINE
  5
7E1C
  8
0
 10
402.5855591608548139
 20
43.9764356054935277
 30
0.0
 11
403.6959508454547745
 21
43.9764356054935277
 31
0.0
  0
ARC
  5
7E1D
  8
0
 10
402.0700585166547967
 20
42.5635193061935269
 30
0.0
 40
0.03
 50
215.320920865798314
 51
270.0
  0
ARC
  5
7E1E
  8
0
 10
403.1368219669548125
 20
42.4253410807935296
 30
0.0
 40
0.9448818898
 50
173.4258695699884925
 51
180.0
  0
ARC
  5
7E1F
  8
0
 10
403.1211410821547929
 20
43.3531493424935235
 30
0.0
 40
0.9200787401999999
 50
113.2599640053038001
 51
117.806234939714102
  0
ARC
  5
7E20
  8
0
 10
402.8419888746548168
 20
43.8864881577935293
 30
0.0
 40
0.3181102362
 50
118.1439258843622042
 51
133.1523445370561092
  0
ARC
  5
7E21
  8
0
 10
402.7806983831547996
 20
43.9734068581935418
 30
0.0
 40
0.2161417323
 50
159.5635864119626035
 51
173.3607704361097888
  0
ARC
  5
7E22
  8
0
 10
402.7575191521548277
 20
43.9800079398935324
 30
0.0
 40
0.1921259843
 50
133.849635739804711
 51
158.9946254098142902
  0
ARC
  5
7E23
  8
0
 10
402.5855591608548139
 20
43.9961206448935229
 30
0.0
 40
0.0196850394
 50
173.3607704361118067
 51
270.0
  0
ARC
  5
7E24
  8
0
 10
403.1446959827547971
 20
42.4253410807935296
 30
0.0
 40
0.9448818898
 50
0.0
 51
6.5741304300114853
  0
ARC
  5
7E25
  8
0
 10
404.2114594330436717
 20
42.5635193062062314
 30
0.0
 40
0.0300000000163715
 50
269.999105061035209
 51
325.3633990958542768
  0
ARC
  5
7E26
  8
0
 10
402.6784331892400814
 20
43.0063003684710097
 30
0.0
 40
0.7824435663471399
 50
206.7545434768368864
 51
216.0196384561616014
  0
ARC
  5
7E27
  8
0
 10
402.2388218082796243
 20
42.7846742721583198
 30
0.0
 40
0.2901262978740566
 50
152.5484818432859129
 51
206.7545434768364885
  0
ARC
  5
7E28
  8
0
 10
402.4494748190508062
 20
42.6090473582840232
 30
0.0
 40
0.5611068716115031
 50
116.6959870904306058
 51
146.5393121381841866
  0
ARC
  5
7E29
  8
0
 10
401.5114968469969199
 20
44.4513776194107919
 30
0.0
 40
1.506264186359717
 50
297.0882980581743027
 51
307.3946100992201877
  0
ARC
  5
7E2A
  8
0
 10
402.3329463621952868
 20
43.3865214488661906
 30
0.0
 40
0.1615077436422114
 50
305.2903980995238271
 51
40.1539266771108529
  0
ARC
  5
7E2B
  8
0
 10
403.0989513109607856
 20
44.1285925953377287
 30
0.0
 40
0.9054463797396497
 50
219.3820046627353975
 51
224.7924619629804965
  0
ARC
  5
7E2C
  8
0
 10
402.45321675874942
 20
43.5851993790980572
 30
0.0
 40
0.0624155809793174
 50
90.0
 51
209.887344953691894
  0
LINE
  5
7E2D
  8
0
 10
402.45321675874942
 20
43.6476149600773766
 30
0.0
 11
403.8282932475602252
 21
43.6476149600773766
 31
0.0
  0
LINE
  5
7E2E
  8
0
 10
403.6958691416547822
 20
43.9319474164935286
 30
0.0
 11
403.6958691416547822
 21
43.9713174952935333
 31
0.0
  0
LINE
  5
7E2F
  8
0
 10
403.652562055054716
 20
43.9713174952935333
 30
0.0
 11
403.652562055054716
 21
43.9764356054935277
 31
0.0
  0
ARC
  5
7E30
  8
0
 10
403.1603689241547954
 20
43.3531493424935235
 30
0.0
 40
0.9200787401999999
 50
62.1937650602859122
 51
66.740035994696143
  0
ARC
  5
7E31
  8
0
 10
403.4395211316547716
 20
43.8864881577935293
 30
0.0
 40
0.3181102362
 50
46.8476554629438411
 51
61.8560741156378313
  0
ARC
  5
7E32
  8
0
 10
403.5008116231547888
 20
43.9734068581935418
 30
0.0
 40
0.2161417323
 50
6.6392295638901837
 51
20.4364135880373503
  0
ARC
  5
7E33
  8
0
 10
403.5239908541548175
 20
43.9800079398935324
 30
0.0
 40
0.1921259843
 50
21.0053745901856814
 51
46.1503642601950119
  0
ARC
  5
7E34
  8
0
 10
403.6888256726729196
 20
43.7721652706394195
 30
0.0
 40
0.1599373145611851
 50
308.8542299771676767
 51
87.4759385754639567
  0
ARC
  5
7E35
  8
0
 10
403.6959508454547745
 20
43.9961206448935229
 30
0.0
 40
0.0196850394
 50
270.0
 51
6.6392295638881622
  0
ARC
  5
7E36
  8
0
 10
403.6030768170695069
 20
43.0063003684710097
 30
0.0
 40
0.7824435663471399
 50
324.0069369133549912
 51
333.2454565231631136
  0
ARC
  5
7E37
  8
0
 10
404.0426881980300209
 20
42.7846742721583198
 30
0.0
 40
0.2901262978740566
 50
333.2454565231631136
 51
27.4515181567140694
  0
ARC
  5
7E38
  8
0
 10
403.8320351872588958
 20
42.6090473582840232
 30
0.0
 40
0.5611068716115031
 50
33.4606878618157424
 51
63.3040129095693729
  0
ARC
  5
7E39
  8
0
 10
404.7700131593127253
 20
44.4513776194107919
 30
0.0
 40
1.506264186359717
 50
232.6053899007798123
 51
242.9117019418254984
  0
ARC
  5
7E3A
  8
0
 10
403.9485636441143015
 20
43.3865214488661906
 30
0.0
 40
0.1615077436422114
 50
139.8460733228891115
 51
234.7096019004762013
  0
ARC
  5
7E3B
  8
0
 10
403.1825586953488028
 20
44.1285925953377287
 30
0.0
 40
0.9054463797396497
 50
315.2075380370195035
 51
320.6179953372644036
  0
ARC
  5
7E3C
  8
0
 10
403.8282932475602252
 20
43.5851993790980572
 30
0.0
 40
0.0624155809793174
 50
330.1126550463081912
 51
90.0
  0
ARC
  5
7E3D
  8
0
 10
403.1414721542009261
 20
43.3007425183657588
 30
0.0
 40
0.9756941731480551
 50
66.9358635954755101
 51
90.0776540233477192
  0
ARC
  5
7E3E
  8
0
 10
403.140066202506091
 20
43.3005923968552295
 30
0.0
 40
0.9758434021172147
 50
89.9950929181893429
 51
113.0622148363790984
  0
ARC
  5
7E3F
  8
0
 10
403.2162055858532881
 20
44.6408405907867234
 30
0.0
 40
3.1766217666985619
 50
237.785665524666797
 51
244.9974381518024131
  0
ARC
  5
7E40
  8
0
 10
401.9779690017514895
 20
42.011943089254963
 30
0.0
 40
0.2709559682079646
 50
247.3396559005751953
 51
276.0848470826459788
  0
ARC
  5
7E41
  8
0
 10
402.0086181121704954
 20
41.8722096449806571
 30
0.0
 40
0.1297102833533137
 50
269.1485596493631078
 51
335.5906672263606083
  0
ARC
  5
7E42
  8
0
 10
401.8621026301515826
 20
41.8961772105364574
 30
0.0
 40
0.2757665615956964
 50
343.6627191491955955
 51
351.7336345003408269
  0
ARC
  5
7E43
  8
0
 10
402.8484065453391736
 20
44.9857761780666507
 30
0.0
 40
1.0860943152711451
 50
237.6946380482044106
 51
255.9991472140970075
  0
ARC
  5
7E44
  8
0
 10
398.9589526628059275
 20
37.8841521933120475
 30
0.0
 40
7.0133450818102494
 50
61.847735103164851
 51
69.9382293231972483
  0
ARC
  5
7E45
  8
0
 10
400.5120655345792784
 20
42.3942723034273001
 30
0.0
 40
2.245849325690628
 50
67.6863564251819128
 51
88.2206599417079218
  0
ARC
  5
7E46
  8
0
 10
400.5965504605367755
 20
42.2470806670018888
 30
0.0
 40
2.392003542750889
 50
90.353322085110662
 51
97.9493649065443464
  0
ARC
  5
7E47
  8
0
 10
400.4924413070087894
 20
43.45335829176598
 30
0.0
 40
1.1846341388196211
 50
101.0325728739542939
 51
119.9848636689026051
  0
ARC
  5
7E48
  8
0
 10
400.148651310422224
 20
44.0432549861644986
 30
0.0
 40
0.5018831223568507
 50
119.6466129685959032
 51
159.2376491485075007
  0
ARC
  5
7E49
  8
0
 10
399.8274010287893816
 20
44.1999613205946176
 30
0.0
 40
0.1495512881167929
 50
171.8475366133826014
 51
199.631457069428393
  0
ARC
  5
7E4A
  8
0
 10
399.7597189617213758
 20
44.1879640095266595
 30
0.0
 40
0.0825688737723757
 50
207.5948434580041919
 51
265.403790840611407
  0
ARC
  5
7E4B
  8
0
 10
399.0726870932289785
 20
50.2722051472945566
 30
0.0
 40
6.2039693724917244
 50
276.2965349860619995
 51
281.8722104888410058
  0
ARC
  5
7E4C
  8
0
 10
400.7034845310549258
 20
42.0341525281235135
 30
0.0
 40
2.195593857736708
 50
70.7860928317106612
 51
99.2905109984130405
  0
ARC
  5
7E4D
  8
0
 10
400.4475235897422181
 20
40.7675722095591127
 30
0.0
 40
3.4802657319927341
 50
60.2302329738358893
 51
73.6703743075819091
  0
ARC
  5
7E4E
  8
0
 10
398.9653864501098042
 20
38.485431699548613
 30
0.0
 40
6.1990301223367359
 50
57.2925507268709495
 51
58.8121043511574513
  0
ARC
  5
7E4F
  8
0
 10
402.490176306446017
 20
43.9568546302034022
 30
0.0
 40
0.3096094600080584
 50
235.5491825379749002
 51
267.1993988251053906
  0
LINE
  5
7E50
  8
0
 10
404.1407589748549185
 20
41.8505932639935168
 30
0.0
 11
404.1898898270547988
 21
38.9831188294935274
 31
0.0
  0
LINE
  5
7E51
  8
0
 10
404.1898898270547988
 20
38.9831188294935771
 30
0.0
 11
404.1480507564766071
 21
38.8567277675406331
 31
0.0
  0
LINE
  5
7E52
  8
0
 10
404.1480507564766071
 20
38.8567277675406331
 30
0.0
 11
404.1430820916548896
 21
38.8144773051935275
 31
0.0
  0
LINE
  5
7E53
  8
0
 10
404.1430820916548896
 20
38.8144773051935275
 30
0.0
 11
404.143082097254819
 21
38.8093865989935267
 31
0.0
  0
ARC
  5
7E54
  8
0
 10
404.1233970798091946
 20
38.8093865773391471
 30
0.0
 40
0.0196850174456328
 50
269.9999271656308224
 51
0.0000630278778109
  0
ARC
  5
7E55
  8
0
 10
399.8004467095177006
 20
39.1471317316793019
 30
0.0
 40
2.3214356078893612
 50
6.925667516727108
 51
52.3833492118667294
  0
ARC
  5
7E56
  8
0
 10
397.1979537693777047
 20
38.8310124719365817
 30
0.0
 40
4.9430574131578169
 50
359.7493308339821283
 51
6.925667516727108
  0
ARC
  5
7E57
  8
0
 10
402.1605981653460731
 20
38.8093353324270467
 30
0.0
 40
0.0196343564612353
 50
179.8502378928862981
 51
269.5581143334906074
  0
LINE
  5
7E58
  8
0
 10
402.1409638770336983
 20
38.809387221593532
 30
0.0
 11
404.1430820972540801
 21
38.809387221593532
 31
0.0
  0
ENDSEC
  0
EOF
