  0
SECTION
  2
HEADER
  9
$ACADVER
  1
AC1009
  9
$INSBASE
 10
394.5390073898241212
 20
42.7468851883083119
 30
0.0
  9
$EXTMIN
 10
393.2630162590317013
 20
37.0386214917866425
 30
-0.0000000000000053
  9
$EXTMAX
 10
395.8029726670819741
 20
44.6203799964148118
 30
0.0000000000000099
  9
$LIMMIN
 10
0.0
 20
0.0
  9
$LIMMAX
 10
11.6929133858000007
 20
8.2677165353999982
  9
$ORTHOMODE
 70
     0
  9
$REGENMODE
 70
     1
  9
$FILLMODE
 70
     1
  9
$QTEXTMODE
 70
     0
  9
$MIRRTEXT
 70
     0
  9
$DRAGMODE
 70
     2
  9
$LTSCALE
 40
0.6431102362
  9
$OSMODE
 70
  4095
  9
$ATTMODE
 70
     1
  9
$TEXTSIZE
 40
0.2
  9
$TRACEWID
 40
0.05
  9
$TEXTSTYLE
  7
STANDARD
  9
$CLAYER
  8
0
  9
$CELTYPE
  6
BYLAYER
  9
$CECOLOR
 62
   256
  9
$DIMSCALE
 40
1.0
  9
$DIMASZ
 40
0.1875
  9
$DIMEXO
 40
0.0625
  9
$DIMDLI
 40
0.4443307087
  9
$DIMRND
 40
0.0
  9
$DIMDLE
 40
0.0
  9
$DIMEXE
 40
0.125
  9
$DIMTP
 40
0.01
  9
$DIMTM
 40
0.01
  9
$DIMTXT
 40
1.0
  9
$DIMCEN
 40
0.1052362205
  9
$DIMTSZ
 40
0.0
  9
$DIMTOL
 70
     1
  9
$DIMLIM
 70
     0
  9
$DIMTIH
 70
     0
  9
$DIMTOH
 70
     1
  9
$DIMSE1
 70
     0
  9
$DIMSE2
 70
     0
  9
$DIMTAD
 70
     0
  9
$DIMZIN
 70
     0
  9
$DIMBLK
  1

  9
$DIMASO
 70
     1
  9
$DIMSHO
 70
     1
  9
$DIMPOST
  1
\X
  9
$DIMAPOST
  1

  9
$DIMALT
 70
     1
  9
$DIMALTD
 70
     2
  9
$DIMALTF
 40
25.3999999999999986
  9
$DIMLFAC
 40
1.0
  9
$DIMTOFL
 70
     0
  9
$DIMTVP
 40
0.0
  9
$DIMTIX
 70
     0
  9
$DIMSOXD
 70
     0
  9
$DIMSAH
 70
     0
  9
$DIMBLK1
  1

  9
$DIMBLK2
  1

  9
$DIMSTYLE
  2
STANDARD
  9
$DIMCLRD
 70
     0
  9
$DIMCLRE
 70
     0
  9
$DIMCLRT
 70
     0
  9
$DIMTFAC
 40
1.0
  9
$DIMGAP
 40
0.09
  9
$LUNITS
 70
     2
  9
$LUPREC
 70
     4
  9
$SKETCHINC
 40
0.1
  9
$FILLETRAD
 40
0.0
  9
$AUNITS
 70
     0
  9
$AUPREC
 70
     0
  9
$MENU
  1
.
  9
$ELEVATION
 40
0.0
  9
$PELEVATION
 40
0.0
  9
$THICKNESS
 40
0.0
  9
$LIMCHECK
 70
     0
  9
$BLIPMODE
 70
     0
  9
$CHAMFERA
 40
0.0
  9
$CHAMFERB
 40
0.0
  9
$SKPOLY
 70
     0
  9
$TDCREATE
 40
2458172.5207638889551163
  9
$TDUPDATE
 40
2459044.4563194438815117
  9
$TDINDWG
 40
0.1412590741
  9
$TDUSRTIMER
 40
0.1412590741
  9
$USRTIMER
 70
     1
  9
$ANGBASE
 50
0.0
  9
$ANGDIR
 70
     0
  9
$PDMODE
 70
     0
  9
$PDSIZE
 40
0.3125
  9
$PLINEWID
 40
0.0
  9
$COORDS
 70
     1
  9
$SPLFRAME
 70
     0
  9
$SPLINETYPE
 70
     6
  9
$SPLINESEGS
 70
     8
  9
$ATTDIA
 70
     1
  9
$ATTREQ
 70
     1
  9
$HANDLING
 70
     1
  9
$HANDSEED
  5
7A7E
  9
$SURFTAB1
 70
     6
  9
$SURFTAB2
 70
     6
  9
$SURFTYPE
 70
     6
  9
$SURFU
 70
     6
  9
$SURFV
 70
     6
  9
$UCSNAME
  2

  9
$UCSORG
 10
0.0
 20
0.0
 30
0.0
  9
$UCSXDIR
 10
1.0
 20
0.0
 30
0.0
  9
$UCSYDIR
 10
0.0
 20
1.0
 30
0.0
  9
$PUCSNAME
  2

  9
$PUCSORG
 10
0.0
 20
0.0
 30
0.0
  9
$PUCSXDIR
 10
1.0
 20
0.0
 30
0.0
  9
$PUCSYDIR
 10
0.0
 20
1.0
 30
0.0
  9
$USERI1
 70
     0
  9
$USERI2
 70
     0
  9
$USERI3
 70
     0
  9
$USERI4
 70
     0
  9
$USERI5
 70
     0
  9
$USERR1
 40
0.0
  9
$USERR2
 40
0.0
  9
$USERR3
 40
0.0
  9
$USERR4
 40
0.0
  9
$USERR5
 40
0.0
  9
$WORLDVIEW
 70
     1
  9
$SHADEDGE
 70
     3
  9
$SHADEDIF
 70
    70
  9
$TILEMODE
 70
     1
  9
$MAXACTVP
 70
    64
  9
$PLIMCHECK
 70
     0
  9
$PEXTMIN
 10
1.0000000000000000E+20
 20
1.0000000000000000E+20
 30
1.0000000000000000E+20
  9
$PEXTMAX
 10
-1.0000000000000000E+20
 20
-1.0000000000000000E+20
 30
-1.0000000000000000E+20
  9
$PLIMMIN
 10
0.0
 20
0.0
  9
$PLIMMAX
 10
12.0
 20
9.0
  9
$UNITMODE
 70
     0
  9
$VISRETAIN
 70
     1
  9
$PLINEGEN
 70
     0
  9
$PSLTSCALE
 70
     1
  0
ENDSEC
  0
SECTION
  2
TABLES
  0
TABLE
  2
VPORT
 70
     1
  0
VPORT
  2
*ACTIVE
 70
     0
 10
0.0
 20
0.0
 11
1.0
 21
1.0
 12
20.7118579884474912
 22
-1.05694738816274
 13
0.0
 23
0.0
 14
1.0
 24
1.0
 15
0.0
 25
0.0
 16
0.0
 26
0.0
 36
25.5757211105568096
 17
373.821136474609375
 27
41.8864481322634603
 37
0.0
 40
7.6292434221936896
 41
2.005224660397074
 42
50.0
 43
0.0
 44
0.0
 50
0.0
 51
0.0
 71
     0
 72
   100
 73
     1
 74
     1
 75
     0
 76
     0
 77
     0
 78
     0
  0
ENDTAB
  0
TABLE
  2
LTYPE
 70
     2
  0
LTYPE
  2
CONTINUOUS
 70
     0
  3
Solid line
 72
    65
 73
     0
 40
0.0
  0
LTYPE
  2
PHANTOM2
 70
     0
  3
___ _ _ ___ _ _ ___ _ _ ___ _ _
 72
    65
 73
     6
 40
1.25
 49
0.625
 49
-0.125
 49
0.125
 49
-0.125
 49
0.125
 49
-0.125
  0
ENDTAB
  0
TABLE
  2
LAYER
 70
     2
  0
LAYER
  2
0
 70
     0
 62
   255
  6
CONTINUOUS
  0
LAYER
  2
DEFPOINTS
 70
     0
 62
     7
  6
CONTINUOUS
  0
ENDTAB
  0
TABLE
  2
STYLE
 70
     1
  0
STYLE
  2
STANDARD
 70
     0
 40
0.0
 41
0.8
 50
0.0
 71
     0
 42
0.2
  3
txt
  4

  0
ENDTAB
  0
TABLE
  2
VIEW
 70
     0
  0
ENDTAB
  0
TABLE
  2
UCS
 70
     0
  0
ENDTAB
  0
TABLE
  2
APPID
 70
    10
  0
APPID
  2
ACAD
 70
     0
  0
APPID
  2
ACAD_MLEADERVER
 70
     0
  0
APPID
  2
ACAD_EXEMPT_FROM_CAD_STANDARDS
 70
     0
  0
APPID
  2
ACAD_DSTYLE_DIMJAG
 70
     0
  0
APPID
  2
ACAD_DSTYLE_DIMTALN
 70
     0
  0
APPID
  2
ACAD_NAV_VCDISPLAY
 70
     0
  0
APPID
  2
ACAECLAYERSTANDARD
 70
     0
  0
APPID
  2
ACCMTRANSPARENCY
 70
     0
  0
APPID
  2
DCO15
 70
     0
  0
APPID
  2
ACDBATTR
 70
     0
  0
ENDTAB
  0
TABLE
  2
DIMSTYLE
 70
     1
  0
DIMSTYLE
  2
STANDARD
 70
     0
  3

  4

  5

  6

  7

 40
1.0
 41
0.1875
 42
0.0625
 43
0.38
 44
0.125
 45
0.0
 46
0.0
 47
0.01
 48
0.01
140
0.15625
141
0.09
142
0.0
143
25.3999999999999986
144
1.0
145
0.0
146
1.0
147
0.09
 71
     1
 72
     0
 73
     1
 74
     1
 75
     0
 76
     0
 77
     0
 78
     4
170
     0
171
     2
172
     0
173
     0
174
     0
175
     0
176
     0
177
     0
178
     0
  0
ENDTAB
  0
ENDSEC
  0
SECTION
  2
BLOCKS
  0
BLOCK
  8
0
  2
$MODEL_SPACE
 70
     0
 10
0.0
 20
0.0
 30
0.0
  3
$MODEL_SPACE
  1

  0
ENDBLK
  5
21
  8
0
  0
BLOCK
 67
     1
  8
0
  2
$PAPER_SPACE
 70
     0
 10
0.0
 20
0.0
 30
0.0
  3
$PAPER_SPACE
  1

  0
ENDBLK
  5
1D
 67
     1
  8
0
  0
ENDSEC
  0
SECTION
  2
ENTITIES
  0
ATTDEF
  5
829
  8
DEFPOINTS
 10
394.5346620820535009
 20
42.7526095549171714
 30
0.0
 40
0.001
  1
K-8657T-B
  3

  2
MODELNUMBER
 70
     0
1001
ACDBATTR
1070
     0
1070
     1
  0
ATTDEF
  5
82A
  8
DEFPOINTS
 10
394.5346620820535009
 20
42.7509428882505134
 30
0.0
 40
0.001
  1
FAIRFAX
  3

  2
TRADENAME
 70
     0
1001
ACDBATTR
1070
     0
1070
     1
  0
ATTDEF
  5
82B
  8
DEFPOINTS
 10
394.5346620820535009
 20
42.7492762215838411
 30
0.0
 40
0.001
  1
BATHROOM SINK FAUCET
  3

  2
PRODUCT
 70
     0
1001
ACDBATTR
1070
     0
1070
     1
  0
LINE
  5
79BA
  8
0
 10
394.0248503807239899
 20
39.4252819638083309
 30
0.0
 11
394.0294523783239811
 21
38.8554494299083188
 31
0.0
  0
LINE
  5
79BB
  8
0
 10
394.0294523783239811
 20
38.8554494299083188
 30
0.0
 11
394.0384236876345199
 21
37.6159402819560498
 31
0.0
  0
LINE
  5
79BC
  8
0
 10
394.0248503807239899
 20
39.4252819638083309
 30
0.0
 11
394.0119446970240915
 21
40.9897431655083082
 31
0.0
  0
LINE
  5
79BD
  8
0
 10
394.4602731270304048
 20
44.1030221638759201
 30
0.0
 11
394.4602731564928035
 21
43.9363416838369929
 31
0.0
  0
LINE
  5
79BE
  8
0
 10
395.1920784265240059
 20
42.4733580501083097
 30
0.0
 11
395.1931469188240271
 21
42.4759333688083132
 31
0.0
  0
ARC
  5
79BF
  8
0
 10
394.5390113615241034
 20
42.7468851883083119
 30
0.0
 40
1.25
 50
93.6114849109326173
 51
237.4527932166915036
  0
ARC
  5
79C0
  8
0
 10
394.5390113615241034
 20
42.7468851883083119
 30
0.0
 40
0.7500000087000001
 50
315.6474906385518011
 51
224.3507568842202886
  0
ARC
  5
79C1
  8
0
 10
394.4711003723750764
 20
42.7602108527549731
 30
0.0
 40
0.7760036875783582
 50
338.536057016788277
 51
359.1337614030895793
  0
ARC
  5
79C2
  8
0
 10
394.539020408770682
 20
42.7469199727461699
 30
0.0
 40
0.7079966819097159
 50
0.1261766720627067
 51
179.8738233279374867
  0
ARC
  5
79C3
  8
0
 10
399.4605730749241843
 20
44.915327422819793
 30
0.0
 40
6.0859758473616594
 50
203.6296053564765032
 51
208.5419792584937966
  0
ARC
  5
79C4
  8
0
 10
393.0897984435413832
 20
41.5294133822294
 30
0.0
 40
1.130481373127
 50
3.456698336942039
 51
25.0143933860244694
  0
ARC
  5
79C5
  8
0
 10
391.6236086879259233
 20
41.4827116042625121
 30
0.0
 40
2.5971556337555359
 50
351.4731817240171949
 51
2.5348211635787279
  0
ARC
  5
79C6
  8
0
 10
371.458678367226014
 20
44.0606989023997286
 30
0.0
 40
22.925669065397571
 50
351.0198307355270799
 51
352.5739193977544801
  0
ARC
  5
79C7
  8
0
 10
398.0573767888423049
 20
39.9100791273664726
 30
0.0
 40
3.9952148178419429
 50
171.7672655265205037
 51
179.6191839784632975
  0
ARC
  5
79C8
  8
0
 10
394.5219789397556838
 20
39.6906012781675912
 30
0.0
 40
0.4053006001803174
 50
219.7634740715257919
 51
240.6226290257974085
  0
ARC
  5
79C9
  8
0
 10
394.5162640923139747
 20
39.6801548216088591
 30
0.0
 40
0.3933940314240553
 50
240.6015617719201884
 51
256.1386361418797151
  0
ARC
  5
79CA
  8
0
 10
394.5358472878269822
 20
39.7445112845703719
 30
0.0
 40
0.4605819634064278
 50
255.6914430987507956
 51
270.3931155412990961
  0
ARC
  5
79CB
  8
0
 10
395.5785121250029874
 20
39.9832728077811126
 30
0.0
 40
1.516979049539215
 50
181.7618434098419868
 51
192.5451714980308964
  0
ARC
  5
79CC
  8
0
 10
394.6826785075897988
 20
39.8103624172438231
 30
0.0
 40
0.6055256039196335
 50
194.9872590281810858
 51
218.7483906714186901
  0
ARC
  5
79CD
  8
0
 10
391.7719174411199106
 20
40.8934204600229094
 30
0.0
 40
2.2420972705897002
 50
2.4622408808331482
 51
23.6066853312611187
  0
ARC
  5
79CE
  8
0
 10
394.5196357899617965
 20
37.6784015838398076
 30
0.0
 40
0.5015348472150275
 50
213.4120024199430077
 51
245.2668478211822958
  0
ARC
  5
79CF
  8
0
 10
394.5384391776481152
 20
37.7147039625091125
 30
0.0
 40
0.5423775644395401
 50
245.0672089215339042
 51
270.0600249118755869
  0
ARC
  5
79D0
  8
0
 10
394.5351289943769757
 20
37.6654186388247894
 30
0.0
 40
0.6251286843160964
 50
215.8192854113673036
 51
270.3554741952648897
  0
ARC
  5
79D1
  8
0
 10
394.5427932633015757
 20
37.612911100923057
 30
0.0
 40
0.6161871894700025
 50
145.347215367779512
 51
179.6896703829571038
  0
ARC
  5
79D2
  8
0
 10
394.4759414914087756
 20
37.617880801701439
 30
0.0
 40
0.5493288044460105
 50
180.1702492520267924
 51
215.4116180240253016
  0
ARC
  5
79D3
  8
0
 10
394.4975903741706134
 20
37.6343487060263016
 30
0.0
 40
0.4595355438932903
 50
182.2958121772697098
 51
210.339247358770308
  0
ARC
  5
79D4
  8
0
 10
394.4789713356602761
 20
37.6535266201455698
 30
0.0
 40
0.4537463857928129
 50
166.6993637099272974
 51
213.2869462940467997
  0
ARC
  5
79D5
  8
0
 10
394.5430276780408008
 20
44.3293908907645218
 30
0.0
 40
0.2889941159990077
 50
90.7970853547971473
 51
159.8774968287806075
  0
ARC
  5
79D6
  8
0
 10
394.5016605693469955
 20
44.3684298255231866
 30
0.0
 40
0.2377813403661573
 50
165.2889456052855053
 51
235.2089301870597069
  0
ARC
  5
79D7
  8
0
 10
394.537716527305804
 20
44.4111123022455416
 30
0.0
 40
0.2934539109344873
 50
234.1825588783536887
 51
270.2520368957380015
  0
ARC
  5
79D8
  8
0
 10
394.5350452790449935
 20
44.3753316756141203
 30
0.0
 40
0.2823886415916921
 50
213.0972342232360859
 51
270.8039263664239797
  0
ARC
  5
79D9
  8
0
 10
394.4998535180399131
 20
44.3455577664001481
 30
0.0
 40
0.2367177964341312
 50
175.3679148815255076
 51
211.7111441839142003
  0
LINE
  5
79DA
  8
0
 10
395.053164398924082
 20
39.4252819638083309
 30
0.0
 11
395.0485624013239772
 21
38.8554494299083188
 31
0.0
  0
LINE
  5
79DB
  8
0
 10
395.0485624013239772
 20
38.8554494299083188
 30
0.0
 11
395.0395910920136089
 21
37.6159402819560498
 31
0.0
  0
LINE
  5
79DC
  8
0
 10
395.053164398924082
 20
39.4252819638083309
 30
0.0
 11
395.0660700826240941
 21
40.9897431655083082
 31
0.0
  0
ARC
  5
79DD
  8
0
 10
389.6174417047237739
 20
44.915327422819793
 30
0.0
 40
6.0859758473616594
 50
331.458020741506175
 51
336.3737594300799856
  0
ARC
  5
79DE
  8
0
 10
395.9882163361066887
 20
41.5294133822294
 30
0.0
 40
1.130481373127
 50
154.9856066139755058
 51
176.5433016630580028
  0
ARC
  5
79DF
  8
0
 10
397.4544060917222055
 20
41.4827116042625121
 30
0.0
 40
2.5971556337555359
 50
177.4651788364213019
 51
188.5268182759828051
  0
ARC
  5
79E0
  8
0
 10
417.6193364124221148
 20
44.0606989023997286
 30
0.0
 40
22.925669065397571
 50
187.4260806022454915
 51
188.9801692644728917
  0
ARC
  5
79E1
  8
0
 10
388.1576247275169749
 20
39.6944676092774174
 30
0.0
 40
6.862414016016813
 50
2.0223119649555632
 51
6.5912385300609957
  0
ARC
  5
79E2
  8
0
 10
394.5560358398922745
 20
39.6906012781675912
 30
0.0
 40
0.4053006001803174
 50
299.3773709742026199
 51
320.2365259284741228
  0
ARC
  5
79E3
  8
0
 10
394.5617506873340972
 20
39.6801548216088591
 30
0.0
 40
0.3933940314240553
 50
283.8613638581203986
 51
299.3984382280797263
  0
ARC
  5
79E4
  8
0
 10
394.5421674918210897
 20
39.7445112845703719
 30
0.0
 40
0.4605819634064278
 50
269.6068844587009039
 51
284.3085569012491192
  0
ARC
  5
79E5
  8
0
 10
393.8520027078828889
 20
39.939032265768283
 30
0.0
 40
1.1637643280435399
 50
345.8111036130649154
 51
359.881881479062713
  0
ARC
  5
79E6
  8
0
 10
394.3953362720582732
 20
39.8103624172438231
 30
0.0
 40
0.6055256039196335
 50
321.2516093285813099
 51
345.0127409718188005
  0
ARC
  5
79E7
  8
0
 10
397.306097338528275
 20
40.8934204600229094
 30
0.0
 40
2.2420972705897002
 50
156.3933146687388955
 51
177.5377591191667932
  0
ARC
  5
79E8
  8
0
 10
394.5583789896862186
 20
37.6784015838398076
 30
0.0
 40
0.5015348472150275
 50
294.7331521788175905
 51
326.5879975800569923
  0
ARC
  5
79E9
  8
0
 10
394.5395756020001272
 20
37.7147039625091125
 30
0.0
 40
0.5423775644395401
 50
269.9399750881244131
 51
294.9327910784662095
  0
ARC
  5
79EA
  8
0
 10
394.5504774137701816
 20
37.6332500601699635
 30
0.0
 40
0.5930590025091007
 50
268.8918051367783164
 51
326.3192118943939022
  0
ARC
  5
79EB
  8
0
 10
394.6121007074793852
 20
37.6275416258607933
 30
0.0
 40
0.539417187859436
 50
323.192310720009516
 51
358.8003822965143854
  0
ARC
  5
79EC
  8
0
 10
394.4977590553128266
 20
37.6011124885365788
 30
0.0
 40
0.6538158376554577
 50
1.326533139205103
 51
33.636581110059339
  0
ARC
  5
79ED
  8
0
 10
394.5804244054775154
 20
37.6343487060263016
 30
0.0
 40
0.4595355438932909
 50
329.660752641229692
 51
357.7041878227300913
  0
ARC
  5
79EE
  8
0
 10
394.5990434439877959
 20
37.6535266201455698
 30
0.0
 40
0.4537463857928133
 50
326.7130537059532003
 51
13.3006362900726902
  0
ARC
  5
79EF
  8
0
 10
394.5342002287255241
 20
44.3282810826493474
 30
0.0
 40
0.2901157886002257
 50
20.2748409721714609
 51
89.0505768442529018
  0
ARC
  5
79F0
  8
0
 10
394.5763542103010764
 20
44.3684298255231866
 30
0.0
 40
0.2377813403661573
 50
304.7910698129402931
 51
14.7110543947145107
  0
ARC
  5
79F1
  8
0
 10
394.5402982523423248
 20
44.4111123022455416
 30
0.0
 40
0.2934539109344873
 50
269.7479631042618848
 51
305.8174411216463113
  0
ARC
  5
79F2
  8
0
 10
394.5429695006030784
 20
44.3753316756141203
 30
0.0
 40
0.2823886415916921
 50
269.1960736335760203
 51
326.902765776763772
  0
ARC
  5
79F3
  8
0
 10
394.5781612616082157
 20
44.3455577664001481
 30
0.0
 40
0.2367177964341312
 50
328.2888558160859134
 51
4.6320851184744649
  0
LINE
  5
79F4
  8
0
 10
394.617741652617724
 20
44.1030221638759201
 30
0.0
 11
394.6177416231553252
 21
43.9363416838369929
 31
0.0
  0
ARC
  5
79F5
  8
0
 10
394.5390034181240253
 20
42.7468851883083119
 30
0.0
 40
1.25
 50
302.5472067833085248
 51
86.3885150890641142
  0
ARC
  5
79F6
  8
0
 10
394.6064999742457076
 20
42.7601671262884722
 30
0.0
 40
0.7755886417564553
 50
180.8634715741148113
 51
201.4985239162699031
  0
CIRCLE
  5
79F7
  8
0
 10
394.5390073898241212
 20
42.7468851883083119
 30
0.0
 40
0.5748808816999978
  0
ARC
  5
79F9
  8
0
 10
394.5390073898241212
 20
42.7468851883083119
 30
0.0
 40
1.1920594927492529
 50
306.7129254141075876
 51
233.2870745858924977
  0
ENDSEC
  0
EOF
