  0
SECTION
  2
HEADER
  9
$ACADVER
  1
AC1009
  9
$INSBASE
 10
403.145911222923587
 20
37.9294559912793829
 30
0.0
  9
$EXTMIN
 10
397.4165133693505254
 20
37.9201120975854877
 30
-0.0000000000000053
  9
$EXTMAX
 10
405.0367801137609831
 20
44.7599787964411391
 30
0.0000000000000099
  9
$LIMMIN
 10
0.0
 20
0.0
  9
$LIMMAX
 10
11.6929133858000007
 20
8.2677165353999982
  9
$ORTHOMODE
 70
     0
  9
$REGENMODE
 70
     1
  9
$FILLMODE
 70
     1
  9
$QTEXTMODE
 70
     0
  9
$MIRRTEXT
 70
     0
  9
$DRAGMODE
 70
     2
  9
$LTSCALE
 40
0.6431102362
  9
$OSMODE
 70
  4095
  9
$ATTMODE
 70
     1
  9
$TEXTSIZE
 40
0.2
  9
$TRACEWID
 40
0.05
  9
$TEXTSTYLE
  7
STANDARD
  9
$CLAYER
  8
0
  9
$CELTYPE
  6
BYLAYER
  9
$CECOLOR
 62
   256
  9
$DIMSCALE
 40
1.0
  9
$DIMASZ
 40
0.1875
  9
$DIMEXO
 40
0.0625
  9
$DIMDLI
 40
0.4443307087
  9
$DIMRND
 40
0.0
  9
$DIMDLE
 40
0.0
  9
$DIMEXE
 40
0.125
  9
$DIMTP
 40
0.01
  9
$DIMTM
 40
0.01
  9
$DIMTXT
 40
1.0
  9
$DIMCEN
 40
0.1052362205
  9
$DIMTSZ
 40
0.0
  9
$DIMTOL
 70
     1
  9
$DIMLIM
 70
     0
  9
$DIMTIH
 70
     0
  9
$DIMTOH
 70
     1
  9
$DIMSE1
 70
     0
  9
$DIMSE2
 70
     0
  9
$DIMTAD
 70
     0
  9
$DIMZIN
 70
     0
  9
$DIMBLK
  1

  9
$DIMASO
 70
     1
  9
$DIMSHO
 70
     1
  9
$DIMPOST
  1
\X
  9
$DIMAPOST
  1

  9
$DIMALT
 70
     1
  9
$DIMALTD
 70
     2
  9
$DIMALTF
 40
25.3999999999999986
  9
$DIMLFAC
 40
1.0
  9
$DIMTOFL
 70
     0
  9
$DIMTVP
 40
0.0
  9
$DIMTIX
 70
     0
  9
$DIMSOXD
 70
     0
  9
$DIMSAH
 70
     0
  9
$DIMBLK1
  1

  9
$DIMBLK2
  1

  9
$DIMSTYLE
  2
STANDARD
  9
$DIMCLRD
 70
     0
  9
$DIMCLRE
 70
     0
  9
$DIMCLRT
 70
     0
  9
$DIMTFAC
 40
1.0
  9
$DIMGAP
 40
0.09
  9
$LUNITS
 70
     2
  9
$LUPREC
 70
     4
  9
$SKETCHINC
 40
0.1
  9
$FILLETRAD
 40
0.0
  9
$AUNITS
 70
     0
  9
$AUPREC
 70
     0
  9
$MENU
  1
.
  9
$ELEVATION
 40
0.0
  9
$PELEVATION
 40
0.0
  9
$THICKNESS
 40
0.0
  9
$LIMCHECK
 70
     0
  9
$BLIPMODE
 70
     0
  9
$CHAMFERA
 40
0.0
  9
$CHAMFERB
 40
0.0
  9
$SKPOLY
 70
     0
  9
$TDCREATE
 40
2458172.5207638889551163
  9
$TDUPDATE
 40
2459044.4562384258024395
  9
$TDINDWG
 40
0.1402868519
  9
$TDUSRTIMER
 40
0.1402868519
  9
$USRTIMER
 70
     1
  9
$ANGBASE
 50
0.0
  9
$ANGDIR
 70
     0
  9
$PDMODE
 70
     0
  9
$PDSIZE
 40
0.3125
  9
$PLINEWID
 40
0.0
  9
$COORDS
 70
     1
  9
$SPLFRAME
 70
     0
  9
$SPLINETYPE
 70
     6
  9
$SPLINESEGS
 70
     8
  9
$ATTDIA
 70
     1
  9
$ATTREQ
 70
     1
  9
$HANDLING
 70
     1
  9
$HANDSEED
  5
7B2A
  9
$SURFTAB1
 70
     6
  9
$SURFTAB2
 70
     6
  9
$SURFTYPE
 70
     6
  9
$SURFU
 70
     6
  9
$SURFV
 70
     6
  9
$UCSNAME
  2

  9
$UCSORG
 10
0.0
 20
0.0
 30
0.0
  9
$UCSXDIR
 10
1.0
 20
0.0
 30
0.0
  9
$UCSYDIR
 10
0.0
 20
1.0
 30
0.0
  9
$PUCSNAME
  2

  9
$PUCSORG
 10
0.0
 20
0.0
 30
0.0
  9
$PUCSXDIR
 10
1.0
 20
0.0
 30
0.0
  9
$PUCSYDIR
 10
0.0
 20
1.0
 30
0.0
  9
$USERI1
 70
     0
  9
$USERI2
 70
     0
  9
$USERI3
 70
     0
  9
$USERI4
 70
     0
  9
$USERI5
 70
     0
  9
$USERR1
 40
0.0
  9
$USERR2
 40
0.0
  9
$USERR3
 40
0.0
  9
$USERR4
 40
0.0
  9
$USERR5
 40
0.0
  9
$WORLDVIEW
 70
     1
  9
$SHADEDGE
 70
     3
  9
$SHADEDIF
 70
    70
  9
$TILEMODE
 70
     1
  9
$MAXACTVP
 70
    64
  9
$PLIMCHECK
 70
     0
  9
$PEXTMIN
 10
1.0000000000000000E+20
 20
1.0000000000000000E+20
 30
1.0000000000000000E+20
  9
$PEXTMAX
 10
-1.0000000000000000E+20
 20
-1.0000000000000000E+20
 30
-1.0000000000000000E+20
  9
$PLIMMIN
 10
0.0
 20
0.0
  9
$PLIMMAX
 10
12.0
 20
9.0
  9
$UNITMODE
 70
     0
  9
$VISRETAIN
 70
     1
  9
$PLINEGEN
 70
     0
  9
$PSLTSCALE
 70
     1
  0
ENDSEC
  0
SECTION
  2
TABLES
  0
TABLE
  2
VPORT
 70
     1
  0
VPORT
  2
*ACTIVE
 70
     0
 10
0.0
 20
0.0
 11
1.0
 21
1.0
 12
27.4055102669464112
 22
-0.5464026852501505
 13
0.0
 23
0.0
 14
1.0
 24
1.0
 15
0.0
 25
0.0
 16
0.0
 26
0.0
 36
25.5757211105568096
 17
373.821136474609375
 27
41.8864481322634603
 37
0.0
 40
6.8842098728025256
 41
2.005224660397074
 42
50.0
 43
0.0
 44
0.0
 50
0.0
 51
0.0
 71
     0
 72
   100
 73
     1
 74
     1
 75
     0
 76
     0
 77
     0
 78
     0
  0
ENDTAB
  0
TABLE
  2
LTYPE
 70
     2
  0
LTYPE
  2
CONTINUOUS
 70
     0
  3
Solid line
 72
    65
 73
     0
 40
0.0
  0
LTYPE
  2
PHANTOM2
 70
     0
  3
___ _ _ ___ _ _ ___ _ _ ___ _ _
 72
    65
 73
     6
 40
1.25
 49
0.625
 49
-0.125
 49
0.125
 49
-0.125
 49
0.125
 49
-0.125
  0
ENDTAB
  0
TABLE
  2
LAYER
 70
     2
  0
LAYER
  2
0
 70
     0
 62
   255
  6
CONTINUOUS
  0
LAYER
  2
DEFPOINTS
 70
     0
 62
     7
  6
CONTINUOUS
  0
ENDTAB
  0
TABLE
  2
STYLE
 70
     1
  0
STYLE
  2
STANDARD
 70
     0
 40
0.0
 41
0.8
 50
0.0
 71
     0
 42
0.2
  3
txt
  4

  0
ENDTAB
  0
TABLE
  2
VIEW
 70
     0
  0
ENDTAB
  0
TABLE
  2
UCS
 70
     0
  0
ENDTAB
  0
TABLE
  2
APPID
 70
    10
  0
APPID
  2
ACAD
 70
     0
  0
APPID
  2
ACAD_MLEADERVER
 70
     0
  0
APPID
  2
ACAD_EXEMPT_FROM_CAD_STANDARDS
 70
     0
  0
APPID
  2
ACAD_DSTYLE_DIMJAG
 70
     0
  0
APPID
  2
ACAD_DSTYLE_DIMTALN
 70
     0
  0
APPID
  2
ACAD_NAV_VCDISPLAY
 70
     0
  0
APPID
  2
ACAECLAYERSTANDARD
 70
     0
  0
APPID
  2
ACCMTRANSPARENCY
 70
     0
  0
APPID
  2
DCO15
 70
     0
  0
APPID
  2
ACDBATTR
 70
     0
  0
ENDTAB
  0
TABLE
  2
DIMSTYLE
 70
     1
  0
DIMSTYLE
  2
STANDARD
 70
     0
  3

  4

  5

  6

  7

 40
1.0
 41
0.1875
 42
0.0625
 43
0.38
 44
0.125
 45
0.0
 46
0.0
 47
0.01
 48
0.01
140
0.15625
141
0.09
142
0.0
143
25.3999999999999986
144
1.0
145
0.0
146
1.0
147
0.09
 71
     1
 72
     0
 73
     1
 74
     1
 75
     0
 76
     0
 77
     0
 78
     4
170
     0
171
     2
172
     0
173
     0
174
     0
175
     0
176
     0
177
     0
178
     0
  0
ENDTAB
  0
ENDSEC
  0
SECTION
  2
BLOCKS
  0
BLOCK
  8
0
  2
$MODEL_SPACE
 70
     0
 10
0.0
 20
0.0
 30
0.0
  3
$MODEL_SPACE
  1

  0
ENDBLK
  5
21
  8
0
  0
BLOCK
 67
     1
  8
0
  2
$PAPER_SPACE
 70
     0
 10
0.0
 20
0.0
 30
0.0
  3
$PAPER_SPACE
  1

  0
ENDBLK
  5
1D
 67
     1
  8
0
  0
ENDSEC
  0
SECTION
  2
ENTITIES
  0
ATTDEF
  5
829
  8
DEFPOINTS
 10
403.1411320021317124
 20
37.9244253529583872
 30
0.0
 40
0.001
  1
K-8657T-B
  3

  2
MODELNUMBER
 70
     0
1001
ACDBATTR
1070
     0
1070
     1
  0
ATTDEF
  5
82A
  8
DEFPOINTS
 10
403.1411320021317124
 20
37.9227586862917292
 30
0.0
 40
0.001
  1
FAIRFAX
  3

  2
TRADENAME
 70
     0
1001
ACDBATTR
1070
     0
1070
     1
  0
ATTDEF
  5
82B
  8
DEFPOINTS
 10
403.1411320021317124
 20
37.9210920196250711
 30
0.0
 40
0.001
  1
BATHROOM SINK FAUCET
  3

  2
PRODUCT
 70
     0
1001
ACDBATTR
1070
     0
1070
     1
  0
LINE
  5
7A3D
  8
0
 10
397.5226764212237072
 20
40.506776014879371
 30
0.0
 11
398.4411616292235863
 21
40.1731462873793674
 31
0.0
  0
LINE
  5
7A3E
  8
0
 10
397.5519062710237108
 20
40.7474801484793687
 30
0.0
 11
398.5732293755236242
 21
40.3764956774793689
 31
0.0
  0
LINE
  5
7A3F
  8
0
 10
404.1065397654235767
 20
41.9130091126793687
 30
0.0
 11
402.1790713421236205
 21
41.9130091126793687
 31
0.0
  0
LINE
  5
7A40
  8
0
 10
404.534955149674488
 20
41.8125768225762684
 30
0.0
 11
404.7316570754928193
 21
41.7220453575192991
 31
0.0
  0
LINE
  5
7A41
  8
0
 10
404.4919968656236051
 20
42.1194463208793692
 30
0.0
 11
404.9926926767236068
 21
41.8890025916793789
 31
0.0
  0
LINE
  5
7A42
  8
0
 10
405.0173830763235969
 20
41.9426485714793671
 30
0.0
 11
404.5166872651234939
 21
42.173092300579377
 31
0.0
  0
LINE
  5
7A43
  8
0
 10
404.5166872651234939
 20
42.173092300579377
 30
0.0
 11
404.4919968656236051
 21
42.1194463208793692
 31
0.0
  0
LINE
  5
7A44
  8
0
 10
404.145911222923587
 20
41.8736390339793729
 30
0.0
 11
404.145911222923587
 21
40.8682863398793685
 31
0.0
  0
LINE
  5
7A45
  8
0
 10
404.145911222923587
 20
40.1315797193793671
 30
0.0
 11
404.145911222923587
 21
38.798747329879383
 31
0.0
  0
LINE
  5
7A46
  8
0
 10
405.0173830763235969
 20
41.9426485714793671
 30
0.0
 11
404.9926926767236068
 21
41.8890025916793789
 31
0.0
  0
ARC
  5
7A47
  8
0
 10
398.4843696770236079
 20
40.2920983756793731
 30
0.0
 40
0.1265564487
 50
250.037000000000603
 51
35.7171630121994994
  0
ARC
  5
7A48
  8
0
 10
397.5658844690236151
 20
40.6257281031793696
 30
0.0
 40
0.1265564487
 50
104.3568369877990989
 51
250.037000000000603
  0
ARC
  5
7A49
  8
0
 10
397.5418251712237065
 20
40.7197268031793698
 30
0.0
 40
0.0295275591
 50
70.0370000000006314
 51
104.3568369880007936
  0
ARC
  5
7A4A
  8
0
 10
398.5631482757236199
 20
40.3487423322793717
 30
0.0
 40
0.0295275591
 50
35.7171630119991903
 51
70.0370000000006314
  0
ARC
  5
7A4B
  8
0
 10
403.7489222361235193
 20
41.8589826283793727
 30
0.0
 40
0.7874015748000001
 50
356.6212939928976766
 51
19.3166648517994801
  0
ARC
  5
7A4C
  8
0
 10
405.278142522823714
 20
41.155163627479368
 30
0.0
 40
0.7874015748000001
 50
111.2551189367009954
 51
133.9504897967709098
  0
ARC
  5
7A4D
  8
0
 10
404.5674650471235054
 20
41.6242551439793687
 30
0.0
 40
0.5511811024000001
 50
35.2858918941998709
 51
95.2858918941983148
  0
ARC
  5
7A4E
  8
0
 10
402.1790768953429733
 20
41.8736387152252973
 30
0.0
 40
0.0393703978457175
 50
90.0080816058278828
 51
171.3220492850180108
  0
ARC
  5
7A4F
  8
0
 10
404.1065411442236268
 20
41.8736390339793729
 30
0.0
 40
0.0393700787
 50
0.0
 51
90.0
  0
ARC
  5
7A50
  8
0
 10
422.6369006598235956
 20
33.7442384627793786
 30
0.0
 40
19.7877079219999992
 50
155.9777566594999882
 51
159.1694857817657862
  0
ARC
  5
7A51
  8
0
 10
422.6365243439237247
 20
33.74434539597938
 30
0.0
 40
19.6298382449000002
 50
155.983142445800695
 51
160.4363179106933046
  0
ARC
  5
7A52
  8
0
 10
400.1197429252679854
 20
39.6394491312625803
 30
0.0
 40
1.7513961016381641
 50
50.5814102377192967
 51
154.6389026362238894
  0
ARC
  5
7A53
  8
0
 10
400.1091665956395218
 20
39.6243981151429807
 30
0.0
 40
2.7466774110081471
 50
58.8994644242419625
 51
156.2268718632363971
  0
LINE
  5
7A54
  8
0
 10
401.8959151946236261
 20
37.9294559912793829
 30
0.0
 11
404.3959072512236048
 21
37.9294559912793829
 31
0.0
  0
LINE
  5
7A55
  8
0
 10
402.1009151946236102
 20
38.5987473298793802
 30
0.0
 11
404.1909072512236207
 21
38.5987473298793802
 31
0.0
  0
LINE
  5
7A56
  8
0
 10
404.1909072512236207
 20
38.798747329879383
 30
0.0
 11
402.1009151946236102
 21
38.798747329879383
 31
0.0
  0
LINE
  5
7A57
  8
0
 10
401.8959151946236261
 20
37.9814559912793825
 30
0.0
 11
401.8959151946236261
 21
37.9294559912793829
 31
0.0
  0
LINE
  5
7A58
  8
0
 10
402.1459151946236261
 20
38.579458491379377
 30
0.0
 11
402.1459151946236261
 21
38.5694559912793835
 31
0.0
  0
ARC
  5
7A59
  8
0
 10
401.7659151946235738
 20
38.5694559912793835
 30
0.0
 40
0.38
 50
323.8390980022139161
 51
0.0
  0
ARC
  5
7A5A
  8
0
 10
402.3795081704236054
 20
38.1210101639793777
 30
0.0
 40
0.38
 50
143.8383273498334916
 51
184.6635199338221867
  0
ARC
  5
7A5B
  8
0
 10
402.1009151946236102
 20
38.6987473298793816
 30
0.0
 40
0.1
 50
90.0
 51
270.0
  0
ARC
  5
7A5C
  8
0
 10
401.9559151946236284
 20
37.9814559912793825
 30
0.0
 40
0.06
 50
90.0
 51
180.0
  0
ARC
  5
7A5D
  8
0
 10
402.1959151946235806
 20
38.579458491379377
 30
0.0
 40
0.05
 50
157.3080284398450033
 51
180.0
  0
ARC
  5
7A5E
  8
0
 10
401.9559151946236284
 20
38.0864559912793794
 30
0.0
 40
0.045
 50
270.0
 51
4.663519933822438
  0
LINE
  5
7A5F
  8
0
 10
404.3959072512236048
 20
37.9814559912793825
 30
0.0
 11
404.3959072512236048
 21
37.9294559912793829
 31
0.0
  0
LINE
  5
7A60
  8
0
 10
404.1459072512236048
 20
38.579458491379377
 30
0.0
 11
404.1459072512236048
 21
38.5694559912793835
 31
0.0
  0
ARC
  5
7A61
  8
0
 10
404.5259072512236003
 20
38.5694559912793835
 30
0.0
 40
0.38
 50
180.0
 51
216.1609019977861124
  0
ARC
  5
7A62
  8
0
 10
403.9123142754236255
 20
38.1210101639793777
 30
0.0
 40
0.38
 50
355.3364800661776144
 51
36.1616726501665084
  0
ARC
  5
7A63
  8
0
 10
404.1909072512236207
 20
38.6987473298793816
 30
0.0
 40
0.1
 50
270.0
 51
90.0
  0
ARC
  5
7A64
  8
0
 10
404.3359072512236025
 20
37.9814559912793825
 30
0.0
 40
0.06
 50
0.0
 51
90.0
  0
ARC
  5
7A65
  8
0
 10
404.0959072512235934
 20
38.579458491379377
 30
0.0
 40
0.05
 50
0.0
 51
22.6919715601550109
  0
ARC
  5
7A66
  8
0
 10
404.3359072512236025
 20
38.0864559912793794
 30
0.0
 40
0.045
 50
175.3364800661775007
 51
270.0
  0
LINE
  5
7A67
  8
0
 10
401.9559151946236284
 20
38.0414559912793777
 30
0.0
 11
404.3359072512236025
 21
38.0414559912793777
 31
0.0
  0
LINE
  5
7A68
  8
0
 10
402.197092325323581
 20
41.9130091126793687
 30
0.0
 11
402.197092325323581
 21
42.5447116256793691
 31
0.0
  0
LINE
  5
7A69
  8
0
 10
402.5907931127235884
 20
44.0513179613793824
 30
0.0
 11
402.5907931127235884
 21
44.0906880401793728
 31
0.0
  0
LINE
  5
7A6A
  8
0
 10
402.6341001993235977
 20
44.0906880401793728
 30
0.0
 11
402.6341001993235977
 21
44.0958061503793672
 31
0.0
  0
LINE
  5
7A6B
  8
0
 10
404.0947301205235931
 20
41.9130091126793687
 30
0.0
 11
404.0947301205235931
 21
42.5447116256793691
 31
0.0
  0
LINE
  5
7A6C
  8
0
 10
402.0752107647235789
 20
42.6528898510793795
 30
0.0
 11
404.2166112125236168
 21
42.6528898510793795
 31
0.0
  0
LINE
  5
7A6D
  8
0
 10
402.5907931127235884
 20
44.0513179613793824
 30
0.0
 11
403.7010213897236213
 21
44.0513179613793824
 31
0.0
  0
LINE
  5
7A6E
  8
0
 10
403.7010213897236213
 20
44.0906880401793728
 30
0.0
 11
402.5907931127235884
 21
44.0906880401793728
 31
0.0
  0
LINE
  5
7A6F
  8
0
 10
402.5907114089235961
 20
44.0958061503793672
 30
0.0
 11
403.7011030935236136
 21
44.0958061503793672
 31
0.0
  0
ARC
  5
7A70
  8
0
 10
402.0752107647235789
 20
42.6828898510793806
 30
0.0
 40
0.03
 50
215.3209208657991951
 51
270.0
  0
ARC
  5
7A71
  8
0
 10
403.1419742150235948
 20
42.5447116256793691
 30
0.0
 40
0.9448818898
 50
173.4258695699884925
 51
180.0
  0
ARC
  5
7A72
  8
0
 10
403.1262933302235751
 20
43.4725198873793701
 30
0.0
 40
0.9200787401999999
 50
113.2599640053039991
 51
117.806234939714102
  0
ARC
  5
7A73
  8
0
 10
402.847141122723599
 20
44.005858702679383
 30
0.0
 40
0.3181102362
 50
118.1439258843622042
 51
133.1523445370571039
  0
ARC
  5
7A74
  8
0
 10
402.7858506312235818
 20
44.0927774030793671
 30
0.0
 40
0.2161417323
 50
159.5635864119633993
 51
173.3607704361097888
  0
ARC
  5
7A75
  8
0
 10
402.7626714002236099
 20
44.0993784847793719
 30
0.0
 40
0.1921259843
 50
133.8496357398043983
 51
158.9946254098134943
  0
ARC
  5
7A76
  8
0
 10
402.5907114089235961
 20
44.1154911897793696
 30
0.0
 40
0.0196850394
 50
173.360770436111892
 51
270.0
  0
ARC
  5
7A77
  8
0
 10
403.1498482308235793
 20
42.5447116256793691
 30
0.0
 40
0.9448818898
 50
0.0
 51
6.5741304300114232
  0
ARC
  5
7A78
  8
0
 10
404.2166116811126244
 20
42.682889851092078
 30
0.0
 40
0.0300000000163715
 50
269.999105061035209
 51
325.3633990958537083
  0
ARC
  5
7A79
  8
0
 10
402.6835854373088068
 20
43.1256709133568634
 30
0.0
 40
0.7824435663471399
 50
206.7545434768360906
 51
216.0196384561621983
  0
ARC
  5
7A7A
  8
0
 10
402.2439740563484065
 20
42.9040448170441593
 30
0.0
 40
0.2901262978740566
 50
152.5484818432852023
 51
206.7545434768358064
  0
ARC
  5
7A7B
  8
0
 10
402.4546270671194748
 20
42.7284179031698699
 30
0.0
 40
0.5611068716115031
 50
116.6959870904310037
 51
146.5393121381835897
  0
ARC
  5
7A7C
  8
0
 10
401.5166490950657021
 20
44.5707481642966385
 30
0.0
 40
1.506264186359717
 50
297.0882980581744732
 51
307.3946100992193919
  0
ARC
  5
7A7D
  8
0
 10
402.3380986102641259
 20
43.5058919937520372
 30
0.0
 40
0.1615077436422114
 50
305.2903980995241113
 51
40.1539266771102135
  0
ARC
  5
7A7E
  8
0
 10
403.1041035590296246
 20
44.2479631402235825
 30
0.0
 40
0.9054463797396497
 50
219.382004662736307
 51
224.792461962981406
  0
ARC
  5
7A7F
  8
0
 10
402.4583690068182023
 20
43.7045699239838967
 30
0.0
 40
0.0624155809793174
 50
90.0
 51
209.8873449536924909
  0
LINE
  5
7A80
  8
0
 10
402.4583690068182023
 20
43.7669855049632304
 30
0.0
 11
403.8334454956290074
 21
43.7669855049632304
 31
0.0
  0
LINE
  5
7A81
  8
0
 10
403.7010213897236213
 20
44.0513179613793824
 30
0.0
 11
403.7010213897236213
 21
44.0906880401793728
 31
0.0
  0
LINE
  5
7A82
  8
0
 10
403.6577143031236119
 20
44.0906880401793728
 30
0.0
 11
403.6577143031236119
 21
44.0958061503793672
 31
0.0
  0
ARC
  5
7A83
  8
0
 10
403.1655211722235777
 20
43.4725198873793701
 30
0.0
 40
0.9200787401999999
 50
62.1937650602859478
 51
66.7400359946960009
  0
ARC
  5
7A84
  8
0
 10
403.4446733797236107
 20
44.005858702679383
 30
0.0
 40
0.3181102362
 50
46.84765546294296
 51
61.8560741156377674
  0
ARC
  5
7A85
  8
0
 10
403.5059638712236278
 20
44.0927774030793671
 30
0.0
 40
0.2161417323
 50
6.6392295638901659
 51
20.4364135880366007
  0
ARC
  5
7A86
  8
0
 10
403.5291431022235997
 20
44.0993784847793719
 30
0.0
 40
0.1921259843
 50
21.0053745901864986
 51
46.1503642601955519
  0
ARC
  5
7A87
  8
0
 10
403.6939779207415882
 20
43.8915358155252733
 30
0.0
 40
0.1599373145611851
 50
308.8542299771680177
 51
87.4759385754639567
  0
ARC
  5
7A88
  8
0
 10
403.7011030935236136
 20
44.1154911897793696
 30
0.0
 40
0.0196850394
 50
270.0
 51
6.6392295638881222
  0
ARC
  5
7A89
  8
0
 10
403.6082290651382891
 20
43.1256709133568634
 30
0.0
 40
0.7824435663471399
 50
324.0069369133557871
 51
333.2454565231639094
  0
ARC
  5
7A8A
  8
0
 10
404.0478404460988031
 20
42.9040448170441593
 30
0.0
 40
0.2901262978740566
 50
333.2454565231639094
 51
27.4515181567147586
  0
ARC
  5
7A8B
  8
0
 10
403.8371874353276212
 20
42.7284179031698699
 30
0.0
 40
0.5611068716115031
 50
33.4606878618161332
 51
63.3040129095692308
  0
ARC
  5
7A8C
  8
0
 10
404.7751654073815075
 20
44.5707481642966385
 30
0.0
 40
1.506264186359717
 50
232.6053899007806081
 51
242.9117019418254984
  0
ARC
  5
7A8D
  8
0
 10
403.9537158921830269
 20
43.5058919937520372
 30
0.0
 40
0.1615077436422114
 50
139.8460733228897936
 51
234.7096019004760024
  0
ARC
  5
7A8E
  8
0
 10
403.187710943417585
 20
44.2479631402235825
 30
0.0
 40
0.9054463797396497
 50
315.207538037018594
 51
320.6179953372636078
  0
ARC
  5
7A8F
  8
0
 10
403.8334454956290074
 20
43.7045699239838967
 30
0.0
 40
0.0624155809793174
 50
330.1126550463075091
 51
90.0
  0
ARC
  5
7A90
  8
0
 10
403.1466244022695946
 20
43.4201130632516126
 30
0.0
 40
0.9756941731480551
 50
66.9358635954756664
 51
90.0776540233477192
  0
ARC
  5
7A91
  8
0
 10
403.1452184505748733
 20
43.4199629417410833
 30
0.0
 40
0.9758434021172147
 50
89.9950929181893429
 51
113.0622148363792974
  0
ARC
  5
7A92
  8
0
 10
403.2213578339221272
 20
44.6638863607725582
 30
0.0
 40
3.1766217666985619
 50
237.7856655246671949
 51
244.9974381518026973
  0
ARC
  5
7A93
  8
0
 10
401.9831212498202717
 20
42.0349888592408121
 30
0.0
 40
0.2709559682079646
 50
247.339655900575309
 51
276.0848470826459788
  0
ARC
  5
7A94
  8
0
 10
402.0137703602392776
 20
41.8952554149665133
 30
0.0
 40
0.1297102833533137
 50
269.1485596493631078
 51
335.5906672263612904
  0
ARC
  5
7A95
  8
0
 10
401.8672548782204785
 20
41.9192229805222993
 30
0.0
 40
0.2757665615956964
 50
343.6627191491947997
 51
351.7336345003408269
  0
ARC
  5
7A96
  8
0
 10
399.613156699680701
 20
39.0307135302562003
 30
0.0
 40
2.5433384372395378
 50
354.7670435068270081
 51
50.4729123547658531
  0
ARC
  5
7A97
  8
0
 10
412.6865800647001947
 20
40.499933029629382
 30
0.0
 40
8.5486085666654716
 50
177.5304020223501027
 51
182.4695979776498973
  0
ARC
  5
7A98
  8
0
 10
402.8535587934080127
 20
45.1051467229524974
 30
0.0
 40
1.0860943152711451
 50
237.6946380482044958
 51
255.9991472140970075
  0
ARC
  5
7A99
  8
0
 10
398.9641049108747097
 20
38.0035227381979013
 30
0.0
 40
7.0133450818102494
 50
61.847735103164851
 51
69.9382293231971062
  0
ARC
  5
7A9A
  8
0
 10
400.5172177826481175
 20
42.5136428483131468
 30
0.0
 40
2.245849325690628
 50
67.6863564251820833
 51
88.220659941707936
  0
ARC
  5
7A9B
  8
0
 10
400.6017027086056146
 20
42.3664512118877425
 30
0.0
 40
2.392003542750889
 50
90.353322085110662
 51
97.9493649065443179
  0
ARC
  5
7A9C
  8
0
 10
400.4975935550775148
 20
43.5727288366518266
 30
0.0
 40
1.1846341388196211
 50
101.0325728739541944
 51
119.9848636689028041
  0
ARC
  5
7A9D
  8
0
 10
400.1538035584911199
 20
44.1626255310503524
 30
0.0
 40
0.5018831223568507
 50
119.6466129685959032
 51
159.2376491485067902
  0
ARC
  5
7A9E
  8
0
 10
399.8325532768582207
 20
44.3193318654804571
 30
0.0
 40
0.1495512881167929
 50
171.8475366133822035
 51
199.6314570694275972
  0
ARC
  5
7A9F
  8
0
 10
399.7648712097902148
 20
44.307334554412499
 30
0.0
 40
0.0825688737723757
 50
207.5948434580049025
 51
265.403790840611407
  0
ARC
  5
7AA0
  8
0
 10
399.0778393412978176
 20
50.3915756921804103
 30
0.0
 40
6.2039693724917244
 50
276.2965349860619995
 51
281.8722104888407785
  0
ARC
  5
7AA1
  8
0
 10
400.708636779123708
 20
42.1535230730093602
 30
0.0
 40
2.195593857736708
 50
70.7860928317106612
 51
99.2905109984129979
  0
ARC
  5
7AA2
  8
0
 10
400.4526758378110003
 20
40.8869427544449735
 30
0.0
 40
3.4802657319927341
 50
60.2302329738358893
 51
73.6703743075819091
  0
ARC
  5
7AA3
  8
0
 10
398.9705386981785864
 20
38.6048022444344525
 30
0.0
 40
6.1990301223367359
 50
57.2925507268705516
 51
58.812104351157501
  0
ARC
  5
7AA4
  8
0
 10
402.4953285545147992
 20
44.0762251750892489
 30
0.0
 40
0.3096094600080584
 50
235.5491825379749002
 51
267.199398825105277
  0
ENDSEC
  0
EOF
