  0
SECTION
  2
HEADER
  9
$ACADVER
  1
AC1009
  9
$INSBASE
 10
410.9740013091144988
 20
41.0234785553929484
 30
0.0
  9
$EXTMIN
 10
403.5093422061510751
 20
41.0213914663213473
 30
-0.0015258207003583
  9
$EXTMAX
 10
418.4498755726710897
 20
45.4723195729399023
 30
0.0000000349246037
  9
$LIMMIN
 10
0.0
 20
0.0
  9
$LIMMAX
 10
11.6929133858000007
 20
8.2677165353999982
  9
$ORTHOMODE
 70
     0
  9
$REGENMODE
 70
     1
  9
$FILLMODE
 70
     1
  9
$QTEXTMODE
 70
     0
  9
$MIRRTEXT
 70
     0
  9
$DRAGMODE
 70
     2
  9
$LTSCALE
 40
0.6431102362
  9
$OSMODE
 70
  4095
  9
$ATTMODE
 70
     1
  9
$TEXTSIZE
 40
0.2
  9
$TRACEWID
 40
0.05
  9
$TEXTSTYLE
  7
STANDARD
  9
$CLAYER
  8
0
  9
$CELTYPE
  6
BYLAYER
  9
$CECOLOR
 62
   256
  9
$DIMSCALE
 40
1.0
  9
$DIMASZ
 40
0.1875
  9
$DIMEXO
 40
0.0625
  9
$DIMDLI
 40
0.4443307087
  9
$DIMRND
 40
0.0
  9
$DIMDLE
 40
0.0
  9
$DIMEXE
 40
0.125
  9
$DIMTP
 40
0.01
  9
$DIMTM
 40
0.01
  9
$DIMTXT
 40
1.0
  9
$DIMCEN
 40
0.1052362205
  9
$DIMTSZ
 40
0.0
  9
$DIMTOL
 70
     1
  9
$DIMLIM
 70
     0
  9
$DIMTIH
 70
     0
  9
$DIMTOH
 70
     1
  9
$DIMSE1
 70
     0
  9
$DIMSE2
 70
     0
  9
$DIMTAD
 70
     0
  9
$DIMZIN
 70
     0
  9
$DIMBLK
  1

  9
$DIMASO
 70
     1
  9
$DIMSHO
 70
     1
  9
$DIMPOST
  1
\X
  9
$DIMAPOST
  1

  9
$DIMALT
 70
     1
  9
$DIMALTD
 70
     2
  9
$DIMALTF
 40
25.3999999999999986
  9
$DIMLFAC
 40
1.0
  9
$DIMTOFL
 70
     0
  9
$DIMTVP
 40
0.0
  9
$DIMTIX
 70
     0
  9
$DIMSOXD
 70
     0
  9
$DIMSAH
 70
     0
  9
$DIMBLK1
  1

  9
$DIMBLK2
  1

  9
$DIMSTYLE
  2
STANDARD
  9
$DIMCLRD
 70
     0
  9
$DIMCLRE
 70
     0
  9
$DIMCLRT
 70
     0
  9
$DIMTFAC
 40
1.0
  9
$DIMGAP
 40
0.09
  9
$LUNITS
 70
     2
  9
$LUPREC
 70
     4
  9
$SKETCHINC
 40
0.1
  9
$FILLETRAD
 40
0.0
  9
$AUNITS
 70
     0
  9
$AUPREC
 70
     0
  9
$MENU
  1
.
  9
$ELEVATION
 40
0.0
  9
$PELEVATION
 40
0.0
  9
$THICKNESS
 40
0.0
  9
$LIMCHECK
 70
     0
  9
$BLIPMODE
 70
     0
  9
$CHAMFERA
 40
0.0
  9
$CHAMFERB
 40
0.0
  9
$SKPOLY
 70
     0
  9
$TDCREATE
 40
2458172.5207638889551163
  9
$TDUPDATE
 40
2459062.4055324071086943
  9
$TDINDWG
 40
0.1528331481
  9
$TDUSRTIMER
 40
0.1528331481
  9
$USRTIMER
 70
     1
  9
$ANGBASE
 50
0.0
  9
$ANGDIR
 70
     0
  9
$PDMODE
 70
     0
  9
$PDSIZE
 40
0.3125
  9
$PLINEWID
 40
0.0
  9
$COORDS
 70
     1
  9
$SPLFRAME
 70
     0
  9
$SPLINETYPE
 70
     6
  9
$SPLINESEGS
 70
     8
  9
$ATTDIA
 70
     1
  9
$ATTREQ
 70
     1
  9
$HANDLING
 70
     1
  9
$HANDSEED
  5
8868
  9
$SURFTAB1
 70
     6
  9
$SURFTAB2
 70
     6
  9
$SURFTYPE
 70
     6
  9
$SURFU
 70
     6
  9
$SURFV
 70
     6
  9
$UCSNAME
  2

  9
$UCSORG
 10
0.0
 20
0.0
 30
0.0
  9
$UCSXDIR
 10
1.0
 20
0.0
 30
0.0
  9
$UCSYDIR
 10
0.0
 20
1.0
 30
0.0
  9
$PUCSNAME
  2

  9
$PUCSORG
 10
0.0
 20
0.0
 30
0.0
  9
$PUCSXDIR
 10
1.0
 20
0.0
 30
0.0
  9
$PUCSYDIR
 10
0.0
 20
1.0
 30
0.0
  9
$USERI1
 70
     0
  9
$USERI2
 70
     0
  9
$USERI3
 70
     0
  9
$USERI4
 70
     0
  9
$USERI5
 70
     0
  9
$USERR1
 40
0.0
  9
$USERR2
 40
0.0
  9
$USERR3
 40
0.0
  9
$USERR4
 40
0.0
  9
$USERR5
 40
0.0
  9
$WORLDVIEW
 70
     1
  9
$SHADEDGE
 70
     3
  9
$SHADEDIF
 70
    70
  9
$TILEMODE
 70
     1
  9
$MAXACTVP
 70
    64
  9
$PLIMCHECK
 70
     0
  9
$PEXTMIN
 10
1.0000000000000000E+20
 20
1.0000000000000000E+20
 30
1.0000000000000000E+20
  9
$PEXTMAX
 10
-1.0000000000000000E+20
 20
-1.0000000000000000E+20
 30
-1.0000000000000000E+20
  9
$PLIMMIN
 10
0.0
 20
0.0
  9
$PLIMMAX
 10
12.0
 20
9.0
  9
$UNITMODE
 70
     0
  9
$VISRETAIN
 70
     1
  9
$PLINEGEN
 70
     0
  9
$PSLTSCALE
 70
     1
  0
ENDSEC
  0
SECTION
  2
TABLES
  0
TABLE
  2
VPORT
 70
     1
  0
VPORT
  2
*ACTIVE
 70
     0
 10
0.0
 20
0.0
 11
1.0
 21
1.0
 12
37.1584724148017429
 22
1.36040738736716
 13
0.0
 23
0.0
 14
1.0
 24
1.0
 15
0.0
 25
0.0
 16
0.0
 26
0.0
 36
25.5757211105568096
 17
373.821136474609375
 27
41.8864481322634603
 37
0.0
 40
7.4740743008765671
 41
2.005224660397074
 42
50.0
 43
0.0
 44
0.0
 50
0.0
 51
0.0
 71
     0
 72
   100
 73
     1
 74
     1
 75
     0
 76
     0
 77
     0
 78
     0
  0
ENDTAB
  0
TABLE
  2
LTYPE
 70
     2
  0
LTYPE
  2
CONTINUOUS
 70
     0
  3
Solid line
 72
    65
 73
     0
 40
0.0
  0
LTYPE
  2
PHANTOM2
 70
     0
  3
___ _ _ ___ _ _ ___ _ _ ___ _ _
 72
    65
 73
     6
 40
1.25
 49
0.625
 49
-0.125
 49
0.125
 49
-0.125
 49
0.125
 49
-0.125
  0
ENDTAB
  0
TABLE
  2
LAYER
 70
     2
  0
LAYER
  2
0
 70
     0
 62
   255
  6
CONTINUOUS
  0
LAYER
  2
DEFPOINTS
 70
     0
 62
     7
  6
CONTINUOUS
  0
ENDTAB
  0
TABLE
  2
STYLE
 70
     1
  0
STYLE
  2
STANDARD
 70
     0
 40
0.0
 41
0.8
 50
0.0
 71
     0
 42
0.2
  3
txt
  4

  0
ENDTAB
  0
TABLE
  2
VIEW
 70
     0
  0
ENDTAB
  0
TABLE
  2
UCS
 70
     0
  0
ENDTAB
  0
TABLE
  2
APPID
 70
    10
  0
APPID
  2
ACAD
 70
     0
  0
APPID
  2
ACAD_MLEADERVER
 70
     0
  0
APPID
  2
ACAD_EXEMPT_FROM_CAD_STANDARDS
 70
     0
  0
APPID
  2
ACAD_DSTYLE_DIMJAG
 70
     0
  0
APPID
  2
ACAD_DSTYLE_DIMTALN
 70
     0
  0
APPID
  2
ACAD_NAV_VCDISPLAY
 70
     0
  0
APPID
  2
ACAECLAYERSTANDARD
 70
     0
  0
APPID
  2
ACCMTRANSPARENCY
 70
     0
  0
APPID
  2
DCO15
 70
     0
  0
APPID
  2
ACDBATTR
 70
     0
  0
ENDTAB
  0
TABLE
  2
DIMSTYLE
 70
     1
  0
DIMSTYLE
  2
STANDARD
 70
     0
  3

  4

  5

  6

  7

 40
1.0
 41
0.1875
 42
0.0625
 43
0.38
 44
0.125
 45
0.0
 46
0.0
 47
0.01
 48
0.01
140
0.15625
141
0.09
142
0.0
143
25.3999999999999986
144
1.0
145
0.0
146
1.0
147
0.09
 71
     1
 72
     0
 73
     1
 74
     1
 75
     0
 76
     0
 77
     0
 78
     4
170
     0
171
     2
172
     0
173
     0
174
     0
175
     0
176
     0
177
     0
178
     0
  0
ENDTAB
  0
ENDSEC
  0
SECTION
  2
BLOCKS
  0
BLOCK
  8
0
  2
$MODEL_SPACE
 70
     0
 10
0.0
 20
0.0
 30
0.0
  3
$MODEL_SPACE
  1

  0
ENDBLK
  5
21
  8
0
  0
BLOCK
 67
     1
  8
0
  2
$PAPER_SPACE
 70
     0
 10
0.0
 20
0.0
 30
0.0
  3
$PAPER_SPACE
  1

  0
ENDBLK
  5
1D
 67
     1
  8
0
  0
ENDSEC
  0
SECTION
  2
ENTITIES
  0
ATTDEF
  5
829
  8
DEFPOINTS
 10
410.9707907685241821
 20
41.0286833867663105
 30
0.0
 40
0.001
  1
K-8658T-B
  3

  2
MODELNUMBER
 70
     0
1001
ACDBATTR
1070
     0
1070
     1
  0
ATTDEF
  5
82A
  8
DEFPOINTS
 10
410.9707907685241821
 20
41.0270167200996525
 30
0.0
 40
0.001
  1
FAIRFAX
  3

  2
TRADENAME
 70
     0
1001
ACDBATTR
1070
     0
1070
     1
  0
ATTDEF
  5
82B
  8
DEFPOINTS
 10
410.9707907685241821
 20
41.0253500534329802
 30
0.0
 40
0.001
  1
BATHROOM SINK FAUCET
  3

  2
PRODUCT
 70
     0
1001
ACDBATTR
1070
     0
1070
     1
  0
LINE
  5
840A
  8
0
 10
412.1639959423634991
 20
41.1354785553929503
 30
0.0
 11
409.7849865703819887
 21
41.1354785553929503
 31
0.0
  0
LINE
  5
840B
  8
0
 10
409.9303706369162796
 20
41.6927698939929385
 30
0.0
 11
412.0189959423635173
 21
41.6927698939929385
 31
0.0
  0
LINE
  5
840C
  8
0
 10
412.0189959423635173
 20
41.8927698939929485
 30
0.0
 11
409.9290044999635256
 21
41.8927698939929485
 31
0.0
  0
LINE
  5
840D
  8
0
 10
411.9739959423635014
 20
41.6734810554929567
 30
0.0
 11
411.9739959423635014
 21
41.663478555392949
 31
0.0
  0
ARC
  5
840E
  8
0
 10
412.3539959423634969
 20
41.663478555392949
 30
0.0
 40
0.38
 50
180.0
 51
216.1609020607691036
  0
ARC
  5
840F
  8
0
 10
411.7404029665635221
 20
41.2150327280929432
 30
0.0
 40
0.38
 50
355.336480066177387
 51
36.1616725871831974
  0
ARC
  5
8410
  8
0
 10
412.1577772288363803
 20
41.0694566310997118
 30
0.0
 40
0.0663141529789569
 50
2.8962607058104282
 51
84.6190921680701962
  0
ARC
  5
8411
  8
0
 10
411.92399594236349
 20
41.6734810554929496
 30
0.0
 40
0.05
 50
0.0000000000050889
 51
22.6919715601722487
  0
ARC
  5
8412
  8
0
 10
412.1639959423634991
 20
41.180478555392952
 30
0.0
 40
0.045
 50
175.3364800661778986
 51
270.0
  0
ARC
  5
8413
  8
0
 10
412.0189959423635173
 20
41.79276989399294
 30
0.0
 40
0.1
 50
270.0
 51
90.0
  0
LINE
  5
8414
  8
0
 10
409.9740008309341874
 20
41.6734720631701805
 30
0.0
 11
409.9740009208800871
 21
41.663469563070592
 31
0.0
  0
ARC
  5
8415
  8
0
 10
409.5940009208954962
 20
41.6634661459795765
 30
0.0
 40
0.38
 50
323.8396131626327019
 51
0.0005152234018886
  0
ARC
  5
8416
  8
0
 10
410.2075979292501984
 20
41.2150258363372899
 30
0.0
 40
0.38
 50
143.8388426362195105
 51
184.6640351572245038
  0
ARC
  5
8417
  8
0
 10
410.0240008309322093
 20
41.673472512787427
 30
0.0
 40
0.05
 50
157.2974174688961
 51
180.0005152233966044
  0
ARC
  5
8418
  8
0
 10
409.7840052641902844
 20
41.1804678545446166
 30
0.0
 40
0.0449999999999994
 50
271.2495368955795243
 51
4.6640351572247676
  0
ARC
  5
8419
  8
0
 10
409.9290043923625717
 20
41.7927652274325325
 30
0.0
 40
0.1000046665604756
 50
89.9999383520705152
 51
270.7827882908051151
  0
ARC
  5
841A
  8
0
 10
410.4117956067998989
 20
43.54756213226851
 30
0.0
 40
0.309651395135739
 50
154.3888675076796915
 51
173.6478240701844129
  0
ARC
  5
841B
  8
0
 10
405.2195279161953749
 20
46.4085448473723829
 30
0.0
 40
5.6191826505670059
 50
330.9662009801659792
 51
337.8908648250940132
  0
ARC
  5
841C
  8
0
 10
401.8571018388810785
 20
45.2541571193884025
 30
0.0
 40
8.6220910738409842
 50
353.6038790318385736
 51
354.7543373089375223
  0
ARC
  5
841D
  8
0
 10
402.2350969175884075
 20
45.4379393585775375
 30
0.0
 40
8.2653457055150241
 50
353.2459489149470073
 51
355.1674177875406144
  0
ARC
  5
841E
  8
0
 10
405.5074195661431986
 20
44.9588605135607224
 30
0.0
 40
4.968391917020087
 50
357.4940798094223737
 51
359.2684633433844965
  0
LINE
  5
841F
  8
0
 10
410.4753666154135203
 20
44.9752950112718182
 30
0.0
 11
410.4753666154135203
 21
43.5394682888618192
 31
0.0
  0
ARC
  5
8420
  8
0
 10
410.9810390046122848
 20
44.9652077805389112
 30
0.0
 40
0.5057729900082774
 50
90.7972811337286032
 51
178.8572065297402958
  0
LINE
  5
8421
  8
0
 10
410.104011377563495
 20
43.5818152810929433
 30
0.0
 11
409.9622657370904903
 21
41.8927698939929485
 31
0.0
  0
ARC
  5
8422
  8
0
 10
410.4779828524697223
 20
44.4872691755064835
 30
0.0
 40
0.149605544948652
 50
113.2482463097683052
 51
251.7554838032208977
  0
LINE
  5
8423
  8
0
 10
410.4641352615715846
 20
44.6640740182688631
 30
0.0
 11
410.418931958863709
 21
44.6640973284277791
 31
0.0
  0
LINE
  5
8424
  8
0
 10
410.418931958863709
 20
44.6640973284277791
 30
0.0
 11
410.4189311899634731
 21
44.6247272426929484
 31
0.0
  0
ARC
  5
8425
  8
0
 10
410.4188662671056136
 20
44.6889059563272113
 30
0.0
 40
0.0196998303373917
 50
173.3807054216078996
 51
271.6345388822829818
  0
ARC
  5
8426
  8
0
 10
410.613348591631393
 20
44.6663372115756303
 30
0.0
 40
0.2154872732255056
 50
159.5414159449275076
 51
173.3807054216078996
  0
ARC
  5
8427
  8
0
 10
410.5840674567435258
 20
44.6772608613623987
 30
0.0
 40
0.1842348975559284
 50
133.3006071680902949
 51
159.5414159449277065
  0
ARC
  5
8428
  8
0
 10
410.6584513155390823
 20
44.5983283036914315
 30
0.0
 40
0.2926936782507503
 50
129.0576962496282079
 51
133.3006071680902949
  0
LINE
  5
8429
  8
0
 10
410.4194281893173866
 20
44.6692141418156865
 30
0.0
 11
410.4646170234506144
 21
44.6692141418156865
 31
0.0
  0
LINE
  5
842A
  8
0
 10
410.4189311899634731
 20
44.6247272426929484
 30
0.0
 11
410.4603401168047867
 21
44.6247272426929484
 31
0.0
  0
LINE
  5
842B
  8
0
 10
410.8877885736984013
 20
43.1670689114695776
 30
0.0
 11
410.9024668298984011
 21
43.1581687454695881
 31
0.0
  0
LINE
  5
842C
  8
0
 10
410.9067775852984141
 20
43.1569891503695899
 30
0.0
 11
410.9389307556983795
 21
43.156989354169589
 31
0.0
  0
LINE
  5
842D
  8
0
 10
410.9428131091939917
 20
43.1579385917311527
 30
0.0
 11
410.9579208177984242
 21
43.1670702500695782
 31
0.0
  0
LINE
  5
842E
  8
0
 10
410.908647662798387
 20
43.1672897008695813
 30
0.0
 11
410.9370605697984047
 21
43.1672897008695813
 31
0.0
  0
LINE
  5
842F
  8
0
 10
410.9370605697984047
 20
43.1672897008695813
 30
0.0
 11
410.9462411837279205
 21
43.1727186119097794
 31
0.0
  0
LINE
  5
8430
  8
0
 10
410.908647662798387
 20
43.1672897008695813
 30
0.0
 11
410.8994677451208872
 21
43.1727182001248124
 31
0.0
  0
ARC
  5
8431
  8
0
 10
410.8827798009277785
 20
43.1938467753415267
 30
0.0
 40
0.027242279607474
 50
280.5946906700368118
 51
290.0030495264347792
  0
LINE
  5
8432
  8
0
 10
410.8920980990480984
 20
43.1682498652592486
 30
0.0
 11
410.906778784598373
 21
43.1771510008695785
 31
0.0
  0
LINE
  5
8433
  8
0
 10
410.9389319549983952
 20
43.1771512046695776
 30
0.0
 11
410.9536100623984112
 21
43.1682498451695906
 31
0.0
  0
ARC
  5
8434
  8
0
 10
410.9585364341277796
 20
43.1778038858469415
 30
0.0
 40
0.0107512752948552
 50
242.7257501229385923
 51
266.7174572841619238
  0
ARC
  5
8435
  8
0
 10
410.9110514839168218
 20
43.181074330027613
 30
0.0
 40
0.0244614408520638
 50
249.4547893806779086
 51
259.9376460391964088
  0
ARC
  5
8436
  8
0
 10
410.9282758165549012
 20
43.2089817136512266
 30
0.0
 40
0.0530729043168032
 50
281.5814304798598187
 51
285.897172676681123
  0
LINE
  5
8437
  8
0
 10
410.8877897729984738
 20
43.1872307619695874
 30
0.0
 11
410.9024680291984737
 21
43.1783305959695767
 31
0.0
  0
LINE
  5
8438
  8
0
 10
410.906778784598373
 20
43.1771510008695785
 30
0.0
 11
410.9389319549983952
 21
43.1771512046695776
 31
0.0
  0
LINE
  5
8439
  8
0
 10
410.9428143084938938
 20
43.1781004422311483
 30
0.0
 11
410.9579220170983831
 21
43.187232100569581
 31
0.0
  0
LINE
  5
843A
  8
0
 10
410.9086488620985165
 20
43.1874515513695911
 30
0.0
 11
410.9370617690984204
 21
43.1874515513695911
 31
0.0
  0
LINE
  5
843B
  8
0
 10
410.9370617690984204
 20
43.1874515513695911
 30
0.0
 11
410.9462425415962912
 21
43.1928805561784515
 31
0.0
  0
LINE
  5
843C
  8
0
 10
410.9086488620985165
 20
43.1874515513695911
 30
0.0
 11
410.8994684933446138
 21
43.1928803173665585
 31
0.0
  0
ARC
  5
843D
  8
0
 10
410.8827810002277943
 20
43.2140086258415295
 30
0.0
 40
0.027242279607474
 50
280.5946906700368118
 51
290.0030495264347792
  0
LINE
  5
843E
  8
0
 10
410.8920992983481142
 20
43.1884117157592513
 30
0.0
 11
410.906778784598373
 21
43.1973132003695781
 31
0.0
  0
LINE
  5
843F
  8
0
 10
410.906778784598373
 20
43.1973132003695781
 30
0.0
 11
410.9389343535984267
 21
43.1973127061695834
 31
0.0
  0
LINE
  5
8440
  8
0
 10
410.9389343535984267
 20
43.1973127061695834
 30
0.0
 11
410.9536112616984269
 21
43.1884116956695792
 31
0.0
  0
ARC
  5
8441
  8
0
 10
410.9585376334277953
 20
43.19796573634693
 30
0.0
 40
0.0107512752948552
 50
242.7257501229385923
 51
266.7174572841619238
  0
ARC
  5
8442
  8
0
 10
410.9110526832167238
 20
43.2012361805276086
 30
0.0
 40
0.0244614408520638
 50
249.4547893806779086
 51
259.9376460391964088
  0
ARC
  5
8443
  8
0
 10
410.928277015854917
 20
43.2291435641512365
 30
0.0
 40
0.0530729043168032
 50
281.5814304798598187
 51
285.897172676681123
  0
LINE
  5
8444
  8
0
 10
410.8877873201985267
 20
43.2073922189695878
 30
0.0
 11
410.9024655763985265
 21
43.1984920529695771
 31
0.0
  0
LINE
  5
8445
  8
0
 10
410.9428118556938898
 20
43.1982618992311487
 30
0.0
 11
410.9579195642983791
 21
43.2073935575695813
 31
0.0
  0
LINE
  5
8446
  8
0
 10
410.9086464092983988
 20
43.2076130083695773
 30
0.0
 11
410.9370593162984164
 21
43.2076130083695773
 31
0.0
  0
LINE
  5
8447
  8
0
 10
410.9370593162984164
 20
43.2076130083695773
 30
0.0
 11
410.9462400887962872
 21
43.2130420131784518
 31
0.0
  0
LINE
  5
8448
  8
0
 10
410.9086464092983988
 20
43.2076130083695773
 30
0.0
 11
410.8994660405447235
 21
43.2130417743665589
 31
0.0
  0
ARC
  5
8449
  8
0
 10
410.8827785474277903
 20
43.2341700828415298
 30
0.0
 40
0.027242279607474
 50
280.5946906700368118
 51
290.0030495264347792
  0
LINE
  5
844A
  8
0
 10
410.8920968455481102
 20
43.2085731727592517
 30
0.0
 11
410.9067763317984259
 21
43.2174746573695927
 31
0.0
  0
LINE
  5
844B
  8
0
 10
410.9067763317984259
 20
43.2174746573695927
 30
0.0
 11
410.9389319007984227
 21
43.2174741631695767
 31
0.0
  0
LINE
  5
844C
  8
0
 10
410.9389319007984227
 20
43.2174741631695767
 30
0.0
 11
410.9536088088984798
 21
43.2085731526695795
 31
0.0
  0
ARC
  5
844D
  8
0
 10
410.9585351806277913
 20
43.2181271933469375
 30
0.0
 40
0.0107512752948552
 50
242.7257501229385923
 51
266.7174572841619238
  0
ARC
  5
844E
  8
0
 10
410.9110078177540117
 20
43.2212665170938521
 30
0.0
 40
0.0243237765062039
 50
249.4399465844431063
 51
259.987433535245998
  0
ARC
  5
844F
  8
0
 10
410.9281040045946725
 20
43.2499497280405976
 30
0.0
 40
0.0537396737149814
 50
281.626653143836279
 51
285.883784343128184
  0
LINE
  5
8450
  8
0
 10
410.8877873201985267
 20
43.2275544184695804
 30
0.0
 11
410.9024655763985265
 21
43.2186542524695909
 31
0.0
  0
LINE
  5
8451
  8
0
 10
410.9428118556938898
 20
43.2184240987311625
 30
0.0
 11
410.9579195642983791
 21
43.2275557570695881
 31
0.0
  0
LINE
  5
8452
  8
0
 10
410.9086464092983988
 20
43.2277752078695769
 30
0.0
 11
410.9370593162984164
 21
43.2277752078695769
 31
0.0
  0
LINE
  5
8453
  8
0
 10
410.9370593162984164
 20
43.2277752078695769
 30
0.0
 11
410.9462400887962872
 21
43.2332042126784373
 31
0.0
  0
LINE
  5
8454
  8
0
 10
410.9086464092983988
 20
43.2277752078695769
 30
0.0
 11
410.8994660405447235
 21
43.2332039738665586
 31
0.0
  0
ARC
  5
8455
  8
0
 10
410.8827785474277903
 20
43.2543322823415295
 30
0.0
 40
0.027242279607474
 50
280.5946906700368118
 51
290.0030495264347792
  0
LINE
  5
8456
  8
0
 10
410.8920968455481102
 20
43.2287353722592584
 30
0.0
 11
410.9067763317984259
 21
43.2376368568695781
 31
0.0
  0
LINE
  5
8457
  8
0
 10
410.9067763317984259
 20
43.2376368568695781
 30
0.0
 11
410.9389319007984227
 21
43.2376363626695905
 31
0.0
  0
LINE
  5
8458
  8
0
 10
410.9389319007984227
 20
43.2376363626695905
 30
0.0
 11
410.9536088088984798
 21
43.2287353521695934
 31
0.0
  0
ARC
  5
8459
  8
0
 10
410.9585351806277913
 20
43.2382893928469372
 30
0.0
 40
0.0107512752948552
 50
242.7257501229385923
 51
266.7174572841619238
  0
ARC
  5
845A
  8
0
 10
410.9110502304167198
 20
43.2415598370276228
 30
0.0
 40
0.0244614408520638
 50
249.4547893806779086
 51
259.9376460391964088
  0
ARC
  5
845B
  8
0
 10
410.9280607104308274
 20
43.2702755784420603
 30
0.0
 40
0.0539089253722099
 50
281.6339574900475213
 51
285.8804385830777051
  0
LINE
  5
845C
  8
0
 10
410.8877873201985267
 20
43.24771661796958
 30
0.0
 11
410.9024655763985265
 21
43.2388164519695906
 31
0.0
  0
LINE
  5
845D
  8
0
 10
410.9428118556938898
 20
43.238586298231148
 30
0.0
 11
410.9579195642983791
 21
43.2477179565695877
 31
0.0
  0
LINE
  5
845E
  8
0
 10
410.9086464092983988
 20
43.2479374073695908
 30
0.0
 11
410.9370593162984164
 21
43.2479374073695908
 31
0.0
  0
LINE
  5
845F
  8
0
 10
410.9370593162984164
 20
43.2479374073695908
 30
0.0
 11
410.9462400887962872
 21
43.2533664121784511
 31
0.0
  0
LINE
  5
8460
  8
0
 10
410.9086464092983988
 20
43.2479374073695908
 30
0.0
 11
410.8994660405447235
 21
43.2533661733665582
 31
0.0
  0
ARC
  5
8461
  8
0
 10
410.8827785474277903
 20
43.2744944818415291
 30
0.0
 40
0.027242279607474
 50
280.5946906700368118
 51
290.0030495264347792
  0
LINE
  5
8462
  8
0
 10
410.8920968455481102
 20
43.2488975717592581
 30
0.0
 11
410.9067763317984259
 21
43.257799056369592
 31
0.0
  0
LINE
  5
8463
  8
0
 10
410.9067763317984259
 20
43.257799056369592
 30
0.0
 11
410.9389319007984227
 21
43.2577985621695902
 31
0.0
  0
LINE
  5
8464
  8
0
 10
410.9389319007984227
 20
43.2577985621695902
 30
0.0
 11
410.9536088088984798
 21
43.2488975516695788
 31
0.0
  0
ARC
  5
8465
  8
0
 10
410.9585351806277913
 20
43.2584515923469368
 30
0.0
 40
0.0107512752948552
 50
242.7257501229385923
 51
266.7174572841619238
  0
ARC
  5
8466
  8
0
 10
410.9110502304167198
 20
43.2617220365276083
 30
0.0
 40
0.0244614408520638
 50
249.4547893806779086
 51
259.9376460391964088
  0
ARC
  5
8467
  8
0
 10
410.9280607104306
 20
43.2904377779426497
 30
0.0
 40
0.0539089253728258
 50
281.6339574900807747
 51
285.8804385830609931
  0
LINE
  5
8468
  8
0
 10
410.8877873201985267
 20
43.2678788174695867
 30
0.0
 11
410.9024655763985265
 21
43.2589786514695831
 31
0.0
  0
LINE
  5
8469
  8
0
 10
410.9428118556938898
 20
43.2587484977311618
 30
0.0
 11
410.9579195642983791
 21
43.2678801560695874
 31
0.0
  0
LINE
  5
846A
  8
0
 10
410.9086464092983988
 20
43.2680996068695904
 30
0.0
 11
410.9370593162984164
 21
43.2680996068695904
 31
0.0
  0
LINE
  5
846B
  8
0
 10
410.9370593162984164
 20
43.2680996068695904
 30
0.0
 11
410.9462400887962872
 21
43.2735286116784366
 31
0.0
  0
LINE
  5
846C
  8
0
 10
410.9086464092983988
 20
43.2680996068695904
 30
0.0
 11
410.8994660405447235
 21
43.2735283728665578
 31
0.0
  0
ARC
  5
846D
  8
0
 10
410.8827785474277903
 20
43.294656681341543
 30
0.0
 40
0.027242279607474
 50
280.5946906700368118
 51
290.0030495264347792
  0
LINE
  5
846E
  8
0
 10
410.8920968455481102
 20
43.2690597712592506
 30
0.0
 11
410.9067763317984259
 21
43.2779612558695774
 31
0.0
  0
LINE
  5
846F
  8
0
 10
410.9067763317984259
 20
43.2779612558695774
 30
0.0
 11
410.9389319007984227
 21
43.2779607616695898
 31
0.0
  0
LINE
  5
8470
  8
0
 10
410.9389319007984227
 20
43.2779607616695898
 30
0.0
 11
410.9536088088984798
 21
43.2690597511695927
 31
0.0
  0
ARC
  5
8471
  8
0
 10
410.9585351806277913
 20
43.2786137918469294
 30
0.0
 40
0.0107512752948552
 50
242.7257501229385923
 51
266.7174572841619238
  0
ARC
  5
8472
  8
0
 10
410.9110502304167198
 20
43.2818842360276079
 30
0.0
 40
0.0244614408520638
 50
249.4547893806779086
 51
259.9376460391964088
  0
ARC
  5
8473
  8
0
 10
410.9280607104306
 20
43.310599977442692
 30
0.0
 40
0.0539089253728612
 50
281.6339574900841853
 51
285.8804385830641763
  0
LINE
  5
8474
  8
0
 10
410.8877873201985267
 20
43.2880410169695935
 30
0.0
 11
410.9024655763985265
 21
43.2791408509695898
 31
0.0
  0
LINE
  5
8475
  8
0
 10
410.9428118556938898
 20
43.2789106972311473
 30
0.0
 11
410.9579195642983791
 21
43.2880423555695799
 31
0.0
  0
LINE
  5
8476
  8
0
 10
410.9086464092983988
 20
43.2882618063695901
 30
0.0
 11
410.9370593162984164
 21
43.2882618063695901
 31
0.0
  0
LINE
  5
8477
  8
0
 10
410.9370593162984164
 20
43.2882618063695901
 30
0.0
 11
410.9462400887962872
 21
43.2936908111784504
 31
0.0
  0
LINE
  5
8478
  8
0
 10
410.9086464092983988
 20
43.2882618063695901
 30
0.0
 11
410.8994660405447235
 21
43.2936905723665575
 31
0.0
  0
ARC
  5
8479
  8
0
 10
410.8827785474277903
 20
43.3148188808415284
 30
0.0
 40
0.027242279607474
 50
280.5946906700368118
 51
290.0030495264347792
  0
LINE
  5
847A
  8
0
 10
410.8920968455481102
 20
43.2892219707592503
 30
0.0
 11
410.9067763317984259
 21
43.2981234553695913
 31
0.0
  0
LINE
  5
847B
  8
0
 10
410.9067763317984259
 20
43.2981234553695913
 30
0.0
 11
410.9389319007984227
 21
43.2981229611695824
 31
0.0
  0
LINE
  5
847C
  8
0
 10
410.9389319007984227
 20
43.2981229611695824
 30
0.0
 11
410.9536088088984798
 21
43.2892219506695781
 31
0.0
  0
ARC
  5
847D
  8
0
 10
410.9585351806277913
 20
43.2987759913469432
 30
0.0
 40
0.0107512752948552
 50
242.7257501229385923
 51
266.7174572841619238
  0
ARC
  5
847E
  8
0
 10
410.9110502304167198
 20
43.3020464355276076
 30
0.0
 40
0.0244614408520638
 50
249.4547893806779086
 51
259.9376460391964088
  0
ARC
  5
847F
  8
0
 10
410.9280607104308274
 20
43.3307621769420521
 30
0.0
 40
0.0539089253722029
 50
281.6339574900475213
 51
285.8804385830778756
  0
LINE
  5
8480
  8
0
 10
410.8877873201985267
 20
43.3082032164695931
 30
0.0
 11
410.9024655763985265
 21
43.2993030504695895
 31
0.0
  0
LINE
  5
8481
  8
0
 10
410.9428118556938898
 20
43.2990728967311611
 30
0.0
 11
410.9579195642983791
 21
43.3082045550695867
 31
0.0
  0
LINE
  5
8482
  8
0
 10
410.9086464092983988
 20
43.3084240058695826
 30
0.0
 11
410.9370593162984164
 21
43.3084240058695826
 31
0.0
  0
LINE
  5
8483
  8
0
 10
410.9370593162984164
 20
43.3084240058695826
 30
0.0
 11
410.9462400887962872
 21
43.3138530106784501
 31
0.0
  0
LINE
  5
8484
  8
0
 10
410.9086464092983988
 20
43.3084240058695826
 30
0.0
 11
410.8994660405447235
 21
43.3138527718665571
 31
0.0
  0
ARC
  5
8485
  8
0
 10
410.8827785474277903
 20
43.3349810803415281
 30
0.0
 40
0.027242279607474
 50
280.5946906700368118
 51
290.0030495264347792
  0
LINE
  5
8486
  8
0
 10
410.8920968455481102
 20
43.3093841702592499
 30
0.0
 11
410.9007531948707879
 21
43.3146332885841971
 31
0.0
  0
LINE
  5
8487
  8
0
 10
410.9415090029950193
 20
43.3167222419979367
 30
0.0
 11
410.9536088088984798
 21
43.309384150169592
 31
0.0
  0
ARC
  5
8488
  8
0
 10
410.9585351806277913
 20
43.3189381908469286
 30
0.0
 40
0.0107512752948552
 50
242.7257501229385923
 51
266.7174572841619238
  0
ARC
  5
8489
  8
0
 10
410.9110502304167198
 20
43.3222086350276072
 30
0.0
 40
0.0244614408520638
 50
249.4547893806779086
 51
259.9376460391964088
  0
ARC
  5
848A
  8
0
 10
410.9280607104308274
 20
43.3509243764420802
 30
0.0
 40
0.0539089253722327
 50
281.6339574900475213
 51
285.8804385830745218
  0
LINE
  5
848B
  8
0
 10
410.8510070529836753
 20
43.3095753270306716
 30
0.0
 11
410.8513223438984028
 21
43.3093841502695867
 31
0.0
  0
ARC
  5
848C
  8
0
 10
410.8599069979168235
 20
43.3322897348276115
 30
0.0
 40
0.0244614408520638
 50
249.4547893806779086
 51
259.9376460391964088
  0
LINE
  5
848D
  8
0
 10
410.8366440876984029
 20
43.2981221167695907
 30
0.0
 11
410.8513223438984028
 21
43.2892219507695799
 31
0.0
  0
LINE
  5
848E
  8
0
 10
410.8575031767983887
 20
43.2983429061695801
 30
0.0
 11
410.8859160837984064
 21
43.2983429061695801
 31
0.0
  0
LINE
  5
848F
  8
0
 10
410.8575031767983887
 20
43.2983429061695801
 30
0.0
 11
410.8483228080447134
 21
43.3037716721665475
 31
0.0
  0
ARC
  5
8490
  8
0
 10
410.8316353149278939
 20
43.3248999806415327
 30
0.0
 40
0.027242279607474
 50
280.5946906700368118
 51
290.0030495264347792
  0
LINE
  5
8491
  8
0
 10
410.8409536130481001
 20
43.2993030705592616
 30
0.0
 11
410.8556330992984726
 21
43.3082045551695884
 31
0.0
  0
LINE
  5
8492
  8
0
 10
410.8556330992984726
 20
43.3082045551695884
 30
0.0
 11
410.8877873201985267
 21
43.3082032164695931
 31
0.0
  0
ARC
  5
8493
  8
0
 10
410.8599069979168235
 20
43.3121275353276189
 30
0.0
 40
0.0244614408520638
 50
249.4547893806779086
 51
259.9376460391964088
  0
LINE
  5
8494
  8
0
 10
410.8366440876984029
 20
43.2779599172695768
 30
0.0
 11
410.8513223438984028
 21
43.2690597512695803
 31
0.0
  0
LINE
  5
8495
  8
0
 10
410.8575031767983887
 20
43.2781807066695876
 30
0.0
 11
410.8859160837984064
 21
43.2781807066695876
 31
0.0
  0
LINE
  5
8496
  8
0
 10
410.8575031767983887
 20
43.2781807066695876
 30
0.0
 11
410.8483228080447134
 21
43.2836094726665621
 31
0.0
  0
ARC
  5
8497
  8
0
 10
410.8316353149278939
 20
43.304737781141533
 30
0.0
 40
0.027242279607474
 50
280.5946906700368118
 51
290.0030495264347792
  0
LINE
  5
8498
  8
0
 10
410.8409536130481001
 20
43.2791408710592478
 30
0.0
 11
410.8556330992984726
 21
43.2880423556695817
 31
0.0
  0
LINE
  5
8499
  8
0
 10
410.8556330992984726
 20
43.2880423556695817
 30
0.0
 11
410.8877873201985267
 21
43.2880410169695935
 31
0.0
  0
ARC
  5
849A
  8
0
 10
410.8599069979168235
 20
43.2919653358276122
 30
0.0
 40
0.0244614408520638
 50
249.4547893806779086
 51
259.9376460391964088
  0
LINE
  5
849B
  8
0
 10
410.8366440876984029
 20
43.2577977176695896
 30
0.0
 11
410.8513223438984028
 21
43.2488975516695788
 31
0.0
  0
LINE
  5
849C
  8
0
 10
410.8575031767983887
 20
43.2580185070695791
 30
0.0
 11
410.8859160837984064
 21
43.2580185070695791
 31
0.0
  0
LINE
  5
849D
  8
0
 10
410.8575031767983887
 20
43.2580185070695791
 30
0.0
 11
410.8483228080447134
 21
43.2634472730665607
 31
0.0
  0
ARC
  5
849E
  8
0
 10
410.8316353149278939
 20
43.2845755815415316
 30
0.0
 40
0.027242279607474
 50
280.5946906700368118
 51
290.0030495264347792
  0
LINE
  5
849F
  8
0
 10
410.8409536130481001
 20
43.2589786714592606
 30
0.0
 11
410.8556330992984726
 21
43.2678801560695803
 31
0.0
  0
LINE
  5
84A0
  8
0
 10
410.8556330992984726
 20
43.2678801560695803
 30
0.0
 11
410.8877873201985267
 21
43.2678788174695867
 31
0.0
  0
ARC
  5
84A1
  8
0
 10
410.8599069979168235
 20
43.2718031362276108
 30
0.0
 40
0.0244614408520638
 50
249.4547893806779086
 51
259.9376460391964088
  0
LINE
  5
84A2
  8
0
 10
410.8366440876984029
 20
43.2376355181695828
 30
0.0
 11
410.8513223438984028
 21
43.2287353521695934
 31
0.0
  0
LINE
  5
84A3
  8
0
 10
410.8575031767983887
 20
43.2378563075695794
 30
0.0
 11
410.8859160837984064
 21
43.2378563075695794
 31
0.0
  0
LINE
  5
84A4
  8
0
 10
410.8575031767983887
 20
43.2378563075695794
 30
0.0
 11
410.8483228080447134
 21
43.243285073566561
 31
0.0
  0
ARC
  5
84A5
  8
0
 10
410.8316353149278939
 20
43.2644133820415391
 30
0.0
 40
0.027242279607474
 50
280.5946906700368118
 51
290.0030495264347792
  0
LINE
  5
84A6
  8
0
 10
410.8409536130481001
 20
43.2388164719592467
 30
0.0
 11
410.8556330992984726
 21
43.2477179565695877
 31
0.0
  0
LINE
  5
84A7
  8
0
 10
410.8556330992984726
 20
43.2477179565695877
 30
0.0
 11
410.8877873201985267
 21
43.24771661796958
 31
0.0
  0
ARC
  5
84A8
  8
0
 10
410.8599069979168235
 20
43.2516409367276111
 30
0.0
 40
0.0244614408520638
 50
249.4547893806779086
 51
259.9376460391964088
  0
LINE
  5
84A9
  8
0
 10
410.8366440876984029
 20
43.2174733186695903
 30
0.0
 11
410.8513223438984028
 21
43.2085731526695795
 31
0.0
  0
LINE
  5
84AA
  8
0
 10
410.8575031767983887
 20
43.2176941080695798
 30
0.0
 11
410.8859160837984064
 21
43.2176941080695798
 31
0.0
  0
LINE
  5
84AB
  8
0
 10
410.8575031767983887
 20
43.2176941080695798
 30
0.0
 11
410.8483228080447134
 21
43.2231228740665472
 31
0.0
  0
ARC
  5
84AC
  8
0
 10
410.8316353149278939
 20
43.2442511825415323
 30
0.0
 40
0.027242279607474
 50
280.5946906700368118
 51
290.0030495264347792
  0
LINE
  5
84AD
  8
0
 10
410.8409536130481001
 20
43.2186542724592613
 30
0.0
 11
410.8556330992984726
 21
43.2275557570695881
 31
0.0
  0
LINE
  5
84AE
  8
0
 10
410.8556330992984726
 20
43.2275557570695881
 30
0.0
 11
410.8877873201985267
 21
43.2275544184695804
 31
0.0
  0
ARC
  5
84AF
  8
0
 10
410.8599069979168235
 20
43.2314787372276186
 30
0.0
 40
0.0244614408520638
 50
249.4547893806779086
 51
259.9376460391964088
  0
LINE
  5
84B0
  8
0
 10
410.8366440876984029
 20
43.1973111191695835
 30
0.0
 11
410.8513223438984028
 21
43.1884109531695799
 31
0.0
  0
LINE
  5
84B1
  8
0
 10
410.8575031767983887
 20
43.1975319085695872
 30
0.0
 11
410.8859160837984064
 21
43.1975319085695872
 31
0.0
  0
LINE
  5
84B2
  8
0
 10
410.8575031767983887
 20
43.1975319085695872
 30
0.0
 11
410.8483228080447134
 21
43.2029606745665617
 31
0.0
  0
ARC
  5
84B3
  8
0
 10
410.8316353149278939
 20
43.2240889830415327
 30
0.0
 40
0.027242279607474
 50
280.5946906700368118
 51
290.0030495264347792
  0
LINE
  5
84B4
  8
0
 10
410.8409536130481001
 20
43.1984920729592474
 30
0.0
 11
410.8556330992984726
 21
43.2073935575695813
 31
0.0
  0
LINE
  5
84B5
  8
0
 10
410.8556330992984726
 20
43.2073935575695813
 30
0.0
 11
410.8877873201985267
 21
43.2073922189695878
 31
0.0
  0
ARC
  5
84B6
  8
0
 10
410.8599069979168235
 20
43.2113165377276118
 30
0.0
 40
0.0244614408520638
 50
249.4547893806779086
 51
259.9376460391964088
  0
LINE
  5
84B7
  8
0
 10
410.8366440876984029
 20
43.177148919669591
 30
0.0
 11
410.8513223438984028
 21
43.1682487536695803
 31
0.0
  0
LINE
  5
84B8
  8
0
 10
410.8575031767983887
 20
43.1773697090695876
 30
0.0
 11
410.8859160837984064
 21
43.1773697090695876
 31
0.0
  0
LINE
  5
84B9
  8
0
 10
410.8575031767983887
 20
43.1773697090695876
 30
0.0
 11
410.8483228080447134
 21
43.1827984750665621
 31
0.0
  0
ARC
  5
84BA
  8
0
 10
410.8316353149278939
 20
43.203926783541533
 30
0.0
 40
0.027242279607474
 50
280.5946906700368118
 51
290.0030495264347792
  0
LINE
  5
84BB
  8
0
 10
410.8409536130481001
 20
43.178329873459262
 30
0.0
 11
410.8556330992984726
 21
43.1872313580695817
 31
0.0
  0
LINE
  5
84BC
  8
0
 10
410.8556330992984726
 20
43.1872313580695817
 30
0.0
 11
410.8877897729984738
 21
43.1872307619695874
 31
0.0
  0
ARC
  5
84BD
  8
0
 10
410.8599069979168235
 20
43.1911543382276122
 30
0.0
 40
0.0244614408520638
 50
249.4547893806779086
 51
259.9376460391964088
  0
LINE
  5
84BE
  8
0
 10
410.8859160837984064
 20
43.2983429061695801
 30
0.0
 11
410.8950968562962771
 21
43.3037719109784405
 31
0.0
  0
LINE
  5
84BF
  8
0
 10
410.8859160837984064
 20
43.2781807066695876
 30
0.0
 11
410.8950968562962771
 21
43.2836097114784408
 31
0.0
  0
LINE
  5
84C0
  8
0
 10
410.8859160837984064
 20
43.2580185070695791
 30
0.0
 11
410.8950968562962771
 21
43.2634475118784465
 31
0.0
  0
LINE
  5
84C1
  8
0
 10
410.8859160837694162
 20
43.2378563075695794
 30
0.0
 11
410.8950968562674007
 21
43.2432853123784469
 31
0.0
  0
LINE
  5
84C2
  8
0
 10
410.8859160837984064
 20
43.2176941080695798
 30
0.0
 11
410.8950968562962771
 21
43.2231231128784401
 31
0.0
  0
LINE
  5
84C3
  8
0
 10
410.8859160837984064
 20
43.1975319085695872
 30
0.0
 11
410.8950968562962771
 21
43.2029609133784405
 31
0.0
  0
LINE
  5
84C4
  8
0
 10
410.8859160837984064
 20
43.1773697090695876
 30
0.0
 11
410.8950968562962771
 21
43.1827987138784408
 31
0.0
  0
LINE
  5
84C5
  8
0
 10
410.7855008551983929
 20
43.1872300194695882
 30
0.0
 11
410.8001791113983927
 21
43.1783298534695916
 31
0.0
  0
LINE
  5
84C6
  8
0
 10
410.8063599442983787
 20
43.1874508088695777
 30
0.0
 11
410.8347728512983963
 21
43.1874508088695777
 31
0.0
  0
LINE
  5
84C7
  8
0
 10
410.8063599442983787
 20
43.1874508088695777
 30
0.0
 11
410.7971795755447033
 21
43.1928795748665735
 31
0.0
  0
ARC
  5
84C8
  8
0
 10
410.780492082427827
 20
43.2140078833415373
 30
0.0
 40
0.027242279607474
 50
280.5946906700368118
 51
290.0030495264347792
  0
LINE
  5
84C9
  8
0
 10
410.7898103805480901
 20
43.188410973259252
 30
0.0
 11
410.8044898667984057
 21
43.1973124578695789
 31
0.0
  0
LINE
  5
84CA
  8
0
 10
410.8044898667984057
 20
43.1973124578695789
 30
0.0
 11
410.8366440876984029
 21
43.1973111191695835
 31
0.0
  0
ARC
  5
84CB
  8
0
 10
410.8087637654166997
 20
43.2012354380276093
 30
0.0
 40
0.0244614408520638
 50
249.4547893806779086
 51
259.9376460391964088
  0
LINE
  5
84CC
  8
0
 10
410.8347728512983963
 20
43.1874508088695777
 30
0.0
 11
410.8439536237963239
 21
43.192879813678438
 31
0.0
  0
LINE
  5
84CD
  8
0
 10
410.7855008551983929
 20
43.2073922189695878
 30
0.0
 11
410.8001791113983927
 21
43.1984920529695771
 31
0.0
  0
LINE
  5
84CE
  8
0
 10
410.8063599442983787
 20
43.2076130083695773
 30
0.0
 11
410.8347728512983963
 21
43.2076130083695773
 31
0.0
  0
LINE
  5
84CF
  8
0
 10
410.8063599442983787
 20
43.2076130083695773
 30
0.0
 11
410.7971795755447033
 21
43.2130417743665589
 31
0.0
  0
ARC
  5
84D0
  8
0
 10
410.780492082427827
 20
43.2341700828415227
 30
0.0
 40
0.027242279607474
 50
280.5946906700368118
 51
290.0030495264347792
  0
LINE
  5
84D1
  8
0
 10
410.7898103805480901
 20
43.2085731727592517
 30
0.0
 11
410.8044898667984057
 21
43.2174746573695785
 31
0.0
  0
LINE
  5
84D2
  8
0
 10
410.8044898667984057
 20
43.2174746573695785
 30
0.0
 11
410.8366440876984029
 21
43.2174733186695903
 31
0.0
  0
ARC
  5
84D3
  8
0
 10
410.8087637654166997
 20
43.221397637527609
 30
0.0
 40
0.0244614408520638
 50
249.4547893806779086
 51
259.9376460391964088
  0
LINE
  5
84D4
  8
0
 10
410.8347728512983963
 20
43.2076130083695773
 30
0.0
 11
410.8439536237963239
 21
43.2130420131784518
 31
0.0
  0
LINE
  5
84D5
  8
0
 10
410.7855008551983929
 20
43.2275544184695804
 30
0.0
 11
410.8001791113983927
 21
43.2186542524695909
 31
0.0
  0
LINE
  5
84D6
  8
0
 10
410.8063599442983787
 20
43.2277752078695769
 30
0.0
 11
410.8347728512983963
 21
43.2277752078695769
 31
0.0
  0
LINE
  5
84D7
  8
0
 10
410.8063599442983787
 20
43.2277752078695769
 30
0.0
 11
410.7971795755447033
 21
43.2332039738665586
 31
0.0
  0
ARC
  5
84D8
  8
0
 10
410.780492082427827
 20
43.2543322823415295
 30
0.0
 40
0.027242279607474
 50
280.5946906700368118
 51
290.0030495264347792
  0
LINE
  5
84D9
  8
0
 10
410.7898103805480901
 20
43.2287353722592584
 30
0.0
 11
410.8044898667984057
 21
43.2376368568695781
 31
0.0
  0
LINE
  5
84DA
  8
0
 10
410.8044898667984057
 20
43.2376368568695781
 30
0.0
 11
410.8366440876984029
 21
43.2376355181695828
 31
0.0
  0
ARC
  5
84DB
  8
0
 10
410.8087637654166997
 20
43.2415598370276228
 30
0.0
 40
0.0244614408520638
 50
249.4547893806779086
 51
259.9376460391964088
  0
LINE
  5
84DC
  8
0
 10
410.8347728512983963
 20
43.2277752078695769
 30
0.0
 11
410.8439536237963239
 21
43.2332042126784373
 31
0.0
  0
LINE
  5
84DD
  8
0
 10
410.7855008551983929
 20
43.24771661796958
 30
0.0
 11
410.8001791113983927
 21
43.2388164519695835
 31
0.0
  0
LINE
  5
84DE
  8
0
 10
410.8063599442983787
 20
43.2479374073695908
 30
0.0
 11
410.8347728512983963
 21
43.2479374073695908
 31
0.0
  0
LINE
  5
84DF
  8
0
 10
410.8063599442983787
 20
43.2479374073695908
 30
0.0
 11
410.7971795755447033
 21
43.2533661733665582
 31
0.0
  0
ARC
  5
84E0
  8
0
 10
410.780492082427827
 20
43.2744944818415291
 30
0.0
 40
0.027242279607474
 50
280.5946906700368118
 51
290.0030495264347792
  0
LINE
  5
84E1
  8
0
 10
410.7898103805480901
 20
43.2488975717592581
 30
0.0
 11
410.8044898667984057
 21
43.257799056369592
 31
0.0
  0
LINE
  5
84E2
  8
0
 10
410.8044898667984057
 20
43.257799056369592
 30
0.0
 11
410.8366440876984029
 21
43.2577977176695896
 31
0.0
  0
ARC
  5
84E3
  8
0
 10
410.8087637654166997
 20
43.2617220365276083
 30
0.0
 40
0.0244614408520638
 50
249.4547893806779086
 51
259.9376460391964088
  0
LINE
  5
84E4
  8
0
 10
410.8347728512983963
 20
43.2479374073695908
 30
0.0
 11
410.8439536237963239
 21
43.2533664121784511
 31
0.0
  0
LINE
  5
84E5
  8
0
 10
410.7855008551983929
 20
43.2678788174695796
 30
0.0
 11
410.8001791113983927
 21
43.2589786514695831
 31
0.0
  0
LINE
  5
84E6
  8
0
 10
410.8063599442983787
 20
43.2680996068695904
 30
0.0
 11
410.8347728512983963
 21
43.2680996068695904
 31
0.0
  0
LINE
  5
84E7
  8
0
 10
410.8063599442983787
 20
43.2680996068695904
 30
0.0
 11
410.7971795755447033
 21
43.2735283728665578
 31
0.0
  0
ARC
  5
84E8
  8
0
 10
410.780492082427827
 20
43.294656681341543
 30
0.0
 40
0.027242279607474
 50
280.5946906700368118
 51
290.0030495264347792
  0
LINE
  5
84E9
  8
0
 10
410.7898103805480901
 20
43.2690597712592506
 30
0.0
 11
410.8044898667984057
 21
43.2779612558695774
 31
0.0
  0
LINE
  5
84EA
  8
0
 10
410.8044898667984057
 20
43.2779612558695774
 30
0.0
 11
410.8366440876984029
 21
43.2779599172695768
 31
0.0
  0
ARC
  5
84EB
  8
0
 10
410.8087637654166997
 20
43.2818842360276079
 30
0.0
 40
0.0244614408520638
 50
249.4547893806779086
 51
259.9376460391964088
  0
LINE
  5
84EC
  8
0
 10
410.8347728512983963
 20
43.2680996068695904
 30
0.0
 11
410.8439536237963239
 21
43.2735286116784366
 31
0.0
  0
LINE
  5
84ED
  8
0
 10
410.7855008551983929
 20
43.2880410169695935
 30
0.0
 11
410.8001791113983927
 21
43.2791408509695898
 31
0.0
  0
LINE
  5
84EE
  8
0
 10
410.8063599442983787
 20
43.2882618063695901
 30
0.0
 11
410.8347728512983963
 21
43.2882618063695901
 31
0.0
  0
LINE
  5
84EF
  8
0
 10
410.8063599442983787
 20
43.2882618063695901
 30
0.0
 11
410.7971795755447033
 21
43.2936905723665575
 31
0.0
  0
ARC
  5
84F0
  8
0
 10
410.780492082427827
 20
43.3148188808415284
 30
0.0
 40
0.027242279607474
 50
280.5946906700368118
 51
290.0030495264347792
  0
LINE
  5
84F1
  8
0
 10
410.7898103805480901
 20
43.2892219707592503
 30
0.0
 11
410.8044898667984057
 21
43.2981234553695913
 31
0.0
  0
LINE
  5
84F2
  8
0
 10
410.8044898667984057
 20
43.2981234553695913
 30
0.0
 11
410.8366440876984029
 21
43.2981221167695907
 31
0.0
  0
ARC
  5
84F3
  8
0
 10
410.8087637654166997
 20
43.3020464355276076
 30
0.0
 40
0.0244614408520638
 50
249.4547893806779086
 51
259.9376460391964088
  0
LINE
  5
84F4
  8
0
 10
410.8347728512983963
 20
43.2882618063695901
 30
0.0
 11
410.8439536237963239
 21
43.2936908111784504
 31
0.0
  0
LINE
  5
84F5
  8
0
 10
410.7980436743937958
 20
43.3005978734761001
 30
0.0
 11
410.8001791113983927
 21
43.2993030504695895
 31
0.0
  0
ARC
  5
84F6
  8
0
 10
410.8087637654166997
 20
43.3222086350276072
 30
0.0
 40
0.0244614408520638
 50
249.4547893806779086
 51
259.9376460391964088
  0
ARC
  5
84F7
  8
0
 10
410.7576205329166896
 20
43.3121275353276189
 30
0.0
 40
0.0244614408520638
 50
251.0233497227009991
 51
259.9376460391964088
  0
LINE
  5
84F8
  8
0
 10
410.7343576226983828
 20
43.2779599172695768
 30
0.0
 11
410.7490358788983826
 21
43.2690597512695803
 31
0.0
  0
LINE
  5
84F9
  8
0
 10
410.7552167117984254
 20
43.2781807066695876
 30
0.0
 11
410.7836296187983862
 21
43.2781807066695876
 31
0.0
  0
LINE
  5
84FA
  8
0
 10
410.7552167117984254
 20
43.2781807066695876
 30
0.0
 11
410.7460363430446932
 21
43.2836094726665621
 31
0.0
  0
ARC
  5
84FB
  8
0
 10
410.7293488499278169
 20
43.304737781141533
 30
0.0
 40
0.027242279607474
 50
280.5946906700368118
 51
290.0030495264347792
  0
LINE
  5
84FC
  8
0
 10
410.7386671480480231
 20
43.2791408710592478
 30
0.0
 11
410.7533466342983957
 21
43.2880423556695817
 31
0.0
  0
LINE
  5
84FD
  8
0
 10
410.7533466342983957
 20
43.2880423556695817
 30
0.0
 11
410.7855008551983929
 21
43.2880410169695935
 31
0.0
  0
ARC
  5
84FE
  8
0
 10
410.7576205329166896
 20
43.2919653358276122
 30
0.0
 40
0.0244614408520638
 50
249.4547893806779086
 51
259.9376460391964088
  0
LINE
  5
84FF
  8
0
 10
410.7836296187983862
 20
43.2781807066695876
 30
0.0
 11
410.7928103912963138
 21
43.2836097114784408
 31
0.0
  0
LINE
  5
8500
  8
0
 10
410.7343576226484174
 20
43.2580934199695903
 30
0.0
 11
410.7490358788484173
 21
43.2491932539695796
 31
0.0
  0
LINE
  5
8501
  8
0
 10
410.7552167117484032
 20
43.2583142093695869
 30
0.0
 11
410.7836296187484777
 21
43.2583142093695869
 31
0.0
  0
LINE
  5
8502
  8
0
 10
410.7552167117484032
 20
43.2583142093695869
 30
0.0
 11
410.7460363429947279
 21
43.2637429753665685
 31
0.0
  0
ARC
  5
8503
  8
0
 10
410.7293488498777947
 20
43.2848712838415324
 30
0.0
 40
0.027242279607474
 50
280.5946906700368118
 51
290.0030495264347792
  0
LINE
  5
8504
  8
0
 10
410.7386671479980009
 20
43.2592743737592471
 30
0.0
 11
410.7533466342483734
 21
43.268175858369581
 31
0.0
  0
LINE
  5
8505
  8
0
 10
410.7533466342483734
 20
43.268175858369581
 30
0.0
 11
410.7855008551983929
 21
43.2678788174695796
 31
0.0
  0
ARC
  5
8506
  8
0
 10
410.7576205328667243
 20
43.2720988385276115
 30
0.0
 40
0.0244614408520638
 50
249.4547893806779086
 51
259.9376460391964088
  0
LINE
  5
8507
  8
0
 10
410.7836296187484777
 20
43.2583142093695869
 30
0.0
 11
410.7928103912462916
 21
43.2637432141784402
 31
0.0
  0
LINE
  5
8508
  8
0
 10
410.7343576226484174
 20
43.2379312204695907
 30
0.0
 11
410.7490358788484173
 21
43.2290310544695799
 31
0.0
  0
LINE
  5
8509
  8
0
 10
410.7552167117484032
 20
43.2381520098695873
 30
0.0
 11
410.7836296187484777
 21
43.2381520098695873
 31
0.0
  0
LINE
  5
850A
  8
0
 10
410.7552167117484032
 20
43.2381520098695873
 30
0.0
 11
410.7460363429947279
 21
43.2435807758665618
 31
0.0
  0
ARC
  5
850B
  8
0
 10
410.7293488498777947
 20
43.2647090843415327
 30
0.0
 40
0.027242279607474
 50
280.5946906700368118
 51
290.0030495264347792
  0
LINE
  5
850C
  8
0
 10
410.7386671479980009
 20
43.2391121742592475
 30
0.0
 11
410.7533466342483734
 21
43.2480136588695814
 31
0.0
  0
LINE
  5
850D
  8
0
 10
410.7533466342483734
 20
43.2480136588695814
 30
0.0
 11
410.7855008551983929
 21
43.24771661796958
 31
0.0
  0
ARC
  5
850E
  8
0
 10
410.7576205328667243
 20
43.2519366390276119
 30
0.0
 40
0.0244614408520638
 50
249.4547893806779086
 51
259.9376460391964088
  0
LINE
  5
850F
  8
0
 10
410.7836296187484777
 20
43.2381520098695873
 30
0.0
 11
410.7928103912462916
 21
43.2435810146784405
 31
0.0
  0
LINE
  5
8510
  8
0
 10
410.7343576226983828
 20
43.2174733186695903
 30
0.0
 11
410.7490358788983826
 21
43.2085731526695795
 31
0.0
  0
LINE
  5
8511
  8
0
 10
410.7552167117984254
 20
43.2176941080695798
 30
0.0
 11
410.7836296187983862
 21
43.2176941080695798
 31
0.0
  0
LINE
  5
8512
  8
0
 10
410.7552167117984254
 20
43.2176941080695798
 30
0.0
 11
410.7460363430446932
 21
43.2231228740665472
 31
0.0
  0
ARC
  5
8513
  8
0
 10
410.7293488499278169
 20
43.2442511825415323
 30
0.0
 40
0.027242279607474
 50
280.5946906700368118
 51
290.0030495264347792
  0
LINE
  5
8514
  8
0
 10
410.7386671480480231
 20
43.2186542724592613
 30
0.0
 11
410.7533466342983957
 21
43.2275557570695881
 31
0.0
  0
LINE
  5
8515
  8
0
 10
410.7533466342983957
 20
43.2275557570695881
 30
0.0
 11
410.7855008551983929
 21
43.2275544184695804
 31
0.0
  0
ARC
  5
8516
  8
0
 10
410.7576205329166896
 20
43.2314787372276186
 30
0.0
 40
0.0244614408520638
 50
249.4547893806779086
 51
259.9376460391964088
  0
LINE
  5
8517
  8
0
 10
410.7836296187983862
 20
43.2176941080695869
 30
0.0
 11
410.7928103912963138
 21
43.2231231128784472
 31
0.0
  0
LINE
  5
8518
  8
0
 10
410.7343576226983828
 20
43.1973111191695835
 30
0.0
 11
410.7490358788983826
 21
43.1884109531695799
 31
0.0
  0
LINE
  5
8519
  8
0
 10
410.7552167117984254
 20
43.1975319085695872
 30
0.0
 11
410.7836296187983862
 21
43.1975319085695872
 31
0.0
  0
LINE
  5
851A
  8
0
 10
410.7552167117984254
 20
43.1975319085695872
 30
0.0
 11
410.7460363430446932
 21
43.2029606745665617
 31
0.0
  0
ARC
  5
851B
  8
0
 10
410.7293488499278169
 20
43.2240889830415327
 30
0.0
 40
0.027242279607474
 50
280.5946906700368118
 51
290.0030495264347792
  0
LINE
  5
851C
  8
0
 10
410.7386671480480231
 20
43.1984920729592474
 30
0.0
 11
410.7533466342983957
 21
43.2073935575695813
 31
0.0
  0
LINE
  5
851D
  8
0
 10
410.7533466342983957
 20
43.2073935575695813
 30
0.0
 11
410.7855008551983929
 21
43.2073922189695878
 31
0.0
  0
ARC
  5
851E
  8
0
 10
410.7576205329166896
 20
43.2113165377276118
 30
0.0
 40
0.0244614408520638
 50
249.4547893806779086
 51
259.9376460391964088
  0
LINE
  5
851F
  8
0
 10
410.7836296187983862
 20
43.1975319085695872
 30
0.0
 11
410.7928103912963138
 21
43.2029609133784405
 31
0.0
  0
LINE
  5
8520
  8
0
 10
410.6906154092308725
 20
43.2633912068800797
 30
0.0
 11
410.6978926463983726
 21
43.2589786514695831
 31
0.0
  0
LINE
  5
8521
  8
0
 10
410.7040734792984722
 20
43.2680996068695904
 30
0.0
 11
410.7324863862983761
 21
43.2680996068695904
 31
0.0
  0
LINE
  5
8522
  8
0
 10
410.7040734792984722
 20
43.2680996068695904
 30
0.0
 11
410.7011527993637969
 21
43.2698267366115772
 31
0.0
  0
LINE
  5
8523
  8
0
 10
410.7173319561960056
 20
43.277960626058551
 30
0.0
 11
410.7343576226983828
 21
43.2779599172695768
 31
0.0
  0
ARC
  5
8524
  8
0
 10
410.7064773004166796
 20
43.2818842360276079
 30
0.0
 40
0.0244614408520638
 50
249.4547893806779086
 51
259.9376460391964088
  0
LINE
  5
8525
  8
0
 10
410.7324863862983761
 20
43.2680996068695904
 30
0.0
 11
410.7416671587963037
 21
43.2735286116784366
 31
0.0
  0
LINE
  5
8526
  8
0
 10
410.6832143901983727
 20
43.24771661796958
 30
0.0
 11
410.6978926463983726
 21
43.2388164519695835
 31
0.0
  0
LINE
  5
8527
  8
0
 10
410.7040734792984722
 20
43.2479374073695908
 30
0.0
 11
410.7324863862983761
 21
43.2479374073695908
 31
0.0
  0
LINE
  5
8528
  8
0
 10
410.7040734792984722
 20
43.2479374073695908
 30
0.0
 11
410.6948931105446832
 21
43.2533661733665582
 31
0.0
  0
ARC
  5
8529
  8
0
 10
410.6782056174278068
 20
43.2744944818415291
 30
0.0
 40
0.027242279607474
 50
280.5946906700368118
 51
290.0030495264347792
  0
LINE
  5
852A
  8
0
 10
410.6875239155481268
 20
43.2488975717592581
 30
0.0
 11
410.7022034017983856
 21
43.257799056369592
 31
0.0
  0
LINE
  5
852B
  8
0
 10
410.7022034017983856
 20
43.257799056369592
 30
0.0
 11
410.7343576226484174
 21
43.2580934199695903
 31
0.0
  0
ARC
  5
852C
  8
0
 10
410.7064773004166796
 20
43.2617220365276083
 30
0.0
 40
0.0244614408520638
 50
249.4547893806779086
 51
259.9376460391964088
  0
LINE
  5
852D
  8
0
 10
410.7324863862983761
 20
43.2479374073695908
 30
0.0
 11
410.7416671587963037
 21
43.2533664121784511
 31
0.0
  0
LINE
  5
852E
  8
0
 10
410.6832143901983727
 20
43.2275544184695804
 30
0.0
 11
410.6978926463983726
 21
43.2186542524695909
 31
0.0
  0
LINE
  5
852F
  8
0
 10
410.7040734792984722
 20
43.2277752078695769
 30
0.0
 11
410.7324863862983761
 21
43.2277752078695769
 31
0.0
  0
LINE
  5
8530
  8
0
 10
410.7040734792984722
 20
43.2277752078695769
 30
0.0
 11
410.6948931105446832
 21
43.2332039738665586
 31
0.0
  0
ARC
  5
8531
  8
0
 10
410.6782056174278068
 20
43.2543322823415295
 30
0.0
 40
0.027242279607474
 50
280.5946906700368118
 51
289.9822916427212931
  0
LINE
  5
8532
  8
0
 10
410.6875151133838813
 20
43.2287300347203072
 30
0.0
 11
410.7022034017983856
 21
43.2376368568695781
 31
0.0
  0
LINE
  5
8533
  8
0
 10
410.7022034017983856
 20
43.2376368568695781
 30
0.0
 11
410.7343576226484174
 21
43.2379312204695907
 31
0.0
  0
ARC
  5
8534
  8
0
 10
410.7064773004166796
 20
43.2415598370276228
 30
0.0
 40
0.0244614408520638
 50
249.4547893806779086
 51
259.9376460391964088
  0
LINE
  5
8535
  8
0
 10
410.7324863862983761
 20
43.2277752078695769
 30
0.0
 11
410.7416671587963037
 21
43.2332042126784373
 31
0.0
  0
LINE
  5
8536
  8
0
 10
410.7040734792984722
 20
43.2076130083695773
 30
0.0
 11
410.7324863862983761
 21
43.2076130083695773
 31
0.0
  0
LINE
  5
8537
  8
0
 10
410.7040734792984722
 20
43.2076130083695773
 30
0.0
 11
410.6948931105446832
 21
43.2130417743665589
 31
0.0
  0
LINE
  5
8538
  8
0
 10
410.6932560567590826
 20
43.2120490823315677
 30
0.0
 11
410.7022034017983856
 21
43.2174746573695785
 31
0.0
  0
LINE
  5
8539
  8
0
 10
410.7022034017983856
 20
43.2174746573695785
 30
0.0
 11
410.7343576226983828
 21
43.2174733186695903
 31
0.0
  0
LINE
  5
853A
  8
0
 10
410.7324863862983761
 20
43.2076130083695773
 30
0.0
 11
410.7416671587963037
 21
43.2130420131784518
 31
0.0
  0
ARC
  5
853B
  8
0
 10
410.8214884315347035
 20
43.2216659801043619
 30
0.0
 40
0.1318680224057473
 50
179.1331546117507969
 51
181.5947999946122877
  0
ARC
  5
853C
  8
0
 10
410.6967224799063843
 20
43.2181922837341972
 30
0.0
 40
0.0070537233364144
 50
181.5947999946164089
 51
240.5652743930992017
  0
LINE
  5
853D
  8
0
 10
410.6832143901983727
 20
43.24771661796958
 30
0.0
 11
410.6703698150205923
 21
43.24771661796958
 31
0.0
  0
LINE
  5
853E
  8
0
 10
410.6905535182983726
 20
43.2432665349695924
 30
0.0
 11
410.6813444071984236
 21
43.2378573991695774
 31
0.0
  0
LINE
  5
853F
  8
0
 10
410.6813444071984236
 20
43.2378573991695774
 30
0.0
 11
410.6734151125983772
 21
43.2378573991695774
 31
0.0
  0
LINE
  5
8540
  8
0
 10
410.6734151125983772
 20
43.2378573991695774
 30
0.0
 11
410.6753310404984063
 21
43.2275575824695792
 31
0.0
  0
LINE
  5
8541
  8
0
 10
410.6753310404984063
 20
43.2275575824695792
 30
0.0
 11
410.6832143901983727
 21
43.2275544184695804
 31
0.0
  0
LINE
  5
8542
  8
0
 10
410.6734151125983772
 20
43.2378573991695774
 30
0.0
 11
410.6684344288224793
 21
43.2453873304066505
 31
0.0
  0
LINE
  5
8543
  8
0
 10
410.7343576226983828
 20
43.1973111191695835
 30
0.0
 11
410.7183350967983984
 21
43.1973122107695886
 31
0.0
  0
LINE
  5
8544
  8
0
 10
410.7138418464983829
 20
43.2039136538695914
 30
0.0
 11
410.7138418464983829
 21
43.2076130083695773
 31
0.0
  0
ARC
  5
8545
  8
0
 10
410.7197813980789078
 20
43.2031187112451107
 30
0.0
 40
0.0059925125576443
 50
172.3769016860744046
 51
256.0494822767773258
  0
LINE
  5
8546
  8
0
 10
410.8556330992984726
 20
43.1670691585695891
 30
0.0
 11
410.8877885736984013
 21
43.1670689114695776
 31
0.0
  0
LINE
  5
8547
  8
0
 10
410.8366440876984029
 20
43.177148919669591
 30
0.0
 11
410.8044898667984057
 21
43.1771502583695792
 31
0.0
  0
LINE
  5
8548
  8
0
 10
410.7533466342983957
 20
43.1872313580695817
 30
0.0
 11
410.7855008551983929
 21
43.1872300194695882
 31
0.0
  0
LINE
  5
8549
  8
0
 10
410.7497823722983981
 20
43.1849009142695905
 30
0.0
 11
410.7536029566329034
 21
43.1872311109695914
 31
0.0
  0
LINE
  5
854A
  8
0
 10
410.744186825198426
 20
43.1906697101695798
 30
0.0
 11
410.7441839567321722
 21
43.1913529179445703
 31
0.0
  0
ARC
  5
854B
  8
0
 10
410.750637389634619
 20
43.1904928908602272
 30
0.0
 40
0.006452987417704
 50
178.4298329283996054
 51
238.1681869482858076
  0
ARC
  5
854C
  8
0
 10
410.7486054360448975
 20
43.1872197445912818
 30
0.0
 40
0.0026004140065619
 50
238.1681869482897866
 51
296.9103451068485242
  0
ARC
  5
854D
  8
0
 10
410.7942893198970751
 20
43.1766490584555314
 30
0.0
 40
0.0051823741026098
 50
177.0854098663513128
 51
283.4671313726518065
  0
ARC
  5
854E
  8
0
 10
410.8449881695087242
 20
43.1665199918134803
 30
0.0
 40
0.0051992972063351
 50
179.6166150058132018
 51
291.7456925207919198
  0
ARC
  5
854F
  8
0
 10
410.9015024055524918
 20
43.1598595373393579
 30
0.0
 40
0.0053513961101779
 50
183.1594393113483932
 51
298.6580479478196253
  0
ARC
  5
8550
  8
0
 10
410.9489852015065026
 20
43.1578831564430274
 30
0.0
 40
0.0061060031121602
 50
234.7816546079355078
 51
345.9036769238089732
  0
LINE
  5
8551
  8
0
 10
410.945463906598377
 20
43.1528947943695798
 30
0.0
 11
410.9387054101619015
 21
43.1569878116695804
 31
0.0
  0
LINE
  5
8552
  8
0
 10
410.904068834098382
 20
43.1551637003695774
 30
0.0
 11
410.9070996796226041
 21
43.1569891524111569
 31
0.0
  0
LINE
  5
8553
  8
0
 10
410.8961591433983926
 20
43.1595645968695791
 30
0.0
 11
410.8961591433983926
 21
43.1619984734468574
 31
0.0
  0
LINE
  5
8554
  8
0
 10
410.8469144446984274
 20
43.1616906900695909
 30
0.0
 11
410.8558794759758825
 21
43.1670689114695776
 31
0.0
  0
LINE
  5
8555
  8
0
 10
410.8397937305464893
 20
43.1663452359401916
 30
0.0
 11
410.8397889886537087
 21
43.1702552278432066
 31
0.0
  0
LINE
  5
8556
  8
0
 10
410.8397889886537087
 20
43.1702552278432066
 30
0.0
 11
410.8044898667984057
 21
43.1771502583695792
 31
0.0
  0
LINE
  5
8557
  8
0
 10
410.8044898667984057
 20
43.1771502583695792
 30
0.0
 11
410.7954962300984789
 21
43.1716091805695825
 31
0.0
  0
LINE
  5
8558
  8
0
 10
410.7891136494984039
 20
43.1769125679695804
 30
0.0
 11
410.7891136495163096
 21
43.1806130139923496
 31
0.0
  0
LINE
  5
8559
  8
0
 10
410.7891136495163096
 20
43.1806130139923496
 30
0.0
 11
410.7928005219401939
 21
43.182803863878469
 31
0.0
  0
LINE
  5
855A
  8
0
 10
410.7891136494121156
 20
43.1806130140185331
 30
0.0
 11
410.7653066655677776
 21
43.1872311109695914
 31
0.0
  0
LINE
  5
855B
  8
0
 10
410.8397889886983876
 20
43.1702551910670422
 30
0.0
 11
410.8438943808304771
 21
43.1727527017848018
 31
0.0
  0
LINE
  5
855C
  8
0
 10
410.8612089356507227
 20
43.1670691157218513
 30
0.0
 11
410.8937618312274935
 21
43.1634470245883932
 31
0.0
  0
LINE
  5
855D
  8
0
 10
410.9549073384127951
 20
43.1600964684653903
 30
0.0
 11
410.9930952797603823
 21
43.1600964685226032
 31
0.0
  0
LINE
  5
855E
  8
0
 10
410.9549073384984013
 20
43.1563960224695933
 30
0.0
 11
410.9549073384927738
 21
43.1600964684653903
 31
0.0
  0
LINE
  5
855F
  8
0
 10
410.9579220170983831
 20
43.187232100569581
 30
0.0
 11
410.9900806011576151
 21
43.187232100569581
 31
0.0
  0
LINE
  5
8560
  8
0
 10
410.9579195642983791
 20
43.2073935575695813
 30
0.0
 11
410.9900830539548906
 21
43.2073935575695813
 31
0.0
  0
LINE
  5
8561
  8
0
 10
410.9579195642983791
 20
43.2275557570695881
 30
0.0
 11
410.9900830539548906
 21
43.2275557570695881
 31
0.0
  0
LINE
  5
8562
  8
0
 10
410.9579195642983791
 20
43.2477179565695877
 30
0.0
 11
410.9900830539548906
 21
43.2477179565695877
 31
0.0
  0
LINE
  5
8563
  8
0
 10
410.9579195642983791
 20
43.2678801560695874
 30
0.0
 11
410.9900830539548906
 21
43.2678801560695874
 31
0.0
  0
LINE
  5
8564
  8
0
 10
410.9579195642983791
 20
43.2880423555695799
 30
0.0
 11
410.9900830539548906
 21
43.2880423555695799
 31
0.0
  0
LINE
  5
8565
  8
0
 10
410.9579195642983791
 20
43.3082045550695867
 30
0.0
 11
410.9900830539548906
 21
43.3082045550695867
 31
0.0
  0
LINE
  5
8566
  8
0
 10
410.9882144411549234
 20
43.1773706986695913
 30
0.0
 11
410.9597881770985168
 21
43.1773706986695913
 31
0.0
  0
LINE
  5
8567
  8
0
 10
410.9597881770985168
 20
43.1773706986695913
 30
0.0
 11
410.9505980596500194
 21
43.1828052295691265
 31
0.0
  0
LINE
  5
8568
  8
0
 10
410.9579208177984242
 20
43.1670702500695782
 30
0.0
 11
410.9900818004549023
 21
43.1670702500695782
 31
0.0
  0
LINE
  5
8569
  8
0
 10
410.9882144411549234
 20
43.1975321556695917
 30
0.0
 11
410.9597881770985168
 21
43.1975321556695917
 31
0.0
  0
LINE
  5
856A
  8
0
 10
410.9597881770985168
 20
43.1975321556695917
 30
0.0
 11
410.9505968198228061
 21
43.2029674197348399
 31
0.0
  0
LINE
  5
856B
  8
0
 10
410.9882144411549234
 20
43.2378565546695768
 30
0.0
 11
410.9597881770985168
 21
43.2378565546695768
 31
0.0
  0
LINE
  5
856C
  8
0
 10
410.9597881770985168
 20
43.2378565546695768
 30
0.0
 11
410.9505968198228061
 21
43.2432918187348321
 31
0.0
  0
LINE
  5
856D
  8
0
 10
410.9882144411549234
 20
43.2580187541695906
 30
0.0
 11
410.9597881770985168
 21
43.2580187541695906
 31
0.0
  0
LINE
  5
856E
  8
0
 10
410.9597881770985168
 20
43.2580187541695906
 30
0.0
 11
410.9505968198228061
 21
43.2634540182348317
 31
0.0
  0
LINE
  5
856F
  8
0
 10
410.9882144411549234
 20
43.2781809536695903
 30
0.0
 11
410.9597881770985168
 21
43.2781809536695903
 31
0.0
  0
LINE
  5
8570
  8
0
 10
410.9597881770985168
 20
43.2781809536695903
 30
0.0
 11
410.9505968198228061
 21
43.2836162177348385
 31
0.0
  0
LINE
  5
8571
  8
0
 10
410.9882144411549234
 20
43.2983431531695899
 30
0.0
 11
410.9597881770985168
 21
43.2983431531695899
 31
0.0
  0
LINE
  5
8572
  8
0
 10
410.9597881770985168
 20
43.2983431531695899
 30
0.0
 11
410.9505968198228061
 21
43.3037784172348381
 31
0.0
  0
LINE
  5
8573
  8
0
 10
410.9882144411549234
 20
43.2176943551695913
 30
0.0
 11
410.9597881770985168
 21
43.2176943551695913
 31
0.0
  0
LINE
  5
8574
  8
0
 10
410.9597881770985168
 20
43.2176943551695913
 30
0.0
 11
410.9505968198228061
 21
43.2231296192348395
 31
0.0
  0
ARC
  5
8575
  8
0
 10
410.9729433008411092
 20
44.1517441369512227
 30
0.0
 40
1.0170618294600291
 50
264.0006547986520218
 51
270.0596024928199199
  0
ARC
  5
8576
  8
0
 10
410.9376278563555047
 20
43.8157031846133904
 30
0.0
 40
0.6791702754558995
 50
252.2044124082763972
 51
264.0006547986520218
  0
ARC
  5
8577
  8
0
 10
410.7770545548744963
 20
43.3154435501631809
 30
0.0
 40
0.1537718675702535
 50
226.4918151814898977
 51
252.2044124082763972
  0
ARC
  5
8578
  8
0
 10
410.6938386516770265
 20
43.2262478592437134
 30
0.0
 40
0.0318071359168249
 50
127.2152697967509027
 51
224.5946400200043058
  0
ARC
  5
8579
  8
0
 10
410.7921396728245895
 20
43.1090022912774131
 30
0.0
 40
0.1847785522164569
 50
106.1647217029782979
 51
129.501899222765104
  0
ARC
  5
857A
  8
0
 10
410.9526025388400967
 20
42.5494825890453612
 30
0.0
 40
0.7668524063236538
 50
95.4246084605086793
 51
106.041355140568399
  0
ARC
  5
857B
  8
0
 10
410.9695502318618878
 20
42.3710129019055586
 30
0.0
 40
0.9461249740147119
 50
89.7304490534484529
 51
95.4246084605086651
  0
ARC
  5
857C
  8
0
 10
410.9710484711008007
 20
44.1488708479884906
 30
0.0
 40
1.017645486463695
 50
263.0002230870935023
 51
270.1662517999847068
  0
ARC
  5
857D
  8
0
 10
410.929651418874414
 20
43.811708060652343
 30
0.0
 40
0.6779508278401999
 50
252.412954276058997
 51
263.0002230870935023
  0
ARC
  5
857E
  8
0
 10
410.7813726705811064
 20
43.3439072748823975
 30
0.0
 40
0.1872124429930455
 50
232.7497958054227922
 51
252.412954276058997
  0
ARC
  5
857F
  8
0
 10
410.6986422110018111
 20
43.2351120023438185
 30
0.0
 40
0.0505349383738691
 50
206.0103199160992062
 51
232.7497958054227922
  0
ARC
  5
8580
  8
0
 10
410.68015674352921
 20
43.226091915501641
 30
0.0
 40
0.0299661641195435
 50
142.788675646650006
 51
206.0103199160998031
  0
ARC
  5
8581
  8
0
 10
410.7887817841021842
 20
43.1102012440347622
 30
0.0
 40
0.1884493732098437
 50
100.4999167478846971
 51
134.6726800488968934
  0
ARC
  5
8582
  8
0
 10
410.9494644120588873
 20
42.5234072627385729
 30
0.0
 40
0.7963379567587135
 50
92.4564108615141862
 51
104.1760253146558028
  0
ARC
  5
8583
  8
0
 10
410.9738155820379006
 20
42.2286120111761889
 30
0.0
 40
1.091968619302647
 50
89.9902548679606724
 51
93.0700123640665993
  0
ARC
  5
8584
  8
0
 10
410.9737613591349827
 20
42.1620703573313094
 30
0.0
 40
1.1589059292624211
 50
89.98813698198677
 51
93.1049193094511054
  0
ARC
  5
8585
  8
0
 10
410.9660600636515255
 20
42.3040449667609835
 30
0.0
 40
1.0167225980494059
 50
93.1049193094511054
 51
99.9531629930937839
  0
ARC
  5
8586
  8
0
 10
410.8759927352065802
 20
42.8172952479757285
 30
0.0
 40
0.4956295403138105
 50
99.9531629930937839
 51
113.8048802184257937
  0
ARC
  5
8587
  8
0
 10
410.7187626325795122
 20
43.1737013907100575
 30
0.0
 40
0.1060828245647238
 50
113.8048802184257937
 51
138.789964544189786
  0
ARC
  5
8588
  8
0
 10
410.6656597986217889
 20
43.2202058394059208
 30
0.0
 40
0.0354954693030883
 50
138.7899645441891039
 51
221.5329701749651008
  0
ARC
  5
8589
  8
0
 10
410.8191736126958062
 20
43.4244626843763086
 30
0.0
 40
0.2903787212039506
 50
231.6712895304686128
 51
263.1036100249817196
  0
ARC
  5
858A
  8
0
 10
410.9563404739699877
 20
44.0537343319629215
 30
0.0
 40
0.9335377085902047
 50
259.380745443545095
 51
266.4044884624764791
  0
ARC
  5
858B
  8
0
 10
410.973785047049887
 20
44.2779111471221611
 30
0.0
 40
1.158372102627208
 50
266.2387110723145724
 51
270.010696825578691
  0
ARC
  5
858C
  8
0
 10
410.9737929351159096
 20
42.0853956080203488
 30
0.0
 40
1.2663023206168931
 50
89.9905718000837425
 51
93.5663801126903962
  0
ARC
  5
858D
  8
0
 10
410.9588077194434845
 20
42.3258300108334495
 30
0.0
 40
1.025401389226323
 50
93.5663801126903962
 51
102.971716781048201
  0
ARC
  5
858E
  8
0
 10
410.8033878026851085
 20
43.000547010754417
 30
0.0
 40
0.3330153838019745
 50
102.971716781048201
 51
123.7676243350068006
  0
ARC
  5
858F
  8
0
 10
410.641889970581019
 20
43.2420847254826981
 30
0.0
 40
0.0424607118200902
 50
123.7676243350069996
 51
229.0747056560894066
  0
ARC
  5
8590
  8
0
 10
410.9735272646046269
 20
42.1148685738927426
 30
0.0
 40
1.2277863456534011
 50
89.9778782756592221
 51
93.6310819064080988
  0
ARC
  5
8591
  8
0
 10
410.7558139504910741
 20
43.1026746205705393
 30
0.0
 40
0.211463622754177
 50
105.9607114217164963
 51
127.5093746327782043
  0
ARC
  5
8592
  8
0
 10
410.6561038263229761
 20
43.232575371004458
 30
0.0
 40
0.0477067486238866
 50
127.5093746327779058
 51
223.730330374760598
  0
ARC
  5
8593
  8
0
 10
410.8349642568164199
 20
43.4828387463312893
 30
0.0
 40
0.3545938744844825
 50
233.0134594765758891
 51
264.6641838515960217
  0
ARC
  5
8594
  8
0
 10
410.9613429628337826
 20
44.1370387626212306
 30
0.0
 40
1.019784729937629
 50
261.0100128009145806
 51
266.7932111582877042
  0
ARC
  5
8595
  8
0
 10
410.9763315737670268
 20
44.4045577620056804
 30
0.0
 40
1.2877232928384239
 50
266.7932031678005842
 51
269.8963174749166001
  0
ARC
  5
8596
  8
0
 10
410.9339525031277844
 20
42.528243770895628
 30
0.0
 40
0.8128437158233106
 50
92.6924581993037293
 51
106.8993351288198994
  0
ARC
  5
8597
  8
0
 10
410.8880939998612121
 20
44.1576310800544221
 30
0.0
 40
1.058687650737542
 50
251.2693444895882919
 51
262.4986257966448875
  0
ARC
  5
8598
  8
0
 10
410.6680715821477747
 20
43.5087462653389991
 30
0.0
 40
0.3735151417555058
 50
226.7485180879010898
 51
251.2693444895882067
  0
ARC
  5
8599
  8
0
 10
410.5335074100057113
 20
43.3621509501863187
 30
0.0
 40
0.1745553652833335
 50
145.8171358482121036
 51
225.9485336066638865
  0
ARC
  5
859A
  8
0
 10
410.6117965212797003
 20
43.3043926845587279
 30
0.0
 40
0.2717970915097051
 50
105.3265049560369988
 51
145.0171513669731098
  0
ARC
  5
859B
  8
0
 10
410.9002333098238751
 20
42.4720345408288367
 30
0.0
 40
1.1522612747789851
 50
93.6867998139247362
 51
108.220234659504996
  0
ARC
  5
859C
  8
0
 10
411.5362070114534276
 20
43.54756213226851
 30
0.0
 40
0.309651395135739
 50
6.3521759298157647
 51
25.6111324923202801
  0
ARC
  5
859D
  8
0
 10
416.7284747020580085
 20
46.4085448473723829
 30
0.0
 40
5.6191826505670059
 50
202.1091351749059868
 51
209.0337990198339924
  0
ARC
  5
859E
  8
0
 10
420.0909007793723049
 20
45.2541571193884025
 30
0.0
 40
8.6220910738409842
 50
185.2456626910625062
 51
186.396120968161398
  0
ARC
  5
859F
  8
0
 10
419.7129057006649191
 20
45.4379393585775375
 30
0.0
 40
8.2653457055150241
 50
184.832582212459414
 51
186.7540510850527085
  0
ARC
  5
85A0
  8
0
 10
416.4405830521101848
 20
44.9588605135607224
 30
0.0
 40
4.968391917020087
 50
180.7315366566155035
 51
182.5059201905773989
  0
LINE
  5
85A1
  8
0
 10
411.4726360028398062
 20
44.9752950112718182
 30
0.0
 11
411.4726360028398062
 21
43.5394682888618192
 31
0.0
  0
LINE
  5
85A2
  8
0
 10
411.8439912406897179
 20
43.5818152810929433
 30
0.0
 11
411.9857368811627794
 21
41.8927698939929485
 31
0.0
  0
ARC
  5
85A3
  8
0
 10
411.4700197657836043
 20
44.4872691755064835
 30
0.0
 40
0.149605544948652
 50
288.2445161967789886
 51
66.7517536902316948
  0
LINE
  5
85A4
  8
0
 10
411.4838673566817988
 20
44.6640740182688631
 30
0.0
 11
411.5290706593896743
 21
44.6640973284277791
 31
0.0
  0
LINE
  5
85A5
  8
0
 10
411.5290706593896743
 20
44.6640973284277791
 30
0.0
 11
411.5290714282897966
 21
44.6247272426929484
 31
0.0
  0
ARC
  5
85A6
  8
0
 10
411.5291363511478266
 20
44.6889059563272113
 30
0.0
 40
0.0196998303373917
 50
268.3654611177169045
 51
6.6192945783921111
  0
ARC
  5
85A7
  8
0
 10
411.3346540266218767
 20
44.6663372115756303
 30
0.0
 40
0.2154872732255056
 50
6.6192945783921111
 51
20.4585840550724285
  0
ARC
  5
85A8
  8
0
 10
411.3639351615098008
 20
44.6772608613623987
 30
0.0
 40
0.1842348975559284
 50
20.4585840550722402
 51
46.6993928319096909
  0
ARC
  5
85A9
  8
0
 10
411.2895513027141874
 20
44.5983283036914315
 30
0.0
 40
0.2926936782507503
 50
46.6993928319096909
 51
50.9423037503717566
  0
LINE
  5
85AA
  8
0
 10
411.5285744289359968
 20
44.6692141418156865
 30
0.0
 11
411.4833855948027121
 21
44.6692141418156865
 31
0.0
  0
LINE
  5
85AB
  8
0
 10
411.5290714282897966
 20
44.6247272426929484
 30
0.0
 11
411.4876625014487104
 21
44.6247272426929484
 31
0.0
  0
LINE
  5
85AC
  8
0
 10
411.0602140445549253
 20
43.1670689114695776
 30
0.0
 11
411.0455357883549254
 21
43.1581687454695881
 31
0.0
  0
LINE
  5
85AD
  8
0
 10
411.0412250329550261
 20
43.1569891503695899
 30
0.0
 11
411.0090718625548902
 21
43.156989354169589
 31
0.0
  0
LINE
  5
85AE
  8
0
 10
411.0051895090593916
 20
43.1579385917311527
 30
0.0
 11
410.9900818004549023
 21
43.1670702500695782
 31
0.0
  0
LINE
  5
85AF
  8
0
 10
411.0393549554548827
 20
43.1672897008695813
 30
0.0
 11
411.0109420484548082
 21
43.1672897008695813
 31
0.0
  0
LINE
  5
85B0
  8
0
 10
411.0109420484548082
 20
43.1672897008695813
 30
0.0
 11
411.001761434525406
 21
43.1727186119097794
 31
0.0
  0
LINE
  5
85B1
  8
0
 10
411.0393549554548827
 20
43.1672897008695813
 30
0.0
 11
411.0485348731323256
 21
43.1727182001248124
 31
0.0
  0
ARC
  5
85B2
  8
0
 10
411.0652228173254912
 20
43.1938467753415267
 30
0.0
 40
0.027242279607474
 50
249.9969504735651924
 51
259.4053093299633019
  0
LINE
  5
85B3
  8
0
 10
411.0559045192052849
 20
43.1682498652592486
 30
0.0
 11
411.0412238336548967
 21
43.1771510008695785
 31
0.0
  0
LINE
  5
85B4
  8
0
 10
411.0090706632548745
 20
43.1771512046695776
 30
0.0
 11
410.9943925558549722
 21
43.1682498451695906
 31
0.0
  0
ARC
  5
85B5
  8
0
 10
410.9894661841256038
 20
43.1778038858469415
 30
0.0
 40
0.0107512752948552
 50
273.2825427158380762
 51
297.2742498770613793
  0
ARC
  5
85B6
  8
0
 10
411.0369511343366185
 20
43.181074330027613
 30
0.0
 40
0.0244614408520638
 50
280.0623539608035912
 51
290.5452106193221198
  0
ARC
  5
85B7
  8
0
 10
411.0197268016984253
 20
43.2089817136512266
 30
0.0
 40
0.0530729043168032
 50
254.1028273233189054
 51
258.4185695201401813
  0
LINE
  5
85B8
  8
0
 10
411.0602128452550232
 20
43.1872307619695874
 30
0.0
 11
411.0455345890549097
 21
43.1783305959695767
 31
0.0
  0
LINE
  5
85B9
  8
0
 10
411.0412238336548967
 20
43.1771510008695785
 30
0.0
 11
411.0090706632548745
 21
43.1771512046695776
 31
0.0
  0
LINE
  5
85BA
  8
0
 10
411.0051883097593759
 20
43.1781004422311483
 30
0.0
 11
410.9900806011548866
 21
43.187232100569581
 31
0.0
  0
LINE
  5
85BB
  8
0
 10
411.0393537561549238
 20
43.1874515513695911
 30
0.0
 11
411.0109408491549061
 21
43.1874515513695911
 31
0.0
  0
LINE
  5
85BC
  8
0
 10
411.0109408491549061
 20
43.1874515513695911
 30
0.0
 11
411.0017600766569785
 21
43.1928805561784515
 31
0.0
  0
LINE
  5
85BD
  8
0
 10
411.0393537561549238
 20
43.1874515513695911
 30
0.0
 11
411.0485341249087128
 21
43.1928803173665585
 31
0.0
  0
ARC
  5
85BE
  8
0
 10
411.0652216180254754
 20
43.2140086258415295
 30
0.0
 40
0.027242279607474
 50
249.9969504735651924
 51
259.4053093299633019
  0
LINE
  5
85BF
  8
0
 10
411.0559033199052124
 20
43.1884117157592513
 30
0.0
 11
411.0412238336548967
 21
43.1973132003695781
 31
0.0
  0
LINE
  5
85C0
  8
0
 10
411.0412238336548967
 20
43.1973132003695781
 30
0.0
 11
411.0090682646548998
 21
43.1973127061695834
 31
0.0
  0
LINE
  5
85C1
  8
0
 10
411.0090682646548998
 20
43.1973127061695834
 30
0.0
 11
410.9943913565548996
 21
43.1884116956695792
 31
0.0
  0
ARC
  5
85C2
  8
0
 10
410.9894649848255881
 20
43.19796573634693
 30
0.0
 40
0.0107512752948552
 50
273.282542729904776
 51
297.2742498770613793
  0
ARC
  5
85C3
  8
0
 10
411.0369499350366027
 20
43.2012361805276086
 30
0.0
 40
0.0244614408520638
 50
280.0623539608035912
 51
290.5452106193221198
  0
ARC
  5
85C4
  8
0
 10
411.0197256023984096
 20
43.2291435641512365
 30
0.0
 40
0.0530729043168032
 50
254.1028273233189054
 51
258.4185695201401813
  0
LINE
  5
85C5
  8
0
 10
411.0602152980550272
 20
43.2073922189695878
 30
0.0
 11
411.0455370418550274
 21
43.1984920529695771
 31
0.0
  0
LINE
  5
85C6
  8
0
 10
411.0051907625593799
 20
43.1982618992311487
 30
0.0
 11
410.9900830539548906
 21
43.2073935575695813
 31
0.0
  0
LINE
  5
85C7
  8
0
 10
411.0393562089549278
 20
43.2076130083695773
 30
0.0
 11
411.0109433019549101
 21
43.2076130083695773
 31
0.0
  0
LINE
  5
85C8
  8
0
 10
411.0109433019549101
 20
43.2076130083695773
 30
0.0
 11
411.0017625294569825
 21
43.2130420131784518
 31
0.0
  0
LINE
  5
85C9
  8
0
 10
411.0393562089549278
 20
43.2076130083695773
 30
0.0
 11
411.0485365777087168
 21
43.2130417743665589
 31
0.0
  0
ARC
  5
85CA
  8
0
 10
411.0652240708254794
 20
43.2341700828415298
 30
0.0
 40
0.027242279607474
 50
249.9969504735651924
 51
259.4053093299633019
  0
LINE
  5
85CB
  8
0
 10
411.0559057727052164
 20
43.2085731727592517
 30
0.0
 11
411.0412262864549007
 21
43.2174746573695927
 31
0.0
  0
LINE
  5
85CC
  8
0
 10
411.0412262864549007
 20
43.2174746573695927
 30
0.0
 11
411.0090707174549038
 21
43.2174741631695767
 31
0.0
  0
LINE
  5
85CD
  8
0
 10
411.0090707174549038
 20
43.2174741631695767
 30
0.0
 11
410.9943938093549036
 21
43.2085731526695795
 31
0.0
  0
ARC
  5
85CE
  8
0
 10
410.9894674376254784
 20
43.2181271933469375
 30
0.0
 40
0.0107512752948552
 50
273.2825427158380762
 51
297.2742498770613793
  0
ARC
  5
85CF
  8
0
 10
411.0369948004993716
 20
43.2212665170938521
 30
0.0
 40
0.0243237765062039
 50
280.012566464754002
 51
290.5600534155569221
  0
ARC
  5
85D0
  8
0
 10
411.0198986136587109
 20
43.2499497280405976
 30
0.0
 40
0.0537396737149814
 50
254.1162156568717023
 51
258.373346856163721
  0
LINE
  5
85D1
  8
0
 10
411.0602152980550272
 20
43.2275544184695804
 30
0.0
 11
411.0455370418550274
 21
43.2186542524695909
 31
0.0
  0
LINE
  5
85D2
  8
0
 10
411.0051907625593799
 20
43.2184240987311625
 30
0.0
 11
410.9900830539548906
 21
43.2275557570695881
 31
0.0
  0
LINE
  5
85D3
  8
0
 10
411.0393562089549278
 20
43.2277752078695769
 30
0.0
 11
411.0109433019549101
 21
43.2277752078695769
 31
0.0
  0
LINE
  5
85D4
  8
0
 10
411.0109433019549101
 20
43.2277752078695769
 30
0.0
 11
411.0017625294569825
 21
43.2332042126784373
 31
0.0
  0
LINE
  5
85D5
  8
0
 10
411.0393562089549278
 20
43.2277752078695769
 30
0.0
 11
411.0485365777087168
 21
43.2332039738665586
 31
0.0
  0
ARC
  5
85D6
  8
0
 10
411.0652240708254794
 20
43.2543322823415295
 30
0.0
 40
0.027242279607474
 50
249.9969504735651924
 51
259.4053093299633019
  0
LINE
  5
85D7
  8
0
 10
411.0559057727052164
 20
43.2287353722592584
 30
0.0
 11
411.0412262864549007
 21
43.2376368568695781
 31
0.0
  0
LINE
  5
85D8
  8
0
 10
411.0412262864549007
 20
43.2376368568695781
 30
0.0
 11
411.0090707174549038
 21
43.2376363626695905
 31
0.0
  0
LINE
  5
85D9
  8
0
 10
411.0090707174549038
 20
43.2376363626695905
 30
0.0
 11
410.9943938093549036
 21
43.2287353521695934
 31
0.0
  0
ARC
  5
85DA
  8
0
 10
410.9894674376254784
 20
43.2382893928469372
 30
0.0
 40
0.0107512752948552
 50
273.2825427158380762
 51
297.2742498770613793
  0
ARC
  5
85DB
  8
0
 10
411.0369523878366067
 20
43.2415598370276228
 30
0.0
 40
0.0244614408520638
 50
280.0623539608035912
 51
290.5452106193221198
  0
ARC
  5
85DC
  8
0
 10
411.0199419078226128
 20
43.2702755784420603
 30
0.0
 40
0.0539089253722099
 50
254.1195614169222949
 51
258.3660425099524787
  0
LINE
  5
85DD
  8
0
 10
411.0602152980550272
 20
43.24771661796958
 30
0.0
 11
411.0455370418550274
 21
43.2388164519695906
 31
0.0
  0
LINE
  5
85DE
  8
0
 10
411.0051907625593799
 20
43.238586298231148
 30
0.0
 11
410.9900830539548906
 21
43.2477179565695877
 31
0.0
  0
LINE
  5
85DF
  8
0
 10
411.0393562089549278
 20
43.2479374073695908
 30
0.0
 11
411.0109433019549101
 21
43.2479374073695908
 31
0.0
  0
LINE
  5
85E0
  8
0
 10
411.0109433019549101
 20
43.2479374073695908
 30
0.0
 11
411.0017625294569825
 21
43.2533664121784511
 31
0.0
  0
LINE
  5
85E1
  8
0
 10
411.0393562089549278
 20
43.2479374073695908
 30
0.0
 11
411.0485365777087168
 21
43.2533661733665582
 31
0.0
  0
ARC
  5
85E2
  8
0
 10
411.0652240708254794
 20
43.2744944818415291
 30
0.0
 40
0.027242279607474
 50
249.9969504735651924
 51
259.4053093299633019
  0
LINE
  5
85E3
  8
0
 10
411.0559057727052164
 20
43.2488975717592581
 30
0.0
 11
411.0412262864549007
 21
43.257799056369592
 31
0.0
  0
LINE
  5
85E4
  8
0
 10
411.0412262864549007
 20
43.257799056369592
 30
0.0
 11
411.0090707174549038
 21
43.2577985621695902
 31
0.0
  0
LINE
  5
85E5
  8
0
 10
411.0090707174549038
 20
43.2577985621695902
 30
0.0
 11
410.9943938093549036
 21
43.2488975516695788
 31
0.0
  0
ARC
  5
85E6
  8
0
 10
410.9894674376254784
 20
43.2584515923469368
 30
0.0
 40
0.0107512752948552
 50
273.2825427158380762
 51
297.2742498770613793
  0
ARC
  5
85E7
  8
0
 10
411.0369523878366067
 20
43.2617220365276083
 30
0.0
 40
0.0244614408520638
 50
280.0623539608035912
 51
290.5452106193221198
  0
ARC
  5
85E8
  8
0
 10
411.0199419078227265
 20
43.2904377779426497
 30
0.0
 40
0.0539089253728258
 50
254.1195614169390069
 51
258.3660425099192253
  0
LINE
  5
85E9
  8
0
 10
411.0602152980550272
 20
43.2678788174695867
 30
0.0
 11
411.0455370418550274
 21
43.2589786514695831
 31
0.0
  0
LINE
  5
85EA
  8
0
 10
411.0051907625593799
 20
43.2587484977311618
 30
0.0
 11
410.9900830539548906
 21
43.2678801560695874
 31
0.0
  0
LINE
  5
85EB
  8
0
 10
411.0393562089549278
 20
43.2680996068695904
 30
0.0
 11
411.0109433019549101
 21
43.2680996068695904
 31
0.0
  0
LINE
  5
85EC
  8
0
 10
411.0109433019549101
 20
43.2680996068695904
 30
0.0
 11
411.0017625294569825
 21
43.2735286116784366
 31
0.0
  0
LINE
  5
85ED
  8
0
 10
411.0393562089549278
 20
43.2680996068695904
 30
0.0
 11
411.0485365777087168
 21
43.2735283728665578
 31
0.0
  0
ARC
  5
85EE
  8
0
 10
411.0652240708254794
 20
43.294656681341543
 30
0.0
 40
0.027242279607474
 50
249.9969504735651924
 51
259.4053093299633019
  0
LINE
  5
85EF
  8
0
 10
411.0559057727052164
 20
43.2690597712592506
 30
0.0
 11
411.0412262864549007
 21
43.2779612558695774
 31
0.0
  0
LINE
  5
85F0
  8
0
 10
411.0412262864549007
 20
43.2779612558695774
 30
0.0
 11
411.0090707174549038
 21
43.2779607616695898
 31
0.0
  0
LINE
  5
85F1
  8
0
 10
411.0090707174549038
 20
43.2779607616695898
 30
0.0
 11
410.9943938093549036
 21
43.2690597511695927
 31
0.0
  0
ARC
  5
85F2
  8
0
 10
410.9894674376254784
 20
43.2786137918469294
 30
0.0
 40
0.0107512752948552
 50
273.2825427158380762
 51
297.2742498770613793
  0
ARC
  5
85F3
  8
0
 10
411.0369523878366067
 20
43.2818842360276079
 30
0.0
 40
0.0244614408520638
 50
280.0623539608035912
 51
290.5452106193221198
  0
ARC
  5
85F4
  8
0
 10
411.0199419078227265
 20
43.310599977442692
 30
0.0
 40
0.0539089253728612
 50
254.11956141693571
 51
258.3660425099158147
  0
LINE
  5
85F5
  8
0
 10
411.0602152980550272
 20
43.2880410169695935
 30
0.0
 11
411.0455370418550274
 21
43.2791408509695898
 31
0.0
  0
LINE
  5
85F6
  8
0
 10
411.0051907625593799
 20
43.2789106972311473
 30
0.0
 11
410.9900830539548906
 21
43.2880423555695799
 31
0.0
  0
LINE
  5
85F7
  8
0
 10
411.0393562089549278
 20
43.2882618063695901
 30
0.0
 11
411.0109433019549101
 21
43.2882618063695901
 31
0.0
  0
LINE
  5
85F8
  8
0
 10
411.0109433019549101
 20
43.2882618063695901
 30
0.0
 11
411.0017625294569825
 21
43.2936908111784504
 31
0.0
  0
LINE
  5
85F9
  8
0
 10
411.0393562089549278
 20
43.2882618063695901
 30
0.0
 11
411.0485365777087168
 21
43.2936905723665575
 31
0.0
  0
ARC
  5
85FA
  8
0
 10
411.0652240708254794
 20
43.3148188808415284
 30
0.0
 40
0.027242279607474
 50
249.9969504735651924
 51
259.4053093299633019
  0
LINE
  5
85FB
  8
0
 10
411.0559057727052164
 20
43.2892219707592503
 30
0.0
 11
411.0412262864549007
 21
43.2981234553695913
 31
0.0
  0
LINE
  5
85FC
  8
0
 10
411.0412262864549007
 20
43.2981234553695913
 30
0.0
 11
411.0090707174549038
 21
43.2981229611695824
 31
0.0
  0
LINE
  5
85FD
  8
0
 10
411.0090707174549038
 20
43.2981229611695824
 30
0.0
 11
410.9943938093549036
 21
43.2892219506695781
 31
0.0
  0
ARC
  5
85FE
  8
0
 10
410.9894674376254784
 20
43.2987759913469432
 30
0.0
 40
0.0107512752948552
 50
273.2825427158380762
 51
297.2742498770613793
  0
ARC
  5
85FF
  8
0
 10
411.0369523878366067
 20
43.3020464355276076
 30
0.0
 40
0.0244614408520638
 50
280.0623539608035912
 51
290.5452106193221198
  0
ARC
  5
8600
  8
0
 10
411.0199419078226128
 20
43.3307621769420521
 30
0.0
 40
0.0539089253722029
 50
254.119561416922096
 51
258.3660425099524787
  0
LINE
  5
8601
  8
0
 10
411.0602152980550272
 20
43.3082032164695931
 30
0.0
 11
411.0455370418550274
 21
43.2993030504695895
 31
0.0
  0
LINE
  5
8602
  8
0
 10
411.0051907625593799
 20
43.2990728967311611
 30
0.0
 11
410.9900830539548906
 21
43.3082045550695867
 31
0.0
  0
LINE
  5
8603
  8
0
 10
411.0393562089549278
 20
43.3084240058695826
 30
0.0
 11
411.0109433019549101
 21
43.3084240058695826
 31
0.0
  0
LINE
  5
8604
  8
0
 10
411.0109433019549101
 20
43.3084240058695826
 30
0.0
 11
411.0017625294569825
 21
43.3138530106784501
 31
0.0
  0
LINE
  5
8605
  8
0
 10
411.0393562089549278
 20
43.3084240058695826
 30
0.0
 11
411.0485365777087168
 21
43.3138527718665571
 31
0.0
  0
ARC
  5
8606
  8
0
 10
411.0652240708254794
 20
43.3349810803415281
 30
0.0
 40
0.027242279607474
 50
249.9969504735651924
 51
259.4053093299633019
  0
LINE
  5
8607
  8
0
 10
411.0559057727052164
 20
43.3093841702592499
 30
0.0
 11
411.0472494233824818
 21
43.3146332885841971
 31
0.0
  0
LINE
  5
8608
  8
0
 10
411.0064936152583073
 20
43.3167222419979367
 30
0.0
 11
410.9943938093549036
 21
43.309384150169592
 31
0.0
  0
ARC
  5
8609
  8
0
 10
410.9894674376254784
 20
43.3189381908469286
 30
0.0
 40
0.0107512752948552
 50
273.2825427158380762
 51
297.2742498770613793
  0
ARC
  5
860A
  8
0
 10
411.0369523878366067
 20
43.3222086350276072
 30
0.0
 40
0.0244614408520638
 50
280.0623539608035912
 51
290.5452106193221198
  0
ARC
  5
860B
  8
0
 10
411.0199419078226128
 20
43.3509243764420802
 30
0.0
 40
0.0539089253722327
 50
254.1195614169255066
 51
258.3660425099524787
  0
LINE
  5
860C
  8
0
 10
411.0969955652695944
 20
43.3095753270306716
 30
0.0
 11
411.0966802743549238
 21
43.3093841502695867
 31
0.0
  0
ARC
  5
860D
  8
0
 10
411.0880956203366168
 20
43.3322897348276115
 30
0.0
 40
0.0244614408520638
 50
280.0623539608035912
 51
290.5452106193221198
  0
LINE
  5
860E
  8
0
 10
411.1113585305549236
 20
43.2981221167695907
 30
0.0
 11
411.0966802743549238
 21
43.2892219507695799
 31
0.0
  0
LINE
  5
860F
  8
0
 10
411.090499441454881
 20
43.2983429061695801
 30
0.0
 11
411.0620865344548065
 21
43.2983429061695801
 31
0.0
  0
LINE
  5
8610
  8
0
 10
411.090499441454881
 20
43.2983429061695801
 30
0.0
 11
411.0996798102087268
 21
43.3037716721665475
 31
0.0
  0
ARC
  5
8611
  8
0
 10
411.1163673033254895
 20
43.3248999806415327
 30
0.0
 40
0.027242279607474
 50
249.9969504735651924
 51
259.4053093299633019
  0
LINE
  5
8612
  8
0
 10
411.1070490052052264
 20
43.2993030705592616
 30
0.0
 11
411.0923695189550244
 21
43.3082045551695884
 31
0.0
  0
LINE
  5
8613
  8
0
 10
411.0923695189550244
 20
43.3082045551695884
 30
0.0
 11
411.0602152980550272
 21
43.3082032164695931
 31
0.0
  0
ARC
  5
8614
  8
0
 10
411.0880956203366168
 20
43.3121275353276189
 30
0.0
 40
0.0244614408520638
 50
280.0623539608035912
 51
290.5452106193221198
  0
LINE
  5
8615
  8
0
 10
411.1113585305549236
 20
43.2779599172695768
 30
0.0
 11
411.0966802743549238
 21
43.2690597512695803
 31
0.0
  0
LINE
  5
8616
  8
0
 10
411.090499441454881
 20
43.2781807066695876
 30
0.0
 11
411.0620865344548065
 21
43.2781807066695876
 31
0.0
  0
LINE
  5
8617
  8
0
 10
411.090499441454881
 20
43.2781807066695876
 30
0.0
 11
411.0996798102087268
 21
43.2836094726665621
 31
0.0
  0
ARC
  5
8618
  8
0
 10
411.1163673033254895
 20
43.304737781141533
 30
0.0
 40
0.027242279607474
 50
249.9969504735651924
 51
259.4053093299633019
  0
LINE
  5
8619
  8
0
 10
411.1070490052052264
 20
43.2791408710592478
 30
0.0
 11
411.0923695189550244
 21
43.2880423556695817
 31
0.0
  0
LINE
  5
861A
  8
0
 10
411.0923695189550244
 20
43.2880423556695817
 30
0.0
 11
411.0602152980550272
 21
43.2880410169695935
 31
0.0
  0
ARC
  5
861B
  8
0
 10
411.0880956203366168
 20
43.2919653358276122
 30
0.0
 40
0.0244614408520638
 50
280.0623539608035912
 51
290.5452106193221198
  0
LINE
  5
861C
  8
0
 10
411.1113585305549236
 20
43.2577977176695896
 30
0.0
 11
411.0966802743549238
 21
43.2488975516695788
 31
0.0
  0
LINE
  5
861D
  8
0
 10
411.090499441454881
 20
43.2580185070695791
 30
0.0
 11
411.0620865344548065
 21
43.2580185070695791
 31
0.0
  0
LINE
  5
861E
  8
0
 10
411.090499441454881
 20
43.2580185070695791
 30
0.0
 11
411.0996798102087268
 21
43.2634472730665607
 31
0.0
  0
ARC
  5
861F
  8
0
 10
411.1163673033254895
 20
43.2845755815415316
 30
0.0
 40
0.027242279607474
 50
249.9969504735651924
 51
259.4053093299633019
  0
LINE
  5
8620
  8
0
 10
411.1070490052052264
 20
43.2589786714592606
 30
0.0
 11
411.0923695189550244
 21
43.2678801560695803
 31
0.0
  0
LINE
  5
8621
  8
0
 10
411.0923695189550244
 20
43.2678801560695803
 30
0.0
 11
411.0602152980550272
 21
43.2678788174695867
 31
0.0
  0
ARC
  5
8622
  8
0
 10
411.0880956203366168
 20
43.2718031362276108
 30
0.0
 40
0.0244614408520638
 50
280.0623539608035912
 51
290.5452106193221198
  0
LINE
  5
8623
  8
0
 10
411.1113585305549236
 20
43.2376355181695828
 30
0.0
 11
411.0966802743549238
 21
43.2287353521695934
 31
0.0
  0
LINE
  5
8624
  8
0
 10
411.090499441454881
 20
43.2378563075695794
 30
0.0
 11
411.0620865344548065
 21
43.2378563075695794
 31
0.0
  0
LINE
  5
8625
  8
0
 10
411.090499441454881
 20
43.2378563075695794
 30
0.0
 11
411.0996798102087268
 21
43.243285073566561
 31
0.0
  0
ARC
  5
8626
  8
0
 10
411.1163673033254895
 20
43.2644133820415391
 30
0.0
 40
0.027242279607474
 50
249.9969504735651924
 51
259.4053093299633019
  0
LINE
  5
8627
  8
0
 10
411.1070490052052264
 20
43.2388164719592467
 30
0.0
 11
411.0923695189550244
 21
43.2477179565695877
 31
0.0
  0
LINE
  5
8628
  8
0
 10
411.0923695189550244
 20
43.2477179565695877
 30
0.0
 11
411.0602152980550272
 21
43.24771661796958
 31
0.0
  0
ARC
  5
8629
  8
0
 10
411.0880956203366168
 20
43.2516409367276111
 30
0.0
 40
0.0244614408520638
 50
280.0623539608035912
 51
290.5452106193221198
  0
LINE
  5
862A
  8
0
 10
411.1113585305549236
 20
43.2174733186695903
 30
0.0
 11
411.0966802743549238
 21
43.2085731526695795
 31
0.0
  0
LINE
  5
862B
  8
0
 10
411.090499441454881
 20
43.2176941080695798
 30
0.0
 11
411.0620865344548065
 21
43.2176941080695798
 31
0.0
  0
LINE
  5
862C
  8
0
 10
411.090499441454881
 20
43.2176941080695798
 30
0.0
 11
411.0996798102087268
 21
43.2231228740665472
 31
0.0
  0
ARC
  5
862D
  8
0
 10
411.1163673033254895
 20
43.2442511825415323
 30
0.0
 40
0.027242279607474
 50
249.9969504735651924
 51
259.4053093299633019
  0
LINE
  5
862E
  8
0
 10
411.1070490052052264
 20
43.2186542724592613
 30
0.0
 11
411.0923695189550244
 21
43.2275557570695881
 31
0.0
  0
LINE
  5
862F
  8
0
 10
411.0923695189550244
 20
43.2275557570695881
 30
0.0
 11
411.0602152980550272
 21
43.2275544184695804
 31
0.0
  0
ARC
  5
8630
  8
0
 10
411.0880956203366168
 20
43.2314787372276186
 30
0.0
 40
0.0244614408520638
 50
280.0623539608035912
 51
290.5452106193221198
  0
LINE
  5
8631
  8
0
 10
411.1113585305549236
 20
43.1973111191695835
 30
0.0
 11
411.0966802743549238
 21
43.1884109531695799
 31
0.0
  0
LINE
  5
8632
  8
0
 10
411.090499441454881
 20
43.1975319085695872
 30
0.0
 11
411.0620865344548065
 21
43.1975319085695872
 31
0.0
  0
LINE
  5
8633
  8
0
 10
411.090499441454881
 20
43.1975319085695872
 30
0.0
 11
411.0996798102087268
 21
43.2029606745665617
 31
0.0
  0
ARC
  5
8634
  8
0
 10
411.1163673033254895
 20
43.2240889830415327
 30
0.0
 40
0.027242279607474
 50
249.9969504735651924
 51
259.4053093299633019
  0
LINE
  5
8635
  8
0
 10
411.1070490052052264
 20
43.1984920729592474
 30
0.0
 11
411.0923695189550244
 21
43.2073935575695813
 31
0.0
  0
LINE
  5
8636
  8
0
 10
411.0923695189550244
 20
43.2073935575695813
 30
0.0
 11
411.0602152980550272
 21
43.2073922189695878
 31
0.0
  0
ARC
  5
8637
  8
0
 10
411.0880956203366168
 20
43.2113165377276118
 30
0.0
 40
0.0244614408520638
 50
280.0623539608035912
 51
290.5452106193221198
  0
LINE
  5
8638
  8
0
 10
411.1113585305549236
 20
43.177148919669591
 30
0.0
 11
411.0966802743549238
 21
43.1682487536695803
 31
0.0
  0
LINE
  5
8639
  8
0
 10
411.090499441454881
 20
43.1773697090695876
 30
0.0
 11
411.0620865344548065
 21
43.1773697090695876
 31
0.0
  0
LINE
  5
863A
  8
0
 10
411.090499441454881
 20
43.1773697090695876
 30
0.0
 11
411.0996798102087268
 21
43.1827984750665621
 31
0.0
  0
ARC
  5
863B
  8
0
 10
411.1163673033254895
 20
43.203926783541533
 30
0.0
 40
0.027242279607474
 50
249.9969504735651924
 51
259.4053093299633019
  0
LINE
  5
863C
  8
0
 10
411.1070490052052264
 20
43.178329873459262
 30
0.0
 11
411.0923695189550244
 21
43.1872313580695817
 31
0.0
  0
LINE
  5
863D
  8
0
 10
411.0923695189550244
 20
43.1872313580695817
 30
0.0
 11
411.0602128452550232
 21
43.1872307619695874
 31
0.0
  0
ARC
  5
863E
  8
0
 10
411.0880956203366168
 20
43.1911543382276122
 30
0.0
 40
0.0244614408520638
 50
280.0623539608035912
 51
290.5452106193221198
  0
LINE
  5
863F
  8
0
 10
411.0620865344548065
 20
43.2983429061695801
 30
0.0
 11
411.0529057619569926
 21
43.3037719109784405
 31
0.0
  0
LINE
  5
8640
  8
0
 10
411.0620865344548065
 20
43.2781807066695876
 30
0.0
 11
411.0529057619569926
 21
43.2836097114784408
 31
0.0
  0
LINE
  5
8641
  8
0
 10
411.0620865344548065
 20
43.2580185070695791
 30
0.0
 11
411.0529057619569926
 21
43.2634475118784465
 31
0.0
  0
LINE
  5
8642
  8
0
 10
411.0620865344837966
 20
43.2378563075695794
 30
0.0
 11
411.0529057619859259
 21
43.2432853123784469
 31
0.0
  0
LINE
  5
8643
  8
0
 10
411.0620865344548065
 20
43.2176941080695798
 30
0.0
 11
411.0529057619569926
 21
43.2231231128784401
 31
0.0
  0
LINE
  5
8644
  8
0
 10
411.0620865344548065
 20
43.1975319085695872
 30
0.0
 11
411.0529057619569926
 21
43.2029609133784405
 31
0.0
  0
LINE
  5
8645
  8
0
 10
411.0620865344548065
 20
43.1773697090695876
 30
0.0
 11
411.0529057619569926
 21
43.1827987138784408
 31
0.0
  0
LINE
  5
8646
  8
0
 10
411.1625017630548768
 20
43.1872300194695882
 30
0.0
 11
411.147823506854877
 21
43.1783298534695916
 31
0.0
  0
LINE
  5
8647
  8
0
 10
411.1416426739548911
 20
43.1874508088695777
 30
0.0
 11
411.1132297669548734
 21
43.1874508088695777
 31
0.0
  0
LINE
  5
8648
  8
0
 10
411.1416426739548911
 20
43.1874508088695777
 30
0.0
 11
411.1508230427086232
 21
43.1928795748665735
 31
0.0
  0
ARC
  5
8649
  8
0
 10
411.1675105358254996
 20
43.2140078833415373
 30
0.0
 40
0.027242279607474
 50
249.9969504735651924
 51
259.4053093299633019
  0
LINE
  5
864A
  8
0
 10
411.1581922377052933
 20
43.188410973259252
 30
0.0
 11
411.1435127514549777
 21
43.1973124578695789
 31
0.0
  0
LINE
  5
864B
  8
0
 10
411.1435127514549777
 20
43.1973124578695789
 30
0.0
 11
411.1113585305549236
 21
43.1973111191695835
 31
0.0
  0
ARC
  5
864C
  8
0
 10
411.1392388528366268
 20
43.2012354380276093
 30
0.0
 40
0.0244614408520638
 50
280.0623539608035912
 51
290.5452106193221198
  0
LINE
  5
864D
  8
0
 10
411.1132297669548734
 20
43.1874508088695777
 30
0.0
 11
411.1040489944570027
 21
43.192879813678438
 31
0.0
  0
LINE
  5
864E
  8
0
 10
411.1625017630548768
 20
43.2073922189695878
 30
0.0
 11
411.147823506854877
 21
43.1984920529695771
 31
0.0
  0
LINE
  5
864F
  8
0
 10
411.1416426739548911
 20
43.2076130083695773
 30
0.0
 11
411.1132297669548734
 21
43.2076130083695773
 31
0.0
  0
LINE
  5
8650
  8
0
 10
411.1416426739548911
 20
43.2076130083695773
 30
0.0
 11
411.1508230427086232
 21
43.2130417743665589
 31
0.0
  0
ARC
  5
8651
  8
0
 10
411.1675105358254996
 20
43.2341700828415227
 30
0.0
 40
0.027242279607474
 50
249.9969504735651924
 51
259.4053093299633019
  0
LINE
  5
8652
  8
0
 10
411.1581922377052933
 20
43.2085731727592517
 30
0.0
 11
411.1435127514549777
 21
43.2174746573695785
 31
0.0
  0
LINE
  5
8653
  8
0
 10
411.1435127514549777
 20
43.2174746573695785
 30
0.0
 11
411.1113585305549236
 21
43.2174733186695903
 31
0.0
  0
ARC
  5
8654
  8
0
 10
411.1392388528366268
 20
43.221397637527609
 30
0.0
 40
0.0244614408520638
 50
280.0623539608035912
 51
290.5452106193221198
  0
LINE
  5
8655
  8
0
 10
411.1132297669548734
 20
43.2076130083695773
 30
0.0
 11
411.1040489944570027
 21
43.2130420131784518
 31
0.0
  0
LINE
  5
8656
  8
0
 10
411.1625017630548768
 20
43.2275544184695804
 30
0.0
 11
411.147823506854877
 21
43.2186542524695909
 31
0.0
  0
LINE
  5
8657
  8
0
 10
411.1416426739548911
 20
43.2277752078695769
 30
0.0
 11
411.1132297669548734
 21
43.2277752078695769
 31
0.0
  0
LINE
  5
8658
  8
0
 10
411.1416426739548911
 20
43.2277752078695769
 30
0.0
 11
411.1508230427086232
 21
43.2332039738665586
 31
0.0
  0
ARC
  5
8659
  8
0
 10
411.1675105358254996
 20
43.2543322823415295
 30
0.0
 40
0.027242279607474
 50
249.9969504735651924
 51
259.4053093299633019
  0
LINE
  5
865A
  8
0
 10
411.1581922377052933
 20
43.2287353722592584
 30
0.0
 11
411.1435127514549777
 21
43.2376368568695781
 31
0.0
  0
LINE
  5
865B
  8
0
 10
411.1435127514549777
 20
43.2376368568695781
 30
0.0
 11
411.1113585305549236
 21
43.2376355181695828
 31
0.0
  0
ARC
  5
865C
  8
0
 10
411.1392388528366268
 20
43.2415598370276228
 30
0.0
 40
0.0244614408520638
 50
280.0623539608035912
 51
290.5452106193221198
  0
LINE
  5
865D
  8
0
 10
411.1132297669548734
 20
43.2277752078695769
 30
0.0
 11
411.1040489944570027
 21
43.2332042126784373
 31
0.0
  0
LINE
  5
865E
  8
0
 10
411.1625017630548768
 20
43.24771661796958
 30
0.0
 11
411.147823506854877
 21
43.2388164519695835
 31
0.0
  0
LINE
  5
865F
  8
0
 10
411.1416426739548911
 20
43.2479374073695908
 30
0.0
 11
411.1132297669548734
 21
43.2479374073695908
 31
0.0
  0
LINE
  5
8660
  8
0
 10
411.1416426739548911
 20
43.2479374073695908
 30
0.0
 11
411.1508230427086232
 21
43.2533661733665582
 31
0.0
  0
ARC
  5
8661
  8
0
 10
411.1675105358254996
 20
43.2744944818415291
 30
0.0
 40
0.027242279607474
 50
249.9969504735651924
 51
259.4053093299633019
  0
LINE
  5
8662
  8
0
 10
411.1581922377052933
 20
43.2488975717592581
 30
0.0
 11
411.1435127514549777
 21
43.257799056369592
 31
0.0
  0
LINE
  5
8663
  8
0
 10
411.1435127514549777
 20
43.257799056369592
 30
0.0
 11
411.1113585305549236
 21
43.2577977176695896
 31
0.0
  0
ARC
  5
8664
  8
0
 10
411.1392388528366268
 20
43.2617220365276083
 30
0.0
 40
0.0244614408520638
 50
280.0623539608035912
 51
290.5452106193221198
  0
LINE
  5
8665
  8
0
 10
411.1132297669548734
 20
43.2479374073695908
 30
0.0
 11
411.1040489944570027
 21
43.2533664121784511
 31
0.0
  0
LINE
  5
8666
  8
0
 10
411.1625017630548768
 20
43.2678788174695796
 30
0.0
 11
411.147823506854877
 21
43.2589786514695831
 31
0.0
  0
LINE
  5
8667
  8
0
 10
411.1416426739548911
 20
43.2680996068695904
 30
0.0
 11
411.1132297669548734
 21
43.2680996068695904
 31
0.0
  0
LINE
  5
8668
  8
0
 10
411.1416426739548911
 20
43.2680996068695904
 30
0.0
 11
411.1508230427086232
 21
43.2735283728665578
 31
0.0
  0
ARC
  5
8669
  8
0
 10
411.1675105358254996
 20
43.294656681341543
 30
0.0
 40
0.027242279607474
 50
249.9969504735651924
 51
259.4053093299633019
  0
LINE
  5
866A
  8
0
 10
411.1581922377052933
 20
43.2690597712592506
 30
0.0
 11
411.1435127514549777
 21
43.2779612558695774
 31
0.0
  0
LINE
  5
866B
  8
0
 10
411.1435127514549777
 20
43.2779612558695774
 30
0.0
 11
411.1113585305549236
 21
43.2779599172695768
 31
0.0
  0
ARC
  5
866C
  8
0
 10
411.1392388528366268
 20
43.2818842360276079
 30
0.0
 40
0.0244614408520638
 50
280.0623539608035912
 51
290.5452106193221198
  0
LINE
  5
866D
  8
0
 10
411.1132297669548734
 20
43.2680996068695904
 30
0.0
 11
411.1040489944570027
 21
43.2735286116784366
 31
0.0
  0
LINE
  5
866E
  8
0
 10
411.1625017630548768
 20
43.2880410169695935
 30
0.0
 11
411.147823506854877
 21
43.2791408509695898
 31
0.0
  0
LINE
  5
866F
  8
0
 10
411.1416426739548911
 20
43.2882618063695901
 30
0.0
 11
411.1132297669548734
 21
43.2882618063695901
 31
0.0
  0
LINE
  5
8670
  8
0
 10
411.1416426739548911
 20
43.2882618063695901
 30
0.0
 11
411.1508230427086232
 21
43.2936905723665575
 31
0.0
  0
ARC
  5
8671
  8
0
 10
411.1675105358254996
 20
43.3148188808415284
 30
0.0
 40
0.027242279607474
 50
249.9969504735651924
 51
259.4053093299633019
  0
LINE
  5
8672
  8
0
 10
411.1581922377052933
 20
43.2892219707592503
 30
0.0
 11
411.1435127514549777
 21
43.2981234553695913
 31
0.0
  0
LINE
  5
8673
  8
0
 10
411.1435127514549777
 20
43.2981234553695913
 30
0.0
 11
411.1113585305549236
 21
43.2981221167695907
 31
0.0
  0
ARC
  5
8674
  8
0
 10
411.1392388528366268
 20
43.3020464355276076
 30
0.0
 40
0.0244614408520638
 50
280.0623539608035912
 51
290.5452106193221198
  0
LINE
  5
8675
  8
0
 10
411.1132297669548734
 20
43.2882618063695901
 30
0.0
 11
411.1040489944570027
 21
43.2936908111784504
 31
0.0
  0
LINE
  5
8676
  8
0
 10
411.1499589438594739
 20
43.3005978734761001
 30
0.0
 11
411.147823506854877
 21
43.2993030504695895
 31
0.0
  0
ARC
  5
8677
  8
0
 10
411.1392388528366268
 20
43.3222086350276072
 30
0.0
 40
0.0244614408520638
 50
280.0623539608035912
 51
290.5452106193221198
  0
ARC
  5
8678
  8
0
 10
411.1903820853365801
 20
43.3121275353276189
 30
0.0
 40
0.0244614408520638
 50
280.0623539608035912
 51
288.9766502772989725
  0
LINE
  5
8679
  8
0
 10
411.2136449955548869
 20
43.2779599172695768
 30
0.0
 11
411.1989667393548871
 21
43.2690597512695803
 31
0.0
  0
LINE
  5
867A
  8
0
 10
411.1927859064549011
 20
43.2781807066695876
 30
0.0
 11
411.1643729994548835
 21
43.2781807066695876
 31
0.0
  0
LINE
  5
867B
  8
0
 10
411.1927859064549011
 20
43.2781807066695876
 30
0.0
 11
411.2019662752086901
 21
43.2836094726665621
 31
0.0
  0
ARC
  5
867C
  8
0
 10
411.2186537683255096
 20
43.304737781141533
 30
0.0
 40
0.027242279607474
 50
249.9969504735651924
 51
259.4053093299633019
  0
LINE
  5
867D
  8
0
 10
411.2093354702053034
 20
43.2791408710592478
 30
0.0
 11
411.194655983954874
 21
43.2880423556695817
 31
0.0
  0
LINE
  5
867E
  8
0
 10
411.194655983954874
 20
43.2880423556695817
 30
0.0
 11
411.1625017630548768
 21
43.2880410169695935
 31
0.0
  0
ARC
  5
867F
  8
0
 10
411.1903820853365801
 20
43.2919653358276122
 30
0.0
 40
0.0244614408520638
 50
280.0623539608035912
 51
290.5452106193221198
  0
LINE
  5
8680
  8
0
 10
411.1643729994548835
 20
43.2781807066695876
 30
0.0
 11
411.1551922269570127
 21
43.2836097114784408
 31
0.0
  0
LINE
  5
8681
  8
0
 10
411.2136449956049091
 20
43.2580934199695903
 30
0.0
 11
411.1989667394049093
 21
43.2491932539695796
 31
0.0
  0
LINE
  5
8682
  8
0
 10
411.1927859065048096
 20
43.2583142093695869
 30
0.0
 11
411.1643729995050194
 21
43.2583142093695869
 31
0.0
  0
LINE
  5
8683
  8
0
 10
411.1927859065048096
 20
43.2583142093695869
 30
0.0
 11
411.2019662752587124
 21
43.2637429753665685
 31
0.0
  0
ARC
  5
8684
  8
0
 10
411.218653768375475
 20
43.2848712838415324
 30
0.0
 40
0.027242279607474
 50
249.9969504735651924
 51
259.4053093299633019
  0
LINE
  5
8685
  8
0
 10
411.2093354702552119
 20
43.2592743737592471
 30
0.0
 11
411.1946559840048963
 21
43.268175858369581
 31
0.0
  0
LINE
  5
8686
  8
0
 10
411.1946559840048963
 20
43.268175858369581
 30
0.0
 11
411.1625017630548768
 21
43.2678788174695796
 31
0.0
  0
ARC
  5
8687
  8
0
 10
411.1903820853866023
 20
43.2720988385276115
 30
0.0
 40
0.0244614408520638
 50
280.0623539608035912
 51
290.5452106193221198
  0
LINE
  5
8688
  8
0
 10
411.1643729995050194
 20
43.2583142093695869
 30
0.0
 11
411.1551922270069781
 21
43.2637432141784402
 31
0.0
  0
LINE
  5
8689
  8
0
 10
411.2136449956049091
 20
43.2379312204695907
 30
0.0
 11
411.1989667394049093
 21
43.2290310544695799
 31
0.0
  0
LINE
  5
868A
  8
0
 10
411.1927859065048096
 20
43.2381520098695873
 30
0.0
 11
411.1643729995050194
 21
43.2381520098695873
 31
0.0
  0
LINE
  5
868B
  8
0
 10
411.1927859065048096
 20
43.2381520098695873
 30
0.0
 11
411.2019662752587124
 21
43.2435807758665618
 31
0.0
  0
ARC
  5
868C
  8
0
 10
411.218653768375475
 20
43.2647090843415327
 30
0.0
 40
0.027242279607474
 50
249.9969504735651924
 51
259.4053093299633019
  0
LINE
  5
868D
  8
0
 10
411.2093354702552119
 20
43.2391121742592475
 30
0.0
 11
411.1946559840048963
 21
43.2480136588695814
 31
0.0
  0
LINE
  5
868E
  8
0
 10
411.1946559840048963
 20
43.2480136588695814
 30
0.0
 11
411.1625017630548768
 21
43.24771661796958
 31
0.0
  0
ARC
  5
868F
  8
0
 10
411.1903820853866023
 20
43.2519366390276119
 30
0.0
 40
0.0244614408520638
 50
280.0623539608035912
 51
290.5452106193221198
  0
LINE
  5
8690
  8
0
 10
411.1643729995050194
 20
43.2381520098695873
 30
0.0
 11
411.1551922270069781
 21
43.2435810146784405
 31
0.0
  0
LINE
  5
8691
  8
0
 10
411.2136449955548869
 20
43.2174733186695903
 30
0.0
 11
411.1989667393548871
 21
43.2085731526695795
 31
0.0
  0
LINE
  5
8692
  8
0
 10
411.1927859064549011
 20
43.2176941080695798
 30
0.0
 11
411.1643729994548835
 21
43.2176941080695798
 31
0.0
  0
LINE
  5
8693
  8
0
 10
411.1927859064549011
 20
43.2176941080695798
 30
0.0
 11
411.2019662752086901
 21
43.2231228740665472
 31
0.0
  0
ARC
  5
8694
  8
0
 10
411.2186537683255096
 20
43.2442511825415323
 30
0.0
 40
0.027242279607474
 50
249.9969504735651924
 51
259.4053093299633019
  0
LINE
  5
8695
  8
0
 10
411.2093354702053034
 20
43.2186542724592613
 30
0.0
 11
411.194655983954874
 21
43.2275557570695881
 31
0.0
  0
LINE
  5
8696
  8
0
 10
411.194655983954874
 20
43.2275557570695881
 30
0.0
 11
411.1625017630548768
 21
43.2275544184695804
 31
0.0
  0
ARC
  5
8697
  8
0
 10
411.1903820853365801
 20
43.2314787372276186
 30
0.0
 40
0.0244614408520638
 50
280.0623539608035912
 51
290.5452106193221198
  0
LINE
  5
8698
  8
0
 10
411.1643729994548835
 20
43.2176941080695869
 30
0.0
 11
411.1551922269570127
 21
43.2231231128784472
 31
0.0
  0
LINE
  5
8699
  8
0
 10
411.2136449955548869
 20
43.1973111191695835
 30
0.0
 11
411.1989667393548871
 21
43.1884109531695799
 31
0.0
  0
LINE
  5
869A
  8
0
 10
411.1927859064549011
 20
43.1975319085695872
 30
0.0
 11
411.1643729994548835
 21
43.1975319085695872
 31
0.0
  0
LINE
  5
869B
  8
0
 10
411.1927859064549011
 20
43.1975319085695872
 30
0.0
 11
411.2019662752086901
 21
43.2029606745665617
 31
0.0
  0
ARC
  5
869C
  8
0
 10
411.2186537683255096
 20
43.2240889830415327
 30
0.0
 40
0.027242279607474
 50
249.9969504735651924
 51
259.4053093299633019
  0
LINE
  5
869D
  8
0
 10
411.2093354702053034
 20
43.1984920729592474
 30
0.0
 11
411.194655983954874
 21
43.2073935575695813
 31
0.0
  0
LINE
  5
869E
  8
0
 10
411.194655983954874
 20
43.2073935575695813
 30
0.0
 11
411.1625017630548768
 21
43.2073922189695878
 31
0.0
  0
ARC
  5
869F
  8
0
 10
411.1903820853365801
 20
43.2113165377276118
 30
0.0
 40
0.0244614408520638
 50
280.0623539608035912
 51
290.5452106193221198
  0
LINE
  5
86A0
  8
0
 10
411.1643729994548835
 20
43.1975319085695872
 30
0.0
 11
411.1551922269570127
 21
43.2029609133784405
 31
0.0
  0
LINE
  5
86A1
  8
0
 10
411.2573872090223972
 20
43.2633912068800797
 30
0.0
 11
411.2501099718548971
 21
43.2589786514695831
 31
0.0
  0
LINE
  5
86A2
  8
0
 10
411.2439291389550249
 20
43.2680996068695904
 30
0.0
 11
411.2155162319548936
 21
43.2680996068695904
 31
0.0
  0
LINE
  5
86A3
  8
0
 10
411.2439291389550249
 20
43.2680996068695904
 30
0.0
 11
411.2468498188894728
 21
43.2698267366115772
 31
0.0
  0
LINE
  5
86A4
  8
0
 10
411.2306706620573777
 20
43.277960626058551
 30
0.0
 11
411.2136449955548869
 21
43.2779599172695768
 31
0.0
  0
ARC
  5
86A5
  8
0
 10
411.2415253178365901
 20
43.2818842360276079
 30
0.0
 40
0.0244614408520638
 50
280.0623539608035912
 51
290.5452106193221198
  0
LINE
  5
86A6
  8
0
 10
411.2155162319548936
 20
43.2680996068695904
 30
0.0
 11
411.2063354594570228
 21
43.2735286116784366
 31
0.0
  0
LINE
  5
86A7
  8
0
 10
411.264788228054897
 20
43.24771661796958
 30
0.0
 11
411.2501099718548971
 21
43.2388164519695835
 31
0.0
  0
LINE
  5
86A8
  8
0
 10
411.2439291389550249
 20
43.2479374073695908
 30
0.0
 11
411.2155162319548936
 21
43.2479374073695908
 31
0.0
  0
LINE
  5
86A9
  8
0
 10
411.2439291389550249
 20
43.2479374073695908
 30
0.0
 11
411.2531095077087002
 21
43.2533661733665582
 31
0.0
  0
ARC
  5
86AA
  8
0
 10
411.269797000825406
 20
43.2744944818415291
 30
0.0
 40
0.027242279607474
 50
249.9969504735651924
 51
259.4053093299633019
  0
LINE
  5
86AB
  8
0
 10
411.2604787027053135
 20
43.2488975717592581
 30
0.0
 11
411.2457992164548841
 21
43.257799056369592
 31
0.0
  0
LINE
  5
86AC
  8
0
 10
411.2457992164548841
 20
43.257799056369592
 30
0.0
 11
411.2136449956049091
 21
43.2580934199695903
 31
0.0
  0
ARC
  5
86AD
  8
0
 10
411.2415253178365901
 20
43.2617220365276083
 30
0.0
 40
0.0244614408520638
 50
280.0623539608035912
 51
290.5452106193221198
  0
LINE
  5
86AE
  8
0
 10
411.2155162319548936
 20
43.2479374073695908
 30
0.0
 11
411.2063354594570228
 21
43.2533664121784511
 31
0.0
  0
LINE
  5
86AF
  8
0
 10
411.264788228054897
 20
43.2275544184695804
 30
0.0
 11
411.2501099718548971
 21
43.2186542524695909
 31
0.0
  0
LINE
  5
86B0
  8
0
 10
411.2439291389550249
 20
43.2277752078695769
 30
0.0
 11
411.2155162319548936
 21
43.2277752078695769
 31
0.0
  0
LINE
  5
86B1
  8
0
 10
411.2439291389550249
 20
43.2277752078695769
 30
0.0
 11
411.2531095077087002
 21
43.2332039738665586
 31
0.0
  0
ARC
  5
86B2
  8
0
 10
411.269797000825406
 20
43.2543322823415295
 30
0.0
 40
0.027242279607474
 50
250.0177083572854997
 51
259.4053093299633019
  0
LINE
  5
86B3
  8
0
 10
411.2604875048695021
 20
43.2287300347203072
 30
0.0
 11
411.2457992164548841
 21
43.2376368568695781
 31
0.0
  0
LINE
  5
86B4
  8
0
 10
411.2457992164548841
 20
43.2376368568695781
 30
0.0
 11
411.2136449956049091
 21
43.2379312204695907
 31
0.0
  0
ARC
  5
86B5
  8
0
 10
411.2415253178365901
 20
43.2415598370276228
 30
0.0
 40
0.0244614408520638
 50
280.0623539608035912
 51
290.5452106193221198
  0
LINE
  5
86B6
  8
0
 10
411.2155162319548936
 20
43.2277752078695769
 30
0.0
 11
411.2063354594570228
 21
43.2332042126784373
 31
0.0
  0
LINE
  5
86B7
  8
0
 10
411.2439291389550249
 20
43.2076130083695773
 30
0.0
 11
411.2155162319548936
 21
43.2076130083695773
 31
0.0
  0
LINE
  5
86B8
  8
0
 10
411.2439291389550249
 20
43.2076130083695773
 30
0.0
 11
411.2531095077087002
 21
43.2130417743665589
 31
0.0
  0
LINE
  5
86B9
  8
0
 10
411.2547465614941871
 20
43.2120490823315677
 30
0.0
 11
411.2457992164548841
 21
43.2174746573695785
 31
0.0
  0
LINE
  5
86BA
  8
0
 10
411.2457992164548841
 20
43.2174746573695785
 30
0.0
 11
411.2136449955548869
 21
43.2174733186695903
 31
0.0
  0
LINE
  5
86BB
  8
0
 10
411.2155162319548936
 20
43.2076130083695773
 30
0.0
 11
411.2063354594570228
 21
43.2130420131784518
 31
0.0
  0
ARC
  5
86BC
  8
0
 10
411.126514186718623
 20
43.2216659801043619
 30
0.0
 40
0.1318680224057473
 50
358.4052000053874281
 51
0.8668453882491073
  0
ARC
  5
86BD
  8
0
 10
411.2512801383467718
 20
43.2181922837341972
 30
0.0
 40
0.0070537233364144
 50
299.4347256069008267
 51
358.4052000053833922
  0
LINE
  5
86BE
  8
0
 10
411.264788228054897
 20
43.24771661796958
 30
0.0
 11
411.2776328032326774
 21
43.24771661796958
 31
0.0
  0
LINE
  5
86BF
  8
0
 10
411.2574490999548971
 20
43.2432665349695924
 30
0.0
 11
411.2666582110549029
 21
43.2378573991695774
 31
0.0
  0
LINE
  5
86C0
  8
0
 10
411.2666582110549029
 20
43.2378573991695774
 30
0.0
 11
411.2745875056548925
 21
43.2378573991695774
 31
0.0
  0
LINE
  5
86C1
  8
0
 10
411.2745875056548925
 20
43.2378573991695774
 30
0.0
 11
411.2726715777549202
 21
43.2275575824695792
 31
0.0
  0
LINE
  5
86C2
  8
0
 10
411.2726715777549202
 20
43.2275575824695792
 30
0.0
 11
411.264788228054897
 21
43.2275544184695804
 31
0.0
  0
LINE
  5
86C3
  8
0
 10
411.2745875056548925
 20
43.2378573991695774
 30
0.0
 11
411.2795681894307904
 21
43.2453873304066505
 31
0.0
  0
LINE
  5
86C4
  8
0
 10
411.2136449955548869
 20
43.1973111191695835
 30
0.0
 11
411.2296675214549282
 21
43.1973122107695886
 31
0.0
  0
LINE
  5
86C5
  8
0
 10
411.2341607717548868
 20
43.2039136538695914
 30
0.0
 11
411.2341607717548868
 21
43.2076130083695773
 31
0.0
  0
ARC
  5
86C6
  8
0
 10
411.2282212201744187
 20
43.2031187112451107
 30
0.0
 40
0.0059925125576443
 50
283.9505177232226742
 51
7.6230983139255892
  0
LINE
  5
86C7
  8
0
 10
411.0923695189550244
 20
43.1670691585695891
 30
0.0
 11
411.0602140445549253
 21
43.1670689114695776
 31
0.0
  0
LINE
  5
86C8
  8
0
 10
411.1113585305549236
 20
43.177148919669591
 30
0.0
 11
411.1435127514549777
 21
43.1771502583695792
 31
0.0
  0
LINE
  5
86C9
  8
0
 10
411.194655983954874
 20
43.1872313580695817
 30
0.0
 11
411.1625017630548768
 21
43.1872300194695882
 31
0.0
  0
LINE
  5
86CA
  8
0
 10
411.1982202459548148
 20
43.1849009142695905
 30
0.0
 11
411.1943996616203094
 21
43.1872311109695914
 31
0.0
  0
LINE
  5
86CB
  8
0
 10
411.2038157930549005
 20
43.1906697101695798
 30
0.0
 11
411.2038186615210975
 21
43.1913529179445703
 31
0.0
  0
ARC
  5
86CC
  8
0
 10
411.1973652286188212
 20
43.1904928908602272
 30
0.0
 40
0.006452987417704
 50
301.8318130517142208
 51
1.57016707160055
  0
ARC
  5
86CD
  8
0
 10
411.1993971822083722
 20
43.1872197445912818
 30
0.0
 40
0.0026004140065619
 50
243.0896548931515042
 51
301.8318130517101281
  0
ARC
  5
86CE
  8
0
 10
411.1537132983563083
 20
43.1766490584555314
 30
0.0
 40
0.0051823741026098
 50
256.5328686273480798
 51
2.9145901336487241
  0
ARC
  5
86CF
  8
0
 10
411.1030144487446023
 20
43.1665199918134803
 30
0.0
 40
0.0051992972063351
 50
248.2543074792079949
 51
0.3833849941868185
  0
ARC
  5
86D0
  8
0
 10
411.0465002127007779
 20
43.1598595373393579
 30
0.0
 40
0.0053513961101779
 50
241.3419520521804031
 51
356.8405606886514079
  0
ARC
  5
86D1
  8
0
 10
410.999017416746824
 20
43.1578831564430274
 30
0.0
 40
0.0061060031121602
 50
194.0963230761907994
 51
305.2183453920645206
  0
LINE
  5
86D2
  8
0
 10
411.0025387116548927
 20
43.1528947943695798
 30
0.0
 11
411.0092972080914819
 21
43.1569878116695804
 31
0.0
  0
LINE
  5
86D3
  8
0
 10
411.0439337841548877
 20
43.1551637003695774
 30
0.0
 11
411.0409029386307793
 21
43.1569891524111569
 31
0.0
  0
LINE
  5
86D4
  8
0
 10
411.0518434748548771
 20
43.1595645968695791
 30
0.0
 11
411.0518434748548771
 21
43.1619984734468574
 31
0.0
  0
LINE
  5
86D5
  8
0
 10
411.1010881735548992
 20
43.1616906900695909
 30
0.0
 11
411.0921231422772735
 21
43.1670689114695776
 31
0.0
  0
LINE
  5
86D6
  8
0
 10
411.1082088877067804
 20
43.1663452359401916
 30
0.0
 11
411.1082136295995042
 21
43.1702552278432066
 31
0.0
  0
LINE
  5
86D7
  8
0
 10
411.1082136295995042
 20
43.1702552278432066
 30
0.0
 11
411.1435127514549777
 21
43.1771502583695792
 31
0.0
  0
LINE
  5
86D8
  8
0
 10
411.1435127514549777
 20
43.1771502583695792
 30
0.0
 11
411.1525063881549045
 21
43.1716091805695825
 31
0.0
  0
LINE
  5
86D9
  8
0
 10
411.1588889687549226
 20
43.1769125679695804
 30
0.0
 11
411.1588889687370738
 21
43.1806130139923496
 31
0.0
  0
LINE
  5
86DA
  8
0
 10
411.1588889687370738
 20
43.1806130139923496
 30
0.0
 11
411.155202096313019
 21
43.182803863878469
 31
0.0
  0
LINE
  5
86DB
  8
0
 10
411.158888968841211
 20
43.1806130140185331
 30
0.0
 11
411.1826959526854921
 21
43.1872311109695914
 31
0.0
  0
LINE
  5
86DC
  8
0
 10
411.1082136295548821
 20
43.1702551910670422
 30
0.0
 11
411.1041082374229063
 21
43.1727527017848018
 31
0.0
  0
LINE
  5
86DD
  8
0
 10
411.0867936826026039
 20
43.1670691157218513
 30
0.0
 11
411.0542407870257762
 21
43.1634470245883932
 31
0.0
  0
LINE
  5
86DE
  8
0
 10
410.9930952797549253
 20
43.1563960224695933
 30
0.0
 11
410.9930952797603823
 21
43.1600964685226032
 31
0.0
  0
LINE
  5
86DF
  8
0
 10
410.9882144411549234
 20
43.1773706986695913
 30
0.0
 11
410.9974045586033071
 21
43.1828052295691265
 31
0.0
  0
LINE
  5
86E0
  8
0
 10
410.9882144411549234
 20
43.1975321556695917
 30
0.0
 11
410.9974057984305205
 21
43.2029674197348399
 31
0.0
  0
LINE
  5
86E1
  8
0
 10
410.9882144411549234
 20
43.2378565546695768
 30
0.0
 11
410.9974057984305205
 21
43.2432918187348321
 31
0.0
  0
LINE
  5
86E2
  8
0
 10
410.9882144411549234
 20
43.2580187541695906
 30
0.0
 11
410.9974057984305205
 21
43.2634540182348317
 31
0.0
  0
LINE
  5
86E3
  8
0
 10
410.9882144411549234
 20
43.2781809536695903
 30
0.0
 11
410.9974057984305205
 21
43.2836162177348385
 31
0.0
  0
LINE
  5
86E4
  8
0
 10
410.9882144411549234
 20
43.2983431531695899
 30
0.0
 11
410.9974057984305205
 21
43.3037784172348381
 31
0.0
  0
LINE
  5
86E5
  8
0
 10
410.9882144411549234
 20
43.2176943551695913
 30
0.0
 11
410.9974057984305205
 21
43.2231296192348395
 31
0.0
  0
ARC
  5
86E6
  8
0
 10
410.9750593174122741
 20
44.1517441369512227
 30
0.0
 40
1.0170618294600291
 50
269.9403975071800801
 51
275.9993452013480919
  0
ARC
  5
86E7
  8
0
 10
411.0103747618978218
 20
43.8157031846133904
 30
0.0
 40
0.6791702754558995
 50
275.9993452013480919
 51
287.7955875917235744
  0
ARC
  5
86E8
  8
0
 10
411.1709480633788871
 20
43.3154435501631809
 30
0.0
 40
0.1537718675702535
 50
287.7955875917235744
 51
313.5081848185100739
  0
ARC
  5
86E9
  8
0
 10
411.2541639665764137
 20
43.2262478592437134
 30
0.0
 40
0.0318071359168249
 50
315.4053599799956942
 51
52.7847302032490973
  0
ARC
  5
86EA
  8
0
 10
411.1558629454286802
 20
43.1090022912774131
 30
0.0
 40
0.1847785522164569
 50
50.4981007772348889
 51
73.8352782970217163
  0
ARC
  5
86EB
  8
0
 10
410.995400079413173
 20
42.5494825890453612
 30
0.0
 40
0.7668524063236538
 50
73.9586448594316153
 51
84.5753915394913349
  0
ARC
  5
86EC
  8
0
 10
410.978452386391325
 20
42.3710129019055586
 30
0.0
 40
0.9461249740147119
 50
84.5753915394913349
 51
90.2695509465515471
  0
ARC
  5
86ED
  8
0
 10
410.9769541471524121
 20
44.1488708479884906
 30
0.0
 40
1.017645486463695
 50
269.8337482000151795
 51
276.999776912906384
  0
ARC
  5
86EE
  8
0
 10
411.0183511993789125
 20
43.811708060652343
 30
0.0
 40
0.6779508278401999
 50
276.999776912906384
 51
287.5870457239411166
  0
ARC
  5
86EF
  8
0
 10
411.166629947672277
 20
43.3439072748823975
 30
0.0
 40
0.1872124429930455
 50
287.5870457239411166
 51
307.2502041945771794
  0
ARC
  5
86F0
  8
0
 10
411.2493604072514017
 20
43.2351120023438185
 30
0.0
 40
0.0505349383738691
 50
307.2502041945771225
 51
333.9896800839006232
  0
ARC
  5
86F1
  8
0
 10
411.2678458747241166
 20
43.226091915501641
 30
0.0
 40
0.0299661641195435
 50
333.989680083899998
 51
37.2113243533499514
  0
ARC
  5
86F2
  8
0
 10
411.1592208341510855
 20
43.1102012440347622
 30
0.0
 40
0.1884493732098437
 50
45.3273199511030285
 51
79.5000832521152745
  0
ARC
  5
86F3
  8
0
 10
410.9985382061943824
 20
42.5234072627385729
 30
0.0
 40
0.7963379567587135
 50
75.8239746853441829
 51
87.5435891384858138
  0
ARC
  5
86F4
  8
0
 10
410.9741870362154827
 20
42.2286120111761889
 30
0.0
 40
1.091968619302647
 50
86.9299876359333865
 51
90.0097451320393276
  0
ARC
  5
86F5
  8
0
 10
410.974241259118287
 20
42.1620703573313094
 30
0.0
 40
1.1589059292624211
 50
86.895080690548923
 51
90.0118630180132442
  0
ARC
  5
86F6
  8
0
 10
410.9819425546016873
 20
42.3040449667609835
 30
0.0
 40
1.0167225980494059
 50
80.0468370069062445
 51
86.895080690548923
  0
ARC
  5
86F7
  8
0
 10
411.0720098830466895
 20
42.8172952479757285
 30
0.0
 40
0.4956295403138105
 50
66.1951197815741494
 51
80.0468370069062445
  0
ARC
  5
86F8
  8
0
 10
411.229239985673928
 20
43.1737013907100575
 30
0.0
 40
0.1060828245647238
 50
41.2100354558102424
 51
66.1951197815741494
  0
ARC
  5
86F9
  8
0
 10
411.2823428196314239
 20
43.2202058394059208
 30
0.0
 40
0.0354954693030883
 50
318.4670298250348992
 51
41.2100354558108535
  0
ARC
  5
86FA
  8
0
 10
411.1288290055575771
 20
43.4244626843763086
 30
0.0
 40
0.2903787212039506
 50
276.8963899750182804
 51
308.3287104695314156
  0
ARC
  5
86FB
  8
0
 10
410.9916621442833957
 20
44.0537343319629215
 30
0.0
 40
0.9335377085902047
 50
273.5955115375235209
 51
280.6192545564547913
  0
ARC
  5
86FC
  8
0
 10
410.9742175712033827
 20
44.2779111471221611
 30
0.0
 40
1.158372102627208
 50
269.9893031744211953
 51
273.7612889276854276
  0
ARC
  5
86FD
  8
0
 10
410.974209683137417
 20
42.0853956080203488
 30
0.0
 40
1.2663023206168931
 50
86.433619887309618
 51
90.0094281999162575
  0
ARC
  5
86FE
  8
0
 10
410.9891948988097852
 20
42.3258300108334495
 30
0.0
 40
1.025401389226323
 50
77.0282832189517421
 51
86.433619887309618
  0
ARC
  5
86FF
  8
0
 10
411.1446148155681044
 20
43.000547010754417
 30
0.0
 40
0.3330153838019745
 50
56.232375664993171
 51
77.0282832189517421
  0
ARC
  5
8700
  8
0
 10
411.3061126476723075
 20
43.2420847254826981
 30
0.0
 40
0.0424607118200902
 50
310.9252943439105934
 51
56.2323756649929507
  0
ARC
  5
8701
  8
0
 10
410.9744753536486996
 20
42.1148685738927426
 30
0.0
 40
1.2277863456534011
 50
86.3689180935919154
 51
90.0221217243407921
  0
ARC
  5
8702
  8
0
 10
411.1921886677621956
 20
43.1026746205705393
 30
0.0
 40
0.211463622754177
 50
52.4906253672217531
 51
74.0392885782834753
  0
ARC
  5
8703
  8
0
 10
411.2918987919304072
 20
43.232575371004458
 30
0.0
 40
0.0477067486238866
 50
316.2696696252393735
 51
52.4906253672221226
  0
ARC
  5
8704
  8
0
 10
411.1130383614367929
 20
43.4828387463312893
 30
0.0
 40
0.3545938744844825
 50
275.3358161484039783
 51
306.9865405234240825
  0
ARC
  5
8705
  8
0
 10
410.9866596554193734
 20
44.1370387626212306
 30
0.0
 40
1.019784729937629
 50
273.2067888417122958
 51
278.9899871990853057
  0
ARC
  5
8706
  8
0
 10
410.9716710444889145
 20
44.4045577619434724
 30
0.0
 40
1.287723292776171
 50
270.1036825238912797
 51
273.2067968322385241
  0
ARC
  5
8707
  8
0
 10
411.0140501151254853
 20
42.528243770895628
 30
0.0
 40
0.8128437158233106
 50
73.1006648711800864
 51
87.3075418006962423
  0
ARC
  5
8708
  8
0
 10
410.9471955765674807
 20
45.2299934343316465
 30
0.0
 40
2.1367738559128262
 50
270.718791848158105
 51
276.7438935925728742
  0
ARC
  5
8709
  8
0
 10
411.0599086183921145
 20
44.1576310800544221
 30
0.0
 40
1.058687650737542
 50
277.5013742033551125
 51
288.7306555104116796
  0
ARC
  5
870A
  8
0
 10
411.279931036105495
 20
43.5087462653389991
 30
0.0
 40
0.3735151417555058
 50
288.7306555104117933
 51
313.2514819120987113
  0
ARC
  5
870B
  8
0
 10
411.4144952082476152
 20
43.3621509501863187
 30
0.0
 40
0.1745553652833335
 50
314.0514663933362272
 51
34.1828641517878467
  0
ARC
  5
870C
  8
0
 10
411.3362060969735126
 20
43.3043926845587279
 30
0.0
 40
0.2717970915097051
 50
34.9828486330268973
 51
74.673495043962987
  0
ARC
  5
870D
  8
0
 10
411.0477693084293946
 20
42.4720345408288367
 30
0.0
 40
1.1522612747789851
 50
71.7797653404949756
 51
86.3132001860785323
  0
ARC
  5
870E
  8
0
 10
410.8545824971391198
 20
38.7761536074749316
 30
0.0
 40
4.8531232089459468
 50
86.8429058786926333
 51
88.5900039443257441
  0
ARC
  5
870F
  8
0
 10
410.9669636136414965
 20
44.965207780539167
 30
0.0
 40
0.5057729900076799
 50
1.1427934702326039
 51
89.2027188690856008
  0
ARC
  5
8710
  8
0
 10
411.0008070416957935
 20
45.2299934344419228
 30
0.0
 40
2.136773856023523
 50
263.2561064075057971
 51
269.2812081509591735
  0
ARC
  5
8711
  8
0
 10
411.093420121236079
 20
38.7761536049099433
 30
0.0
 40
4.8531232115137497
 50
91.4099960566548759
 51
93.1570941210758008
  0
ARC
  5
8712
  8
0
 10
409.7982344719864045
 20
41.0610244178687935
 30
0.0
 40
0.0756235776156113
 50
100.0892588116224999
 51
169.0173659777518083
  0
LINE
  5
8713
  8
0
 10
412.2240066758898251
 20
41.0234785553929484
 30
0.0
 11
409.7239959423635014
 21
41.0234785553929484
 31
0.0
  0
LINE
  5
8714
  8
0
 10
407.5291247860654948
 20
43.0323700812929388
 30
0.0
 11
406.4722452332748048
 21
43.0323700812929388
 31
0.0
  0
LINE
  5
8715
  8
0
 10
406.4188885656654975
 20
43.0717401600929506
 30
0.0
 11
407.5291247860654948
 21
43.0717401600929506
 31
0.0
  0
LINE
  5
8716
  8
0
 10
407.5292064898656008
 20
43.0768582702929521
 30
0.0
 11
406.4188068618655052
 21
43.0768582702929521
 31
0.0
  0
LINE
  5
8717
  8
0
 10
407.5291247860654948
 20
43.0323700812929388
 30
0.0
 11
407.5291247860654948
 21
43.0717401600929506
 31
0.0
  0
LINE
  5
8718
  8
0
 10
407.4858176994655992
 20
43.0717401600929506
 30
0.0
 11
407.4858176994655992
 21
43.0768582702929521
 31
0.0
  0
LINE
  5
8719
  8
0
 10
406.4621956522655069
 20
43.0717401600929506
 30
0.0
 11
406.4621956522655069
 21
43.0768582702929521
 31
0.0
  0
LINE
  5
871A
  8
0
 10
406.4188885656654975
 20
43.0346767162929424
 30
0.0
 11
406.4188885656654975
 21
43.0717401600929506
 31
0.0
  0
ARC
  5
871B
  8
0
 10
407.0120465261446157
 20
42.1379295531075968
 30
0.0
 40
1.2395125639923881
 50
91.7586470751299856
 51
105.0144152469539023
  0
ARC
  5
871C
  8
0
 10
406.9515717885100798
 20
42.2437783272248595
 30
0.0
 40
1.1333020256703339
 50
74.3612410684045955
 51
88.8656966095472711
  0
ARC
  5
871D
  8
0
 10
406.9543887831654843
 20
42.4535720072929408
 30
0.0
 40
0.9200787401999999
 50
106.6388065733595027
 51
117.4493368390476036
  0
ARC
  5
871E
  8
0
 10
406.9936245685656218
 20
42.4535720072929408
 30
0.0
 40
0.9200787401999999
 50
62.5506631609524035
 51
73.3611934266814387
  0
ARC
  5
871F
  8
0
 10
407.2727767760655979
 20
42.9869108224929377
 30
0.0
 40
0.3181102362
 50
46.8476554630152577
 51
62.8883523341276671
  0
ARC
  5
8720
  8
0
 10
406.6752365756655081
 20
42.9869108224929377
 30
0.0
 40
0.3181102362
 50
117.1116476658722974
 51
133.1523445370567913
  0
ARC
  5
8721
  8
0
 10
407.3340672675655014
 20
43.073829522992952
 30
0.0
 40
0.2161417323
 50
6.6392295638905878
 51
20.4364126311525389
  0
ARC
  5
8722
  8
0
 10
406.6139460841656046
 20
43.073829522992952
 30
0.0
 40
0.2161417323
 50
159.5635873688474078
 51
173.3607704361093909
  0
ARC
  5
8723
  8
0
 10
406.590766853165519
 20
43.0804306045929408
 30
0.0
 40
0.1921259843
 50
133.8496357398043131
 51
158.9946264584148139
  0
ARC
  5
8724
  8
0
 10
407.3572464985654733
 20
43.0804306045929408
 30
0.0
 40
0.1921259843
 50
21.0053735415851897
 51
46.1503642603162518
  0
ARC
  5
8725
  8
0
 10
407.5220813176870251
 20
42.8725879356433666
 30
0.0
 40
0.1599373143302715
 50
308.8542215438914127
 51
87.4759387882279213
  0
ARC
  5
8726
  8
0
 10
407.5292064898656008
 20
43.0965433096929402
 30
0.0
 40
0.0196850394
 50
270.0
 51
6.6392295638907912
  0
ARC
  5
8727
  8
0
 10
406.4188068618655052
 20
43.0965433096929402
 30
0.0
 40
0.0196850394
 50
173.3607704361091919
 51
270.0
  0
LINE
  5
8728
  8
0
 10
405.7732192742655002
 20
41.0234785553929484
 30
0.0
 11
408.1747940774654921
 21
41.0234785553929484
 31
0.0
  0
LINE
  5
8729
  8
0
 10
405.8440919564656042
 20
41.2203289490929521
 30
0.0
 11
408.1039213952655018
 21
41.2203289490929521
 31
0.0
  0
LINE
  5
872A
  8
0
 10
408.0447071340655043
 20
41.6339419709929501
 30
0.0
 11
405.9033062176656017
 21
41.6339419709929501
 31
0.0
  0
LINE
  5
872B
  8
0
 10
406.1905421088654862
 20
41.6339419709929501
 30
0.0
 11
406.1905421088654862
 21
41.5589116262929394
 31
0.0
  0
LINE
  5
872C
  8
0
 10
405.7338491955655968
 20
41.1100927285929387
 30
0.0
 11
405.7338491955655968
 21
41.0628486341929388
 31
0.0
  0
ARC
  5
872D
  8
0
 10
405.8519594317655219
 20
41.5589116262929394
 30
0.0
 40
0.3385826772
 50
270.0
 51
0.0
  0
ARC
  5
872E
  8
0
 10
405.8440854159654805
 20
41.1100927285929387
 30
0.0
 40
0.1102362205
 50
90.0
 51
180.0
  0
ARC
  5
872F
  8
0
 10
405.7732192742655002
 20
41.0628486341929388
 30
0.0
 40
0.0393700787
 50
180.0
 51
270.0
  0
ARC
  5
8730
  8
0
 10
405.9033062176656017
 20
41.6639419709929513
 30
0.0
 40
0.03
 50
215.3209208659887111
 51
270.0
  0
ARC
  5
8731
  8
0
 10
406.3384387115863206
 20
41.9970177589661873
 30
0.0
 40
0.5779585750328741
 50
199.4323859935072107
 51
217.3229670627430892
  0
ARC
  5
8732
  8
0
 10
406.2592803362725249
 20
41.7168708647084117
 30
0.0
 40
0.5402747323327873
 50
123.1849653247963943
 51
140.4000808800618074
  0
ARC
  5
8733
  8
0
 10
402.9199054939670077
 20
47.4359133145746767
 30
0.0
 40
6.0830837474589172
 50
300.0230274737825198
 51
303.0339640460563828
  0
ARC
  5
8734
  8
0
 10
406.1593684612261086
 20
42.4853306069996108
 30
0.0
 40
0.1676960782295467
 50
297.196924255638919
 51
41.1672712925286532
  0
ARC
  5
8735
  8
0
 10
406.9941004542257019
 20
43.3027266540338687
 30
0.0
 40
1.0009104728268881
 50
220.6698217078645996
 51
224.9399564143841133
  0
ARC
  5
8736
  8
0
 10
406.2864494636143036
 20
42.6856399682174015
 30
0.0
 40
0.0623976685138738
 50
89.947456191659299
 51
214.347757106420687
  0
LINE
  5
8737
  8
0
 10
406.2865066857165743
 20
42.7480376104929505
 30
0.0
 11
407.661506665517777
 21
42.7480376104929505
 31
0.0
  0
LINE
  5
8738
  8
0
 10
407.7574712428655062
 20
41.6339419709929501
 30
0.0
 11
407.7574712428655062
 21
41.5589116262929394
 31
0.0
  0
LINE
  5
8739
  8
0
 10
408.2141641561655092
 20
41.1100927285929387
 30
0.0
 11
408.2141641561655092
 21
41.0628486341929388
 31
0.0
  0
ARC
  5
873A
  8
0
 10
408.0960539199655273
 20
41.5589116262929394
 30
0.0
 40
0.3385826772
 50
180.0
 51
270.0
  0
ARC
  5
873B
  8
0
 10
408.1039279357655118
 20
41.1100927285929387
 30
0.0
 40
0.1102362205
 50
0.0
 51
90.0
  0
ARC
  5
873C
  8
0
 10
408.1747940774654921
 20
41.0628486341929388
 30
0.0
 40
0.0393700787
 50
270.0
 51
0.0
  0
ARC
  5
873D
  8
0
 10
408.0447071340655043
 20
41.6639419709929513
 30
0.0
 40
0.03
 50
270.0
 51
324.6790791340113174
  0
ARC
  5
873E
  8
0
 10
407.6095746401446718
 20
41.9970177589661873
 30
0.0
 40
0.5779585750328741
 50
322.6770329372566835
 51
340.5676140065040727
  0
ARC
  5
873F
  8
0
 10
407.8699237092973249
 20
41.8792282088057704
 30
0.0
 40
0.2973295848389337
 50
0.3490567024193208
 51
37.7489846988842714
  0
ARC
  5
8740
  8
0
 10
407.8996732491372086
 20
41.8861575260226218
 30
0.0
 40
0.2676234687116831
 50
342.2872199364804828
 51
358.9042281425311103
  0
ARC
  5
8741
  8
0
 10
407.6887330154585811
 20
41.7168708647084117
 30
0.0
 40
0.5402747323327873
 50
39.5999191199195621
 51
56.8150346752035986
  0
ARC
  5
8742
  8
0
 10
411.0281078577639846
 20
47.4359133145746767
 30
0.0
 40
6.0830837474589172
 50
236.9660359539435888
 51
239.9769725262175086
  0
ARC
  5
8743
  8
0
 10
407.7886448905049974
 20
42.4853306069996108
 30
0.0
 40
0.1676960782295467
 50
138.8327287074714889
 51
242.8030757443611094
  0
ARC
  5
8744
  8
0
 10
406.9539128975054041
 20
43.3027266540338687
 30
0.0
 40
1.0009104728268881
 50
315.060043585615972
 51
319.330178292135372
  0
ARC
  5
8745
  8
0
 10
407.6615638881166888
 20
42.6856399682174015
 30
0.0
 40
0.0623976685138738
 50
325.6522428935795119
 51
90.052543808340701
  0
ARC
  5
8746
  8
0
 10
406.4888698787340218
 20
44.0352001578229135
 30
0.0
 40
1.002967866499094
 50
265.9989800151864188
 51
269.0502530790939204
  0
ARC
  5
8747
  8
0
 10
406.4843067878554166
 20
43.5121845112403633
 30
0.0
 40
0.4819680882402217
 50
240.4446794228065016
 51
262.1990824196594758
  0
ARC
  5
8748
  8
0
 10
402.4110510875805176
 20
36.119474705336998
 30
0.0
 40
7.9586608381013253
 50
61.1884629696003586
 51
66.1918741298752451
  0
ARC
  5
8749
  8
0
 10
403.3883374725641033
 20
38.4637089537020529
 30
0.0
 40
5.4196603681700877
 50
65.6401508637249265
 51
74.5013714207702265
  0
ARC
  5
874A
  8
0
 10
404.3933900795302065
 20
41.886496174838463
 30
0.0
 40
1.853554432528262
 50
76.1672485126002243
 51
99.1390208851771604
  0
ARC
  5
874B
  8
0
 10
404.3755003565506172
 20
42.4267560161621731
 30
0.0
 40
1.3190728032968131
 50
102.1004047899563005
 51
119.5670261329600947
  0
ARC
  5
874C
  8
0
 10
404.0435021904576729
 20
43.069948251905501
 30
0.0
 40
0.5965026655528982
 50
122.3164047788798001
 51
147.5508384935874915
  0
ARC
  5
874D
  8
0
 10
403.8232358197616918
 20
43.2285246766579832
 30
0.0
 40
0.3259177683750872
 50
150.3002171395081916
 51
156.6756758473846958
  0
ARC
  5
874E
  8
0
 10
403.6491477290115881
 20
43.2989219883496119
 30
0.0
 40
0.1382500221492519
 50
154.9002359182910027
 51
200.6617260710443134
  0
ARC
  5
874F
  8
0
 10
403.6025792188829087
 20
43.2840763469853087
 30
0.0
 40
0.0894746045317427
 50
202.2890461576332939
 51
215.1209152045622091
  0
ARC
  5
8750
  8
0
 10
403.587255392475015
 20
43.2832611451714868
 30
0.0
 40
0.0769046190210637
 50
221.2035870093004064
 51
272.5221358546057786
  0
ARC
  5
8751
  8
0
 10
403.5900080285164222
 20
44.0049868872681174
 30
0.0
 40
0.7985561129838239
 50
270.0453153349964737
 51
280.9922993205349258
  0
ARC
  5
8752
  8
0
 10
397.0168421713460134
 20
81.1580564568516252
 30
0.0
 40
38.5285020083915128
 50
280.0528981089706235
 51
280.7087089669477109
  0
ARC
  5
8753
  8
0
 10
404.5316516987368232
 20
41.2801412551196876
 30
0.0
 40
2.0514585241546568
 50
76.3877452787454132
 51
99.9820343264540696
  0
ARC
  5
8754
  8
0
 10
404.0673115084032929
 20
39.2797775975935934
 30
0.0
 40
4.1049620594935243
 50
66.5881475860006304
 51
76.6597591116538837
  0
ARC
  5
8755
  8
0
 10
404.5972856334299763
 20
40.4978614617092489
 30
0.0
 40
2.7765823340742091
 50
56.6116429482050805
 51
66.6366814219728383
  0
ARC
  5
8756
  8
0
 10
406.329362642126398
 20
43.086855092147033
 30
0.0
 40
0.3389843331891391
 50
232.9815602033368123
 51
268.2022440477323926
  0
ARC
  5
8757
  8
0
 10
406.0780896424337811
 20
41.8792282088057704
 30
0.0
 40
0.2973295848389351
 50
142.2510153010846921
 51
180.4088121244153911
  0
ARC
  5
8758
  8
0
 10
406.0536974871893108
 20
41.8874703063492575
 30
0.0
 40
0.2731265503161103
 50
182.1745629951406045
 51
197.6331875061387109
  0
LINE
  5
875A
  8
0
 10
412.2240066758898251
 20
41.0728073367426489
 30
0.0
 11
412.2240066758898251
 21
41.0234785553929484
 31
0.0
  0
LINE
  5
875B
  8
0
 10
409.7239959423635014
 20
41.0754315761874977
 30
0.0
 11
409.7239959423635014
 21
41.0234785553929484
 31
0.0
  0
LINE
  5
875C
  8
0
 10
414.4188778321635027
 20
43.0323700812929388
 30
0.0
 11
415.4757573849543064
 21
43.0323700812929388
 31
0.0
  0
LINE
  5
875D
  8
0
 10
415.5291140525635001
 20
43.0717401600929506
 30
0.0
 11
414.4188778321635027
 21
43.0717401600929506
 31
0.0
  0
LINE
  5
875E
  8
0
 10
414.4187961283635104
 20
43.0768582702929521
 30
0.0
 11
415.5291957563634924
 21
43.0768582702929521
 31
0.0
  0
LINE
  5
875F
  8
0
 10
414.4188778321635027
 20
43.0323700812929388
 30
0.0
 11
414.4188778321635027
 21
43.0717401600929506
 31
0.0
  0
LINE
  5
8760
  8
0
 10
414.4621849187635121
 20
43.0717401600929506
 30
0.0
 11
414.4621849187635121
 21
43.0768582702929521
 31
0.0
  0
LINE
  5
8761
  8
0
 10
415.4858069659634907
 20
43.0717401600929506
 30
0.0
 11
415.4858069659634907
 21
43.0768582702929521
 31
0.0
  0
LINE
  5
8762
  8
0
 10
415.5291140525635001
 20
43.0346767162929424
 30
0.0
 11
415.5291140525635001
 21
43.0717401600929506
 31
0.0
  0
ARC
  5
8763
  8
0
 10
414.9359560920844956
 20
42.1379295531075968
 30
0.0
 40
1.2395125639923881
 50
74.9855847530460835
 51
88.2413529248700286
  0
ARC
  5
8764
  8
0
 10
414.9964308297189177
 20
42.2437783272248595
 30
0.0
 40
1.1333020256703339
 50
91.1343033904527431
 51
105.6387589315954045
  0
ARC
  5
8765
  8
0
 10
414.993613835063627
 20
42.4535720072929408
 30
0.0
 40
0.9200787401999999
 50
62.5506631609524035
 51
73.3611934266404973
  0
ARC
  5
8766
  8
0
 10
414.9543780496634895
 20
42.4535720072929408
 30
0.0
 40
0.9200787401999999
 50
106.6388065733185044
 51
117.4493368390476036
  0
ARC
  5
8767
  8
0
 10
414.6752258421635133
 20
42.9869108224929377
 30
0.0
 40
0.3181102362
 50
117.1116476658722974
 51
133.1523445369847138
  0
ARC
  5
8768
  8
0
 10
415.2727660425634895
 20
42.9869108224929377
 30
0.0
 40
0.3181102362
 50
46.8476554629431376
 51
62.8883523341276671
  0
ARC
  5
8769
  8
0
 10
414.6139353506634961
 20
43.073829522992952
 30
0.0
 40
0.2161417323
 50
159.5635873688474078
 51
173.3607704361093909
  0
ARC
  5
876A
  8
0
 10
415.3340565340635067
 20
43.073829522992952
 30
0.0
 40
0.2161417323
 50
6.6392295638905878
 51
20.4364126311525389
  0
ARC
  5
876B
  8
0
 10
415.3572357650634785
 20
43.0804306045929408
 30
0.0
 40
0.1921259843
 50
21.0053735415853708
 51
46.1503642601957083
  0
ARC
  5
876C
  8
0
 10
414.5907561196635811
 20
43.0804306045929408
 30
0.0
 40
0.1921259843
 50
133.849635739683805
 51
158.9946264584148139
  0
ARC
  5
876D
  8
0
 10
414.4259213005419724
 20
42.8725879356433666
 30
0.0
 40
0.1599373143302715
 50
92.5240612117721071
 51
231.1457784561085873
  0
ARC
  5
876E
  8
0
 10
414.4187961283635104
 20
43.0965433096929402
 30
0.0
 40
0.0196850394
 50
173.3607704361091919
 51
270.0
  0
ARC
  5
876F
  8
0
 10
415.5291957563634924
 20
43.0965433096929402
 30
0.0
 40
0.0196850394
 50
270.0
 51
6.6392295638907912
  0
LINE
  5
8770
  8
0
 10
416.1747833439634974
 20
41.0234785553929484
 30
0.0
 11
413.7732085407635054
 21
41.0234785553929484
 31
0.0
  0
LINE
  5
8771
  8
0
 10
416.1039106617635071
 20
41.2203289490929521
 30
0.0
 11
413.8440812229634957
 21
41.2203289490929521
 31
0.0
  0
LINE
  5
8772
  8
0
 10
413.9032954841634933
 20
41.6339419709929501
 30
0.0
 11
416.0446964005635095
 21
41.6339419709929501
 31
0.0
  0
LINE
  5
8773
  8
0
 10
415.7574605093635114
 20
41.6339419709929501
 30
0.0
 11
415.7574605093635114
 21
41.5589116262929394
 31
0.0
  0
LINE
  5
8774
  8
0
 10
416.2141534226635144
 20
41.1100927285929387
 30
0.0
 11
416.2141534226635144
 21
41.0628486341929388
 31
0.0
  0
ARC
  5
8775
  8
0
 10
416.0960431864634756
 20
41.5589116262929394
 30
0.0
 40
0.3385826772
 50
180.0
 51
270.0
  0
ARC
  5
8776
  8
0
 10
416.1039172022635171
 20
41.1100927285929387
 30
0.0
 40
0.1102362205
 50
0.0
 51
90.0
  0
ARC
  5
8777
  8
0
 10
416.1747833439634974
 20
41.0628486341929388
 30
0.0
 40
0.0393700787
 50
270.0
 51
0.0
  0
ARC
  5
8778
  8
0
 10
416.0446964005635095
 20
41.6639419709929513
 30
0.0
 40
0.03
 50
270.0
 51
324.6790791340113174
  0
ARC
  5
8779
  8
0
 10
415.6095639066426202
 20
41.9970177589661873
 30
0.0
 40
0.5779585750328741
 50
322.6770329372566835
 51
340.5676140064925903
  0
ARC
  5
877A
  8
0
 10
415.6887222819564727
 20
41.7168708647084117
 30
0.0
 40
0.5402747323327873
 50
39.5999191199382068
 51
56.8150346752035986
  0
ARC
  5
877B
  8
0
 10
419.0280971242619898
 20
47.4359133145746767
 30
0.0
 40
6.0830837474589172
 50
236.9660359539435888
 51
239.9769725262175086
  0
ARC
  5
877C
  8
0
 10
415.788634157002889
 20
42.4853306069996108
 30
0.0
 40
0.1676960782295467
 50
138.8327287074712899
 51
242.8030757443611094
  0
ARC
  5
877D
  8
0
 10
414.9539021640034093
 20
43.3027266540338687
 30
0.0
 40
1.0009104728268881
 50
315.0600435856159152
 51
319.330178292135372
  0
ARC
  5
877E
  8
0
 10
415.661553154614694
 20
42.6856399682174015
 30
0.0
 40
0.0623976685138738
 50
325.6522428935792846
 51
90.052543808340701
  0
LINE
  5
877F
  8
0
 10
415.6614959325124801
 20
42.7480376104929505
 30
0.0
 11
414.2864959527112774
 21
42.7480376104929505
 31
0.0
  0
LINE
  5
8780
  8
0
 10
414.1905313753634914
 20
41.6339419709929501
 30
0.0
 11
414.1905313753634914
 21
41.5589116262929394
 31
0.0
  0
LINE
  5
8781
  8
0
 10
413.7338384620634884
 20
41.1100927285929387
 30
0.0
 11
413.7338384620634884
 21
41.0628486341929388
 31
0.0
  0
ARC
  5
8782
  8
0
 10
413.851948698263584
 20
41.5589116262929394
 30
0.0
 40
0.3385826772
 50
270.0
 51
0.0
  0
ARC
  5
8783
  8
0
 10
413.8440746824634857
 20
41.1100927285929387
 30
0.0
 40
0.1102362205
 50
90.0
 51
180.0
  0
ARC
  5
8784
  8
0
 10
413.7732085407635054
 20
41.0628486341929388
 30
0.0
 40
0.0393700787
 50
180.0
 51
270.0
  0
ARC
  5
8785
  8
0
 10
413.9032954841634933
 20
41.6639419709929513
 30
0.0
 40
0.03
 50
215.3209208659887111
 51
270.0
  0
ARC
  5
8786
  8
0
 10
414.3384279780843826
 20
41.9970177589661873
 30
0.0
 40
0.5779585750328741
 50
199.4323859934955863
 51
217.3229670627430892
  0
ARC
  5
8787
  8
0
 10
414.0780789089316727
 20
41.8792282088057704
 30
0.0
 40
0.2973295848389337
 50
142.2510153011158991
 51
179.6509432975807101
  0
ARC
  5
8788
  8
0
 10
414.0483293690919027
 20
41.8861575260226218
 30
0.0
 40
0.2676234687116831
 50
181.0957718574686908
 51
197.7127800635194035
  0
ARC
  5
8789
  8
0
 10
414.2592696027704733
 20
41.7168708647084117
 30
0.0
 40
0.5402747323327873
 50
123.1849653247963943
 51
140.4000808800803952
  0
ARC
  5
878A
  8
0
 10
410.9198947604648993
 20
47.4359133145746767
 30
0.0
 40
6.0830837474589172
 50
300.0230274737825198
 51
303.0339640460563828
  0
ARC
  5
878B
  8
0
 10
414.1593577277241138
 20
42.4853306069996108
 30
0.0
 40
0.1676960782295467
 50
297.196924255638919
 51
41.1672712925284969
  0
ARC
  5
878C
  8
0
 10
414.9940897207237072
 20
43.3027266540338687
 30
0.0
 40
1.0009104728268881
 50
220.6698217078645996
 51
224.9399564143839996
  0
ARC
  5
878D
  8
0
 10
414.2864387301123088
 20
42.6856399682174015
 30
0.0
 40
0.0623976685138738
 50
89.947456191659299
 51
214.3477571064204881
  0
ARC
  5
878E
  8
0
 10
415.4591327394950895
 20
44.0352001578229135
 30
0.0
 40
1.002967866499094
 50
270.9497469209060228
 51
274.0010199848135812
  0
ARC
  5
878F
  8
0
 10
415.463695830373581
 20
43.5121845112403633
 30
0.0
 40
0.4819680882402217
 50
277.8009175803405242
 51
299.5553205771935268
  0
ARC
  5
8790
  8
0
 10
419.5369515306485937
 20
36.119474705336998
 30
0.0
 40
7.9586608381013253
 50
113.8081258701246981
 51
118.8115370303996059
  0
ARC
  5
8791
  8
0
 10
418.5596651456648942
 20
38.4637089537020529
 30
0.0
 40
5.4196603681700877
 50
105.498628579229802
 51
114.359849136275102
  0
ARC
  5
8792
  8
0
 10
417.5546125386989047
 20
41.886496174838463
 30
0.0
 40
1.853554432528262
 50
80.8609791148228254
 51
103.8327514873997046
  0
ARC
  5
8793
  8
0
 10
417.5725022616783804
 20
42.4267560161621731
 30
0.0
 40
1.3190728032968131
 50
60.4329738670398271
 51
77.8995952100437137
  0
ARC
  5
8794
  8
0
 10
417.9045004277713247
 20
43.069948251905501
 30
0.0
 40
0.5965026655528982
 50
32.4491615064124588
 51
57.6835952211202212
  0
ARC
  5
8795
  8
0
 10
418.1247667984674194
 20
43.2285246766579832
 30
0.0
 40
0.3259177683750872
 50
23.3243241526152687
 51
29.6997828604917515
  0
ARC
  5
8796
  8
0
 10
418.2988548892175231
 20
43.2989219883496119
 30
0.0
 40
0.1382500221492519
 50
339.3382739289555161
 51
25.0997640817090399
  0
ARC
  5
8797
  8
0
 10
418.3454233993462026
 20
43.2840763469853087
 30
0.0
 40
0.0894746045317427
 50
324.8790847954376204
 51
337.7109538423666208
  0
ARC
  5
8798
  8
0
 10
418.3607472257539825
 20
43.2832611451714868
 30
0.0
 40
0.0769046190210637
 50
267.4778641453942214
 51
318.7964129906994799
  0
ARC
  5
8799
  8
0
 10
418.357994589712689
 20
44.0049868872681174
 30
0.0
 40
0.7985561129838239
 50
259.0077006794650174
 51
269.9546846650035263
  0
ARC
  5
879A
  8
0
 10
424.9311604468830978
 20
81.1580564568516252
 30
0.0
 40
38.5285020083915128
 50
259.2912910330522891
 51
259.9471018910293765
  0
ARC
  5
879B
  8
0
 10
417.4163509194921744
 20
41.2801412551196876
 30
0.0
 40
2.0514585241546568
 50
80.0179656735459446
 51
103.6122547212545015
  0
ARC
  5
879C
  8
0
 10
417.8806911098257046
 20
39.2797775975935934
 30
0.0
 40
4.1049620594935243
 50
103.3402408883461021
 51
113.411852413999398
  0
ARC
  5
879D
  8
0
 10
417.3507169847991918
 20
40.4978614617092489
 30
0.0
 40
2.7765823340742091
 50
113.3633185780271049
 51
123.3883570517948982
  0
ARC
  5
879E
  8
0
 10
415.6186399761025996
 20
43.086855092147033
 30
0.0
 40
0.3389843331891391
 50
271.7977559522676074
 51
307.018439796663074
  0
ARC
  5
879F
  8
0
 10
415.8699129757952733
 20
41.8792282088057704
 30
0.0
 40
0.2973295848389351
 50
359.59118787558441
 51
37.7489846989152298
  0
ARC
  5
87A0
  8
0
 10
415.8943051310398005
 20
41.8874703063492575
 30
0.0
 40
0.2731265503161103
 50
342.3668124938611754
 51
357.825437004859225
  0
LINE
  5
87A1
  8
0
 10
411.4858610925355151
 20
44.6640750463862091
 30
0.0
 11
411.4858611929454923
 21
44.6692141418156865
 31
0.0
  0
LINE
  5
87A2
  8
0
 10
410.4622390450438729
 20
44.6640749960980514
 30
0.0
 11
410.4622391454548165
 21
44.6692141418156865
 31
0.0
  0
ENDSEC
  0
EOF
