  0
SECTION
  2
HEADER
  9
$ACADVER
  1
AC1009
  9
$INSBASE
 10
410.5533530349969737
 20
33.7483662649331393
 30
0.0
  9
$EXTMIN
 10
403.0885280964636763
 20
27.9528224166502497
 30
-0.000000000000013
  9
$EXTMAX
 10
418.0193155489599803
 20
35.000391639595037
 30
0.0000000000000023
  9
$LIMMIN
 10
0.0
 20
0.0
  9
$LIMMAX
 10
11.6929133858000007
 20
8.2677165353999982
  9
$ORTHOMODE
 70
     0
  9
$REGENMODE
 70
     1
  9
$FILLMODE
 70
     1
  9
$QTEXTMODE
 70
     0
  9
$MIRRTEXT
 70
     0
  9
$DRAGMODE
 70
     2
  9
$LTSCALE
 40
0.6431102362
  9
$OSMODE
 70
  4095
  9
$ATTMODE
 70
     1
  9
$TEXTSIZE
 40
0.2
  9
$TRACEWID
 40
0.05
  9
$TEXTSTYLE
  7
STANDARD
  9
$CLAYER
  8
0
  9
$CELTYPE
  6
BYLAYER
  9
$CECOLOR
 62
   256
  9
$DIMSCALE
 40
1.0
  9
$DIMASZ
 40
0.1875
  9
$DIMEXO
 40
0.0625
  9
$DIMDLI
 40
0.4443307087
  9
$DIMRND
 40
0.0
  9
$DIMDLE
 40
0.0
  9
$DIMEXE
 40
0.125
  9
$DIMTP
 40
0.01
  9
$DIMTM
 40
0.01
  9
$DIMTXT
 40
1.0
  9
$DIMCEN
 40
0.1052362205
  9
$DIMTSZ
 40
0.0
  9
$DIMTOL
 70
     1
  9
$DIMLIM
 70
     0
  9
$DIMTIH
 70
     0
  9
$DIMTOH
 70
     1
  9
$DIMSE1
 70
     0
  9
$DIMSE2
 70
     0
  9
$DIMTAD
 70
     0
  9
$DIMZIN
 70
     0
  9
$DIMBLK
  1

  9
$DIMASO
 70
     1
  9
$DIMSHO
 70
     1
  9
$DIMPOST
  1
\X
  9
$DIMAPOST
  1

  9
$DIMALT
 70
     1
  9
$DIMALTD
 70
     2
  9
$DIMALTF
 40
25.3999999999999986
  9
$DIMLFAC
 40
1.0
  9
$DIMTOFL
 70
     0
  9
$DIMTVP
 40
0.0
  9
$DIMTIX
 70
     0
  9
$DIMSOXD
 70
     0
  9
$DIMSAH
 70
     0
  9
$DIMBLK1
  1

  9
$DIMBLK2
  1

  9
$DIMSTYLE
  2
STANDARD
  9
$DIMCLRD
 70
     0
  9
$DIMCLRE
 70
     0
  9
$DIMCLRT
 70
     0
  9
$DIMTFAC
 40
1.0
  9
$DIMGAP
 40
0.09
  9
$LUNITS
 70
     2
  9
$LUPREC
 70
     4
  9
$SKETCHINC
 40
0.1
  9
$FILLETRAD
 40
0.0
  9
$AUNITS
 70
     0
  9
$AUPREC
 70
     0
  9
$MENU
  1
.
  9
$ELEVATION
 40
0.0
  9
$PELEVATION
 40
0.0
  9
$THICKNESS
 40
0.0
  9
$LIMCHECK
 70
     0
  9
$BLIPMODE
 70
     0
  9
$CHAMFERA
 40
0.0
  9
$CHAMFERB
 40
0.0
  9
$SKPOLY
 70
     0
  9
$TDCREATE
 40
2458172.5207638889551163
  9
$TDUPDATE
 40
2459062.40570601914078
  9
$TDINDWG
 40
0.1534928704
  9
$TDUSRTIMER
 40
0.1534928704
  9
$USRTIMER
 70
     1
  9
$ANGBASE
 50
0.0
  9
$ANGDIR
 70
     0
  9
$PDMODE
 70
     0
  9
$PDSIZE
 40
0.3125
  9
$PLINEWID
 40
0.0
  9
$COORDS
 70
     1
  9
$SPLFRAME
 70
     0
  9
$SPLINETYPE
 70
     6
  9
$SPLINESEGS
 70
     8
  9
$ATTDIA
 70
     1
  9
$ATTREQ
 70
     1
  9
$HANDLING
 70
     1
  9
$HANDSEED
  5
82CA
  9
$SURFTAB1
 70
     6
  9
$SURFTAB2
 70
     6
  9
$SURFTYPE
 70
     6
  9
$SURFU
 70
     6
  9
$SURFV
 70
     6
  9
$UCSNAME
  2

  9
$UCSORG
 10
0.0
 20
0.0
 30
0.0
  9
$UCSXDIR
 10
1.0
 20
0.0
 30
0.0
  9
$UCSYDIR
 10
0.0
 20
1.0
 30
0.0
  9
$PUCSNAME
  2

  9
$PUCSORG
 10
0.0
 20
0.0
 30
0.0
  9
$PUCSXDIR
 10
1.0
 20
0.0
 30
0.0
  9
$PUCSYDIR
 10
0.0
 20
1.0
 30
0.0
  9
$USERI1
 70
     0
  9
$USERI2
 70
     0
  9
$USERI3
 70
     0
  9
$USERI4
 70
     0
  9
$USERI5
 70
     0
  9
$USERR1
 40
0.0
  9
$USERR2
 40
0.0
  9
$USERR3
 40
0.0
  9
$USERR4
 40
0.0
  9
$USERR5
 40
0.0
  9
$WORLDVIEW
 70
     1
  9
$SHADEDGE
 70
     3
  9
$SHADEDIF
 70
    70
  9
$TILEMODE
 70
     1
  9
$MAXACTVP
 70
    64
  9
$PLIMCHECK
 70
     0
  9
$PEXTMIN
 10
1.0000000000000000E+20
 20
1.0000000000000000E+20
 30
1.0000000000000000E+20
  9
$PEXTMAX
 10
-1.0000000000000000E+20
 20
-1.0000000000000000E+20
 30
-1.0000000000000000E+20
  9
$PLIMMIN
 10
0.0
 20
0.0
  9
$PLIMMAX
 10
12.0
 20
9.0
  9
$UNITMODE
 70
     0
  9
$VISRETAIN
 70
     1
  9
$PLINEGEN
 70
     0
  9
$PSLTSCALE
 70
     1
  0
ENDSEC
  0
SECTION
  2
TABLES
  0
TABLE
  2
VPORT
 70
     1
  0
VPORT
  2
*ACTIVE
 70
     0
 10
0.0
 20
0.0
 11
1.0
 21
1.0
 12
36.7327853481025386
 22
-10.4098411041408205
 13
0.0
 23
0.0
 14
1.0
 24
1.0
 15
0.0
 25
0.0
 16
0.0
 26
0.0
 36
25.5757211105568096
 17
373.821136474609375
 27
41.8864481322634603
 37
0.0
 40
7.4691988601037789
 41
2.005224660397074
 42
50.0
 43
0.0
 44
0.0
 50
0.0
 51
0.0
 71
     0
 72
   100
 73
     1
 74
     1
 75
     0
 76
     0
 77
     0
 78
     0
  0
ENDTAB
  0
TABLE
  2
LTYPE
 70
     2
  0
LTYPE
  2
CONTINUOUS
 70
     0
  3
Solid line
 72
    65
 73
     0
 40
0.0
  0
LTYPE
  2
PHANTOM2
 70
     0
  3
___ _ _ ___ _ _ ___ _ _ ___ _ _
 72
    65
 73
     6
 40
1.25
 49
0.625
 49
-0.125
 49
0.125
 49
-0.125
 49
0.125
 49
-0.125
  0
ENDTAB
  0
TABLE
  2
LAYER
 70
     2
  0
LAYER
  2
0
 70
     0
 62
   255
  6
CONTINUOUS
  0
LAYER
  2
DEFPOINTS
 70
     0
 62
     7
  6
CONTINUOUS
  0
ENDTAB
  0
TABLE
  2
STYLE
 70
     1
  0
STYLE
  2
STANDARD
 70
     0
 40
0.0
 41
0.8
 50
0.0
 71
     0
 42
0.2
  3
txt
  4

  0
ENDTAB
  0
TABLE
  2
VIEW
 70
     0
  0
ENDTAB
  0
TABLE
  2
UCS
 70
     0
  0
ENDTAB
  0
TABLE
  2
APPID
 70
    10
  0
APPID
  2
ACAD
 70
     0
  0
APPID
  2
ACAD_MLEADERVER
 70
     0
  0
APPID
  2
ACAD_EXEMPT_FROM_CAD_STANDARDS
 70
     0
  0
APPID
  2
ACAD_DSTYLE_DIMJAG
 70
     0
  0
APPID
  2
ACAD_DSTYLE_DIMTALN
 70
     0
  0
APPID
  2
ACAD_NAV_VCDISPLAY
 70
     0
  0
APPID
  2
ACAECLAYERSTANDARD
 70
     0
  0
APPID
  2
ACCMTRANSPARENCY
 70
     0
  0
APPID
  2
DCO15
 70
     0
  0
APPID
  2
ACDBATTR
 70
     0
  0
ENDTAB
  0
TABLE
  2
DIMSTYLE
 70
     1
  0
DIMSTYLE
  2
STANDARD
 70
     0
  3

  4

  5

  6

  7

 40
1.0
 41
0.1875
 42
0.0625
 43
0.38
 44
0.125
 45
0.0
 46
0.0
 47
0.01
 48
0.01
140
0.15625
141
0.09
142
0.0
143
25.3999999999999986
144
1.0
145
0.0
146
1.0
147
0.09
 71
     1
 72
     0
 73
     1
 74
     1
 75
     0
 76
     0
 77
     0
 78
     4
170
     0
171
     2
172
     0
173
     0
174
     0
175
     0
176
     0
177
     0
178
     0
  0
ENDTAB
  0
ENDSEC
  0
SECTION
  2
BLOCKS
  0
BLOCK
  8
0
  2
$MODEL_SPACE
 70
     0
 10
0.0
 20
0.0
 30
0.0
  3
$MODEL_SPACE
  1

  0
ENDBLK
  5
21
  8
0
  0
BLOCK
 67
     1
  8
0
  2
$PAPER_SPACE
 70
     0
 10
0.0
 20
0.0
 30
0.0
  3
$PAPER_SPACE
  1

  0
ENDBLK
  5
1D
 67
     1
  8
0
  0
ENDSEC
  0
SECTION
  2
ENTITIES
  0
ATTDEF
  5
829
  8
DEFPOINTS
 10
410.5485907590191914
 20
33.7445271305108605
 30
0.0
 40
0.001
  1
K-8658T-B
  3

  2
MODELNUMBER
 70
     0
1001
ACDBATTR
1070
     0
1070
     1
  0
ATTDEF
  5
82A
  8
DEFPOINTS
 10
410.5485907590191914
 20
33.7428604638441882
 30
0.0
 40
0.001
  1
FAIRFAX
  3

  2
TRADENAME
 70
     0
1001
ACDBATTR
1070
     0
1070
     1
  0
ATTDEF
  5
82B
  8
DEFPOINTS
 10
410.5485907590191914
 20
33.7411937971775302
 30
0.0
 40
0.001
  1
BATHROOM SINK FAUCET
  3

  2
PRODUCT
 70
     0
1001
ACDBATTR
1070
     0
1070
     1
  0
ARC
  5
81B5
  8
0
 10
410.5533530350090814
 20
33.7483478981700102
 30
0.0
 40
1.2500053667631339
 50
90.0
 51
240.6443877777875002
  0
LINE
  5
81B6
  8
0
 10
410.0547183412959953
 20
28.5201805437974087
 30
0.0
 11
410.0547183412959953
 21
31.7234941207366283
 31
0.0
  0
ARC
  5
81B7
  8
0
 10
387.885477680801273
 20
30.2910627315264911
 30
0.0
 40
22.2154696359929602
 50
3.6969396044031111
 51
4.9617650533115993
  0
ARC
  5
81B8
  8
0
 10
407.3448954681016971
 20
31.980456782388579
 30
0.0
 40
2.6828560658689891
 50
4.9617650533115993
 51
17.9799625138234695
  0
ARC
  5
81B9
  8
0
 10
410.5537182690492273
 20
28.5808368899991088
 30
0.0
 40
0.6263237315571536
 50
209.5001862275273936
 51
269.966588572079786
  0
ARC
  5
81BA
  8
0
 10
410.5116885562969173
 20
28.548802247899669
 30
0.0
 40
0.5733850107764363
 50
142.8416527745127098
 51
179.9492323443791975
  0
ARC
  5
81BB
  8
0
 10
410.5911162533898278
 20
28.5676638769404789
 30
0.0
 40
0.653070433689071
 50
181.6104247710376001
 51
206.8777283784245071
  0
ARC
  5
81BC
  8
0
 10
410.5542033981578811
 20
28.6167765357745196
 30
0.0
 40
0.5352335320613308
 50
232.9433939563215006
 51
269.9083964919838081
  0
ARC
  5
81BD
  8
0
 10
410.5236614425764969
 20
28.5585877173380496
 30
0.0
 40
0.4705132763460823
 50
184.6821635196288014
 51
231.6413976375075094
  0
ARC
  5
81BE
  8
0
 10
410.5088835233976283
 20
28.5718530133132695
 30
0.0
 40
0.4693177011953239
 50
165.4010359002307098
 51
200.6661108403116884
  0
ARC
  5
81BF
  8
0
 10
410.5207159821113123
 20
28.5763161307351687
 30
0.0
 40
0.4819639060146577
 50
200.6661108403116884
 51
229.8416186686837932
  0
ARC
  5
81C0
  8
0
 10
404.2194980491992737
 20
30.8362928913979211
 30
0.0
 40
6.0100783110425144
 50
19.1576611189249206
 51
21.8920184975773218
  0
ARC
  5
81C1
  8
0
 10
410.5533190195720863
 20
33.7483478602131086
 30
0.0
 40
1.0117797503397139
 50
180.0002968331361899
 51
221.5544977515802998
  0
ARC
  5
81C2
  8
0
 10
410.5531894074104002
 20
33.7483684570756068
 30
0.0
 40
1.011650138494391
 50
89.9907327933811843
 51
180.0014633943034141
  0
ARC
  5
81C3
  8
0
 10
408.6028309119053006
 20
32.2564652163545418
 30
0.0
 40
1.415549920099733
 50
358.2201587282614241
 51
9.4895759133169051
  0
ARC
  5
81C4
  8
0
 10
406.8113969168973085
 20
31.9570170183499584
 30
0.0
 40
3.2318387137001849
 50
9.4895759133170063
 51
19.7020772125686285
  0
ARC
  5
81C5
  8
0
 10
414.1737879446274064
 20
34.5934357940766972
 30
0.0
 40
4.5883598519504947
 50
195.9239146632610868
 51
199.7020772125686108
  0
ARC
  5
81C6
  8
0
 10
410.9484410799200873
 20
33.7782632932047093
 30
0.0
 40
1.267161247426875
 50
186.0346173673227099
 51
200.4963076931622936
  0
ARC
  5
81C7
  8
0
 10
410.7738360502536921
 20
33.7533505715893014
 30
0.0
 40
1.090923605988708
 50
168.2012737035541932
 51
185.6975098252563896
  0
ARC
  5
81C8
  8
0
 10
410.6883379359890114
 20
33.7754124984844708
 30
0.0
 40
1.0027292426156369
 50
132.0702378535686137
 51
168.4363267570157063
  0
ARC
  5
81C9
  8
0
 10
410.5653234667888114
 20
33.9116975567786625
 30
0.0
 40
0.8191368224375231
 50
90.8373199868692325
 51
132.0702378535685
  0
ARC
  5
81CA
  8
0
 10
410.5533530350090814
 20
33.7483478981700102
 30
0.0
 40
1.2500053667631339
 50
299.3556122222124145
 51
90.0
  0
LINE
  5
81CB
  8
0
 10
411.0519877287222243
 20
28.5201805437974087
 30
0.0
 11
411.0519877287222243
 21
31.7234941207366283
 31
0.0
  0
ARC
  5
81CC
  8
0
 10
433.2212283892170035
 20
30.2910627315264911
 30
0.0
 40
22.2154696359929602
 50
175.0382349466883909
 51
176.3030603955969013
  0
ARC
  5
81CD
  8
0
 10
413.7618106019165225
 20
31.980456782388579
 30
0.0
 40
2.6828560658689891
 50
162.0200374861765056
 51
175.0382349466885046
  0
ARC
  5
81CE
  8
0
 10
410.552987800969106
 20
28.5808368899991017
 30
0.0
 40
0.6263237315571498
 50
270.0334114279201003
 51
330.499813772472919
  0
ARC
  5
81CF
  8
0
 10
410.5950165993112932
 20
28.5488017641328184
 30
0.0
 40
0.5733860317378926
 50
0.0616232790401843
 51
37.1583305604920824
  0
ARC
  5
81D0
  8
0
 10
410.5156487051460772
 20
28.5676417884515317
 30
0.0
 40
0.6530079207973428
 50
333.1216644120951855
 51
358.4008531940958164
  0
ARC
  5
81D1
  8
0
 10
410.5525026718603954
 20
28.6167765357745196
 30
0.0
 40
0.5352335320613308
 50
270.0916035080160782
 51
307.0566060436783005
  0
ARC
  5
81D2
  8
0
 10
410.5830446274417795
 20
28.5585877173380496
 30
0.0
 40
0.4705132763460823
 50
308.3586023624924906
 51
355.317836480371227
  0
ARC
  5
81D3
  8
0
 10
410.5978225466205913
 20
28.5718530133132695
 30
0.0
 40
0.4693177011953239
 50
339.3338891596882263
 51
14.5989640997692902
  0
ARC
  5
81D4
  8
0
 10
410.5859900879069073
 20
28.5763161307351687
 30
0.0
 40
0.4819639060146577
 50
310.1583813313163205
 51
339.3338891596882263
  0
ARC
  5
81D5
  8
0
 10
416.8872080208188891
 20
30.8362928913979211
 30
0.0
 40
6.0100783110425144
 50
158.1079815024226036
 51
160.8423388810751078
  0
ARC
  5
81D6
  8
0
 10
410.5533870504460765
 20
33.7483478602131086
 30
0.0
 40
1.0117797503397139
 50
318.4455022484195865
 51
359.9997031668636964
  0
ARC
  5
81D7
  8
0
 10
410.5535166626078194
 20
33.7483684570756068
 30
0.0
 40
1.011650138494391
 50
359.9985366056964722
 51
90.00926720661883
  0
ARC
  5
81D8
  8
0
 10
412.5038751581128054
 20
32.2564652163545418
 30
0.0
 40
1.415549920099733
 50
170.5104240866830878
 51
181.7798412717386043
  0
ARC
  5
81D9
  8
0
 10
414.2953091531209111
 20
31.9570170183499584
 30
0.0
 40
3.2318387137001849
 50
160.2979227874313892
 51
170.5104240866830025
  0
ARC
  5
81DA
  8
0
 10
406.9329181253908132
 20
34.5934357940766972
 30
0.0
 40
4.5883598519504947
 50
340.2979227874313892
 51
344.0760853367387995
  0
ARC
  5
81DB
  8
0
 10
410.1582649900980755
 20
33.7782632932047093
 30
0.0
 40
1.267161247426875
 50
339.5036923068375927
 51
353.9653826326771195
  0
ARC
  5
81DC
  8
0
 10
410.3328700197645276
 20
33.7533505715893014
 30
0.0
 40
1.090923605988708
 50
354.302490174743582
 51
11.7987262964458299
  0
ARC
  5
81DD
  8
0
 10
410.4183681340292082
 20
33.7754124984844708
 30
0.0
 40
1.0027292426156369
 50
11.5636732429842706
 51
47.9297621464313792
  0
ARC
  5
81DE
  8
0
 10
410.5413826032294082
 20
33.9116975567786625
 30
0.0
 40
0.8191368224375231
 50
47.9297621464314503
 51
89.1626800131307817
  0
CIRCLE
  5
81DF
  8
0
 10
410.5534069391459866
 20
34.0197267878700131
 30
0.0
 40
0.6456731996557279
  0
CIRCLE
  5
81E0
  8
0
 10
410.5533530350090814
 20
34.0197267878700131
 30
0.0
 40
0.5749307009634216
  0
ARC
  5
81E1
  8
0
 10
407.6344873934975226
 20
36.3345669289739988
 30
0.0
 40
3.5106469266182789
 50
242.768857963809694
 51
247.7819244374987875
  0
ARC
  5
81E2
  8
0
 10
405.2737706472300943
 20
32.0338260209429393
 30
0.0
 40
1.399809103115766
 50
57.3934812506023704
 51
84.659870102578779
  0
ARC
  5
81E3
  8
0
 10
405.2876279648655213
 20
30.8281464091868784
 30
0.0
 40
2.602018954489334
 50
87.4356042446495962
 51
98.7452912586312976
  0
ARC
  5
81E4
  8
0
 10
403.4634020623064998
 20
41.1499963050867166
 30
0.0
 40
7.8806532375349381
 50
271.9230074945662068
 51
280.4443583567556857
  0
ARC
  5
81E5
  8
0
 10
403.6884890794897274
 20
34.0418365501019125
 30
0.0
 40
0.7690631466057121
 50
234.901061225907597
 51
272.9336469949246862
  0
ARC
  5
81E6
  8
0
 10
403.575892817860904
 20
33.7699351782038732
 30
0.0
 40
0.4861229352400015
 50
182.545172877408902
 51
227.3098682261538102
  0
ARC
  5
81E7
  8
0
 10
403.5840836311264752
 20
33.7216091535367326
 30
0.0
 40
0.4945575557564556
 50
131.7234367624373874
 51
176.9007356900827119
  0
ARC
  5
81E8
  8
0
 10
403.6875071036869258
 20
33.4551936912146672
 30
0.0
 40
0.7687799627286585
 50
86.9920358945645944
 51
124.2406267142832945
  0
ARC
  5
81E9
  8
0
 10
403.5214609733761222
 20
27.1086707243753189
 30
0.0
 40
7.1172368172451694
 50
79.5080805404648885
 51
88.3382875777898562
  0
ARC
  5
81EA
  8
0
 10
405.3160131548925165
 20
37.1612766741356211
 30
0.0
 40
3.0947817221873071
 50
260.7300676315114742
 51
270.7175163310096764
  0
ARC
  5
81EB
  8
0
 10
405.3256299227359136
 20
35.2489695765802722
 30
0.0
 40
1.1825909842830249
 50
271.4118720415885946
 51
298.174383944144779
  0
ARC
  5
81EC
  8
0
 10
407.8342306073972168
 20
30.7450106513472115
 30
0.0
 40
3.9730722855079539
 50
113.045424946598601
 51
119.3972908248997982
  0
CIRCLE
  5
81ED
  8
0
 10
406.5533584017479143
 20
33.7483478981700102
 30
0.0
 40
0.5748848533999978
  0
ARC
  5
81EF
  8
0
 10
406.5533584017479143
 20
33.7483478981700102
 30
0.0
 40
1.2401574802999999
 50
194.9080460761616109
 51
165.1236844025002029
  0
ARC
  5
81F0
  8
0
 10
406.5533584017479143
 20
33.7483478981700102
 30
0.0
 40
1.193241100629135
 50
195.5951147043024037
 51
164.4127482132703051
  0
ARC
  5
81F1
  8
0
 10
406.5533584017479143
 20
33.7483478981700102
 30
0.0
 40
0.7499548807650576
 50
225.5544439788295108
 51
134.4159437301692037
  0
ARC
  5
81F2
  8
0
 10
406.5533584017479143
 20
33.7483478981700102
 30
0.0
 40
0.7080119561517897
 50
249.6372258442767134
 51
112.8056326611764035
  0
ARC
  5
81F3
  8
0
 10
413.4722186764964817
 20
36.3345669289739988
 30
0.0
 40
3.5106469266182789
 50
292.2180755625010988
 51
297.231142036190306
  0
ARC
  5
81F4
  8
0
 10
415.8329354227639101
 20
32.0338260209429393
 30
0.0
 40
1.399809103115766
 50
95.3401298974212068
 51
122.6065187493975941
  0
ARC
  5
81F5
  8
0
 10
415.819078105128483
 20
30.8281464091868784
 30
0.0
 40
2.602018954489334
 50
81.2547087413687166
 51
92.564395755350418
  0
ARC
  5
81F6
  8
0
 10
417.6433040076875045
 20
41.1499963050867166
 30
0.0
 40
7.8806532375349381
 50
259.5556416432442006
 51
268.0769925054339069
  0
ARC
  5
81F7
  8
0
 10
417.418216990504277
 20
34.0418365501019125
 30
0.0
 40
0.7690631466057121
 50
267.0663530050752001
 51
305.0989387740925167
  0
ARC
  5
81F8
  8
0
 10
417.5308132521329867
 20
33.7699351782038732
 30
0.0
 40
0.4861229352400015
 50
312.6901317738463035
 51
357.454827122591098
  0
ARC
  5
81F9
  8
0
 10
417.5226224388674723
 20
33.7216091535367326
 30
0.0
 40
0.4945575557564556
 50
3.0992643099173298
 51
48.2765632375625415
  0
ARC
  5
81FA
  8
0
 10
417.4191989663070785
 20
33.4551936912146672
 30
0.0
 40
0.7687799627286585
 50
55.7593732857167197
 51
93.0079641054386457
  0
ARC
  5
81FB
  8
0
 10
417.5852450966178822
 20
27.1086707243753189
 30
0.0
 40
7.1172368172451694
 50
91.6617124222101296
 51
100.4919194595350973
  0
ARC
  5
81FC
  8
0
 10
415.7906929151014879
 20
37.1612766741356211
 30
0.0
 40
3.0947817221873071
 50
269.2824836689903236
 51
279.2699323684885258
  0
ARC
  5
81FD
  8
0
 10
415.781076147257977
 20
35.2489695765802722
 30
0.0
 40
1.1825909842830249
 50
241.8256160558551926
 51
268.5881279584115191
  0
ARC
  5
81FE
  8
0
 10
413.2724754625967876
 20
30.7450106513472115
 30
0.0
 40
3.9730722855079539
 50
60.6027091751001521
 51
66.9545750534013706
  0
CIRCLE
  5
81FF
  8
0
 10
414.5533476682459764
 20
33.7483478981700102
 30
0.0
 40
0.5748848533999978
  0
ARC
  5
8200
  8
0
 10
414.5533476682459764
 20
33.7483478981700102
 30
0.0
 40
1.2401574802999999
 50
14.8763155974997492
 51
345.0919539238383891
  0
ARC
  5
8201
  8
0
 10
414.5533476682459764
 20
33.7483478981700102
 30
0.0
 40
1.193241100629135
 50
15.5872517867296594
 51
344.4048852956975111
  0
ARC
  5
8202
  8
0
 10
414.5533476682459764
 20
33.7483478981700102
 30
0.0
 40
0.7499548807650576
 50
45.5840562698306968
 51
314.4455560211704892
  0
ARC
  5
8203
  8
0
 10
414.5533476682459764
 20
33.7483478981700102
 30
0.0
 40
0.7080119561517897
 50
67.1943673388235254
 51
290.362774155723173
  0
ARC
  5
8204
  8
0
 10
410.5533870504460765
 20
33.7483478602131086
 30
0.0
 40
1.1450355987615679
 50
305.0354065487875914
 51
234.9590945728965892
  0
ENDSEC
  0
EOF
