  0
SECTION
  2
HEADER
  9
$ACADVER
  1
AC1009
  9
$INSBASE
 10
417.3580841630471809
 20
36.8113980871085928
 30
0.0
  9
$EXTMIN
 10
411.5392968138344258
 20
36.8042239307511778
 30
-0.000000000000013
  9
$EXTMAX
 10
418.6096657026312187
 20
41.2592587197168967
 30
0.0000000000000023
  9
$LIMMIN
 10
0.0
 20
0.0
  9
$LIMMAX
 10
11.6929133858000007
 20
8.2677165353999982
  9
$ORTHOMODE
 70
     0
  9
$REGENMODE
 70
     1
  9
$FILLMODE
 70
     1
  9
$QTEXTMODE
 70
     0
  9
$MIRRTEXT
 70
     0
  9
$DRAGMODE
 70
     2
  9
$LTSCALE
 40
0.6431102362
  9
$OSMODE
 70
  4095
  9
$ATTMODE
 70
     1
  9
$TEXTSIZE
 40
0.2
  9
$TRACEWID
 40
0.05
  9
$TEXTSTYLE
  7
STANDARD
  9
$CLAYER
  8
0
  9
$CELTYPE
  6
BYLAYER
  9
$CECOLOR
 62
   256
  9
$DIMSCALE
 40
1.0
  9
$DIMASZ
 40
0.1875
  9
$DIMEXO
 40
0.0625
  9
$DIMDLI
 40
0.4443307087
  9
$DIMRND
 40
0.0
  9
$DIMDLE
 40
0.0
  9
$DIMEXE
 40
0.125
  9
$DIMTP
 40
0.01
  9
$DIMTM
 40
0.01
  9
$DIMTXT
 40
1.0
  9
$DIMCEN
 40
0.1052362205
  9
$DIMTSZ
 40
0.0
  9
$DIMTOL
 70
     1
  9
$DIMLIM
 70
     0
  9
$DIMTIH
 70
     0
  9
$DIMTOH
 70
     1
  9
$DIMSE1
 70
     0
  9
$DIMSE2
 70
     0
  9
$DIMTAD
 70
     0
  9
$DIMZIN
 70
     0
  9
$DIMBLK
  1

  9
$DIMASO
 70
     1
  9
$DIMSHO
 70
     1
  9
$DIMPOST
  1
\X
  9
$DIMAPOST
  1

  9
$DIMALT
 70
     1
  9
$DIMALTD
 70
     2
  9
$DIMALTF
 40
25.3999999999999986
  9
$DIMLFAC
 40
1.0
  9
$DIMTOFL
 70
     0
  9
$DIMTVP
 40
0.0
  9
$DIMTIX
 70
     0
  9
$DIMSOXD
 70
     0
  9
$DIMSAH
 70
     0
  9
$DIMBLK1
  1

  9
$DIMBLK2
  1

  9
$DIMSTYLE
  2
STANDARD
  9
$DIMCLRD
 70
     0
  9
$DIMCLRE
 70
     0
  9
$DIMCLRT
 70
     0
  9
$DIMTFAC
 40
1.0
  9
$DIMGAP
 40
0.09
  9
$LUNITS
 70
     2
  9
$LUPREC
 70
     4
  9
$SKETCHINC
 40
0.1
  9
$FILLETRAD
 40
0.0
  9
$AUNITS
 70
     0
  9
$AUPREC
 70
     0
  9
$MENU
  1
.
  9
$ELEVATION
 40
0.0
  9
$PELEVATION
 40
0.0
  9
$THICKNESS
 40
0.0
  9
$LIMCHECK
 70
     0
  9
$BLIPMODE
 70
     0
  9
$CHAMFERA
 40
0.0
  9
$CHAMFERB
 40
0.0
  9
$SKPOLY
 70
     0
  9
$TDCREATE
 40
2458172.5207638889551163
  9
$TDUPDATE
 40
2459062.4056250001303852
  9
$TDINDWG
 40
0.1538285185
  9
$TDUSRTIMER
 40
0.1538285185
  9
$USRTIMER
 70
     1
  9
$ANGBASE
 50
0.0
  9
$ANGDIR
 70
     0
  9
$PDMODE
 70
     0
  9
$PDSIZE
 40
0.3125
  9
$PLINEWID
 40
0.0
  9
$COORDS
 70
     1
  9
$SPLFRAME
 70
     0
  9
$SPLINETYPE
 70
     6
  9
$SPLINESEGS
 70
     8
  9
$ATTDIA
 70
     1
  9
$ATTREQ
 70
     1
  9
$HANDLING
 70
     1
  9
$HANDSEED
  5
844E
  9
$SURFTAB1
 70
     6
  9
$SURFTAB2
 70
     6
  9
$SURFTYPE
 70
     6
  9
$SURFU
 70
     6
  9
$SURFV
 70
     6
  9
$UCSNAME
  2

  9
$UCSORG
 10
0.0
 20
0.0
 30
0.0
  9
$UCSXDIR
 10
1.0
 20
0.0
 30
0.0
  9
$UCSYDIR
 10
0.0
 20
1.0
 30
0.0
  9
$PUCSNAME
  2

  9
$PUCSORG
 10
0.0
 20
0.0
 30
0.0
  9
$PUCSXDIR
 10
1.0
 20
0.0
 30
0.0
  9
$PUCSYDIR
 10
0.0
 20
1.0
 30
0.0
  9
$USERI1
 70
     0
  9
$USERI2
 70
     0
  9
$USERI3
 70
     0
  9
$USERI4
 70
     0
  9
$USERI5
 70
     0
  9
$USERR1
 40
0.0
  9
$USERR2
 40
0.0
  9
$USERR3
 40
0.0
  9
$USERR4
 40
0.0
  9
$USERR5
 40
0.0
  9
$WORLDVIEW
 70
     1
  9
$SHADEDGE
 70
     3
  9
$SHADEDIF
 70
    70
  9
$TILEMODE
 70
     1
  9
$MAXACTVP
 70
    64
  9
$PLIMCHECK
 70
     0
  9
$PEXTMIN
 10
1.0000000000000000E+20
 20
1.0000000000000000E+20
 30
1.0000000000000000E+20
  9
$PEXTMAX
 10
-1.0000000000000000E+20
 20
-1.0000000000000000E+20
 30
-1.0000000000000000E+20
  9
$PLIMMIN
 10
0.0
 20
0.0
  9
$PLIMMAX
 10
12.0
 20
9.0
  9
$UNITMODE
 70
     0
  9
$VISRETAIN
 70
     1
  9
$PLINEGEN
 70
     0
  9
$PSLTSCALE
 70
     1
  0
ENDSEC
  0
SECTION
  2
TABLES
  0
TABLE
  2
VPORT
 70
     1
  0
VPORT
  2
*ACTIVE
 70
     0
 10
0.0
 20
0.0
 11
1.0
 21
1.0
 12
41.2533447836234402
 22
-2.854706807029423
 13
0.0
 23
0.0
 14
1.0
 24
1.0
 15
0.0
 25
0.0
 16
0.0
 26
0.0
 36
25.5757211105568096
 17
373.821136474609375
 27
41.8864481322634603
 37
0.0
 40
4.4829368857651
 41
2.005224660397074
 42
50.0
 43
0.0
 44
0.0
 50
0.0
 51
0.0
 71
     0
 72
   100
 73
     1
 74
     1
 75
     0
 76
     0
 77
     0
 78
     0
  0
ENDTAB
  0
TABLE
  2
LTYPE
 70
     2
  0
LTYPE
  2
CONTINUOUS
 70
     0
  3
Solid line
 72
    65
 73
     0
 40
0.0
  0
LTYPE
  2
PHANTOM2
 70
     0
  3
___ _ _ ___ _ _ ___ _ _ ___ _ _
 72
    65
 73
     6
 40
1.25
 49
0.625
 49
-0.125
 49
0.125
 49
-0.125
 49
0.125
 49
-0.125
  0
ENDTAB
  0
TABLE
  2
LAYER
 70
     2
  0
LAYER
  2
0
 70
     0
 62
   255
  6
CONTINUOUS
  0
LAYER
  2
DEFPOINTS
 70
     0
 62
     7
  6
CONTINUOUS
  0
ENDTAB
  0
TABLE
  2
STYLE
 70
     1
  0
STYLE
  2
STANDARD
 70
     0
 40
0.0
 41
0.8
 50
0.0
 71
     0
 42
0.2
  3
txt
  4

  0
ENDTAB
  0
TABLE
  2
VIEW
 70
     0
  0
ENDTAB
  0
TABLE
  2
UCS
 70
     0
  0
ENDTAB
  0
TABLE
  2
APPID
 70
    10
  0
APPID
  2
ACAD
 70
     0
  0
APPID
  2
ACAD_MLEADERVER
 70
     0
  0
APPID
  2
ACAD_EXEMPT_FROM_CAD_STANDARDS
 70
     0
  0
APPID
  2
ACAD_DSTYLE_DIMJAG
 70
     0
  0
APPID
  2
ACAD_DSTYLE_DIMTALN
 70
     0
  0
APPID
  2
ACAD_NAV_VCDISPLAY
 70
     0
  0
APPID
  2
ACAECLAYERSTANDARD
 70
     0
  0
APPID
  2
ACCMTRANSPARENCY
 70
     0
  0
APPID
  2
DCO15
 70
     0
  0
APPID
  2
ACDBATTR
 70
     0
  0
ENDTAB
  0
TABLE
  2
DIMSTYLE
 70
     1
  0
DIMSTYLE
  2
STANDARD
 70
     0
  3

  4

  5

  6

  7

 40
1.0
 41
0.1875
 42
0.0625
 43
0.38
 44
0.125
 45
0.0
 46
0.0
 47
0.01
 48
0.01
140
0.15625
141
0.09
142
0.0
143
25.3999999999999986
144
1.0
145
0.0
146
1.0
147
0.09
 71
     1
 72
     0
 73
     1
 74
     1
 75
     0
 76
     0
 77
     0
 78
     4
170
     0
171
     2
172
     0
173
     0
174
     0
175
     0
176
     0
177
     0
178
     0
  0
ENDTAB
  0
ENDSEC
  0
SECTION
  2
BLOCKS
  0
BLOCK
  8
0
  2
$MODEL_SPACE
 70
     0
 10
0.0
 20
0.0
 30
0.0
  3
$MODEL_SPACE
  1

  0
ENDBLK
  5
21
  8
0
  0
BLOCK
 67
     1
  8
0
  2
$PAPER_SPACE
 70
     0
 10
0.0
 20
0.0
 30
0.0
  3
$PAPER_SPACE
  1

  0
ENDBLK
  5
1D
 67
     1
  8
0
  0
ENDSEC
  0
SECTION
  2
ENTITIES
  0
ATTDEF
  5
829
  8
DEFPOINTS
 10
417.3543196706672802
 20
36.8086717490646365
 30
0.0
 40
0.001
  1
K-8658T-B
  3

  2
MODELNUMBER
 70
     0
1001
ACDBATTR
1070
     0
1070
     1
  0
ATTDEF
  5
82A
  8
DEFPOINTS
 10
417.3543196706672802
 20
36.8070050823979784
 30
0.0
 40
0.001
  1
FAIRFAX
  3

  2
TRADENAME
 70
     0
1001
ACDBATTR
1070
     0
1070
     1
  0
ATTDEF
  5
82B
  8
DEFPOINTS
 10
417.3543196706672802
 20
36.8053384157313204
 30
0.0
 40
0.001
  1
BATHROOM SINK FAUCET
  3

  2
PRODUCT
 70
     0
1001
ACDBATTR
1070
     0
1070
     1
  0
LINE
  5
82B5
  8
0
 10
411.7679800813774023
 20
39.1305743615805426
 30
0.0
 11
411.7699530148470899
 21
39.1370275364085813
 31
0.0
  0
LINE
  5
82B6
  8
0
 10
412.4701487309235972
 20
38.9158998619317487
 30
0.0
 11
412.4721216644471724
 21
38.922353036608591
 31
0.0
  0
LINE
  5
82B7
  8
0
 10
418.6080708528717764
 20
36.8113980871085928
 30
0.0
 11
416.1080974732223012
 21
36.8113980871085928
 31
0.0
  0
LINE
  5
82B8
  8
0
 10
418.4879988824470729
 20
37.0082484808085894
 30
0.0
 11
416.2281694436471753
 21
37.0082484808085894
 31
0.0
  0
LINE
  5
82B9
  8
0
 10
416.287383704847116
 20
37.4218615027085875
 30
0.0
 11
418.4287841527470846
 21
37.4218615027085875
 31
0.0
  0
LINE
  5
82BA
  8
0
 10
411.778435720038317
 20
39.110910165511271
 30
0.0
 11
412.4504845347383934
 21
38.9054442234112727
 31
0.0
  0
LINE
  5
82BB
  8
0
 10
411.6537858494158968
 20
39.1725434030875519
 30
0.0
 11
412.5882888299880165
 21
38.8868371699960989
 31
0.0
  0
LINE
  5
82BC
  8
0
 10
411.6705343710389116
 20
39.4144366669111221
 30
0.0
 11
412.7096686727389283
 21
39.0967414287111126
 31
0.0
  0
LINE
  5
82BD
  8
0
 10
418.1471006511471273
 20
40.1271860053085874
 30
0.0
 11
417.1118710204472109
 21
40.1270794239085831
 31
0.0
  0
LINE
  5
82BE
  8
0
 10
418.1845745492470883
 20
40.4126930841085823
 30
0.0
 11
418.1696282301471115
 21
40.4126890475085716
 31
0.0
  0
LINE
  5
82BF
  8
0
 10
418.1676556321471026
 20
40.4126886871085773
 30
0.0
 11
418.1845745492470883
 21
40.4126930841085823
 31
0.0
  0
LINE
  5
82C0
  8
0
 10
418.1696282301471115
 20
40.4126890475085716
 30
0.0
 11
417.1274879409471055
 21
40.4125796345085888
 31
0.0
  0
LINE
  5
82C1
  8
0
 10
418.1845704959471846
 20
40.4520631626085816
 30
0.0
 11
417.1176423550472236
 21
40.4519491326085898
 31
0.0
  0
LINE
  5
82C2
  8
0
 10
417.1176423550472236
 20
40.4519491326085898
 30
0.0
 11
417.0743342813470917
 21
40.4519488590085672
 31
0.0
  0
LINE
  5
82C3
  8
0
 10
417.0742898315081106
 20
40.4570669647085666
 30
0.0
 11
418.1846894537080743
 21
40.4571812852085912
 31
0.0
  0
LINE
  5
82C4
  8
0
 10
417.1274879409471055
 20
40.4125796345085888
 30
0.0
 11
417.0743383346471091
 21
40.4125787805085821
 31
0.0
  0
LINE
  5
82C5
  8
0
 10
417.0743383346471091
 20
40.4125787805085821
 30
0.0
 11
418.1676556321471026
 21
40.4126886871085773
 31
0.0
  0
LINE
  5
82C6
  8
0
 10
417.0547345423470915
 20
40.4790259214085921
 30
0.0
 11
417.0547402345471255
 21
40.4790258720085916
 31
0.0
  0
LINE
  5
82C7
  8
0
 10
417.6300679527470834
 20
40.7571243760085835
 30
0.0
 11
417.6288495598471968
 21
40.757124250508582
 31
0.0
  0
LINE
  5
82C8
  8
0
 10
417.0743383346471091
 20
40.4125787805085821
 30
0.0
 11
417.0743342813470917
 21
40.4519488590085672
 31
0.0
  0
LINE
  5
82C9
  8
0
 10
417.117641367747126
 20
40.4519533176085773
 30
0.0
 11
417.1176408408471161
 21
40.4570714278085788
 31
0.0
  0
LINE
  5
82CA
  8
0
 10
418.1412634095470935
 20
40.4520587040085928
 30
0.0
 11
418.1412628826470836
 21
40.4571768142085801
 31
0.0
  0
LINE
  5
82CB
  8
0
 10
418.1415487300471909
 20
37.4218615027085875
 30
0.0
 11
418.1415487300471909
 21
37.346831158008591
 31
0.0
  0
LINE
  5
82CC
  8
0
 10
418.1845745492470883
 20
40.4126930841085823
 30
0.0
 11
418.1845704959471846
 21
40.4520631626085816
 31
0.0
  0
LINE
  5
82CD
  8
0
 10
418.5982416433470803
 20
36.8980122603085903
 30
0.0
 11
418.5982416433470803
 21
36.8507681659085904
 31
0.0
  0
ARC
  5
82CE
  8
0
 10
412.6252903546471202
 20
39.0078637038085816
 30
0.0
 40
0.1265564487
 50
252.999999999102414
 51
38.6801630122005164
  0
ARC
  5
82CF
  8
0
 10
411.6907873740470905
 20
39.293569936808602
 30
0.0
 40
0.1265564487
 50
107.318679744727703
 51
252.9999999991021866
  0
ARC
  5
82D0
  8
0
 10
411.6619013482472269
 20
39.3861993217085882
 30
0.0
 40
0.0295275591
 50
72.9999999992829203
 51
107.3148769872640997
  0
ARC
  5
82D1
  8
0
 10
412.7010356499471868
 20
39.0685040835085928
 30
0.0
 40
0.0295275591
 50
38.6801630119990918
 51
72.9999999992829203
  0
ARC
  5
82D2
  8
0
 10
412.4550888135470927
 20
38.920504140808589
 30
0.0
 40
0.0157480315
 50
252.9999999993578967
 51
342.9999997404133865
  0
ARC
  5
82D3
  8
0
 10
411.7830399988471868
 20
39.1259700829085801
 30
0.0
 40
0.0157480315
 50
163.0000005524013034
 51
252.9999999993578967
  0
ARC
  5
82D4
  8
0
 10
418.7380841630471764
 20
37.4513980871085934
 30
0.0
 40
0.38
 50
184.459531033299811
 51
216.1612873251999929
  0
ARC
  5
82D5
  8
0
 10
418.124491187247088
 20
37.0029522598085876
 30
0.0
 40
0.38
 50
0.6140623657000113
 51
36.1612873252
  0
ARC
  5
82D6
  8
0
 10
418.4801314071470983
 20
37.346831158008591
 30
0.0
 40
0.3385826772
 50
180.0
 51
270.0
  0
ARC
  5
82D7
  8
0
 10
418.4880054229471966
 20
36.8980122603085903
 30
0.0
 40
0.1102362205
 50
0.0
 51
90.0
  0
ARC
  5
82D8
  8
0
 10
418.5480841630471787
 20
36.8633980871085782
 30
0.0
 40
0.06
 50
358.7931260266710751
 51
33.2842756119898411
  0
ARC
  5
82D9
  8
0
 10
418.5588715646471201
 20
36.8507681659085904
 30
0.0
 40
0.0393700787
 50
270.0
 51
0.0
  0
ARC
  5
82DA
  8
0
 10
418.4287846212470754
 20
37.4518615027085886
 30
0.0
 40
0.03
 50
270.0
 51
324.6790791341001068
  0
ARC
  5
82DB
  8
0
 10
417.3307288044471761
 20
40.3671459179085801
 30
0.0
 40
0.3181102362
 50
118.149818669753401
 51
133.1582423732365044
  0
ARC
  5
82DC
  8
0
 10
417.071064861447212
 20
39.8465673598085885
 30
0.0
 40
0.2834645669
 50
47.2625104499521527
 51
81.7232262421982654
  0
ARC
  5
82DD
  8
0
 10
417.2694293646471237
 20
40.4540583078085803
 30
0.0
 40
0.2161417323
 50
159.5694880321186986
 51
173.3662891930192131
  0
ARC
  5
82DE
  8
0
 10
417.2462494542471063
 20
40.4606570030085919
 30
0.0
 40
0.1921259843
 50
133.8555329417696953
 51
159.0005273680762912
  0
ARC
  5
82DF
  8
0
 10
417.1538893951470754
 20
39.9362090154085791
 30
0.0
 40
0.1614173228
 50
311.7812468662007745
 51
47.2617102461872634
  0
ARC
  5
82E0
  8
0
 10
417.1334076043470986
 20
40.2751274576085905
 30
0.0
 40
0.1496062992
 50
113.2554614455983995
 51
261.7232262420995994
  0
ARC
  5
82E1
  8
0
 10
417.308657181747094
 20
39.7629966021085934
 30
0.0
 40
0.0708661417
 50
131.781246866200803
 51
267.6382228720307239
  0
ARC
  5
82E2
  8
0
 10
417.0742878048470743
 20
40.4767520039085795
 30
0.0
 40
0.0196850394
 50
173.3624957110507125
 51
270.0058988511963207
  0
ARC
  5
82E3
  8
0
 10
417.630168515647199
 20
39.7803527278085909
 30
0.0
 40
0.9767716534999999
 50
73.197101439016123
 51
90.0416361652485335
  0
ARC
  5
82E4
  8
0
 10
417.6289501227470851
 20
39.7803526023085823
 30
0.0
 40
0.9767716534999999
 50
89.9701672854923942
 51
106.8146950204176022
  0
ARC
  5
82E5
  8
0
 10
417.6491717052472268
 20
39.8338398851085884
 30
0.0
 40
0.9200787401999999
 50
62.1996647594610934
 51
73.367091593429123
  0
ARC
  5
82E6
  8
0
 10
417.6099359200471213
 20
39.8338358456085899
 30
0.0
 40
0.9200787401999999
 50
106.6447047886939998
 51
117.8121317013122962
  0
ARC
  5
82E7
  8
0
 10
417.9282690017471964
 20
40.3672074374085881
 30
0.0
 40
0.3181102362
 50
46.8535565582461402
 51
61.8619754361446113
  0
ARC
  5
82E8
  8
0
 10
418.1879645690470966
 20
39.8466823495085833
 30
0.0
 40
0.2834645669
 50
98.2885714598007354
 51
132.7482289039053001
  0
ARC
  5
82E9
  8
0
 10
417.9895505442472086
 20
40.4541324474085826
 30
0.0
 40
0.2161417323
 50
6.6451284097467109
 51
20.44231011848332
  0
ARC
  5
82EA
  8
0
 10
418.0127290954471277
 20
40.4607359154085913
 30
0.0
 40
0.1921259843
 50
21.0112708425181616
 51
46.156266836468582
  0
ARC
  5
82EB
  8
0
 10
418.1051215791471236
 20
39.9363069489085802
 30
0.0
 40
0.1614173228
 50
132.7482289039053001
 51
228.2267250358368074
  0
ARC
  5
82EC
  8
0
 10
418.1255335833470781
 20
40.2752296014085829
 30
0.0
 40
0.1496062992
 50
278.2885714598994014
 51
66.7563362565003473
  0
ARC
  5
82ED
  8
0
 10
417.9503731222005172
 20
39.7630560154310828
 30
0.0
 40
0.0708819906197223
 50
271.2412729036274754
 51
48.2329963273479123
  0
ARC
  5
82EE
  8
0
 10
418.1846874270470948
 20
40.47686632440859
 30
0.0
 40
0.0196850394
 50
270.0058988511963207
 51
6.6451284097467109
  0
ARC
  5
82EF
  8
0
 10
417.9936521273262997
 20
37.7849372906818317
 30
0.0
 40
0.5779585750328741
 50
322.677032937261913
 51
340.5676140065040727
  0
ARC
  5
82F0
  8
0
 10
418.2783933517233095
 20
37.6753898380649019
 30
0.0
 40
0.2731265503161103
 50
342.3668124938848223
 51
39.5147355696081206
  0
ARC
  5
82F1
  8
0
 10
418.0728105026402091
 20
37.504790396424049
 30
0.0
 40
0.5402747323327873
 50
39.59991911991969
 51
56.8150346752035418
  0
ARC
  5
82F2
  8
0
 10
421.4121853449456125
 20
43.2238328462903283
 30
0.0
 40
6.0830837474589172
 50
236.9660359539435035
 51
239.9769725262173949
  0
ARC
  5
82F3
  8
0
 10
418.1727223776865117
 20
38.2732501387152482
 30
0.0
 40
0.1676960782295467
 50
138.8327287074712046
 51
242.8030757443609104
  0
ARC
  5
82F4
  8
0
 10
417.3379903846869183
 20
39.0906461857495131
 30
0.0
 40
1.0009104728268881
 50
315.060043585615972
 51
319.3301782921353151
  0
ARC
  5
82F5
  8
0
 10
418.0456413752983167
 20
38.473559499933053
 30
0.0
 40
0.0623976685138738
 50
325.6522428935792846
 51
90.052543808340701
  0
LINE
  5
82F6
  8
0
 10
418.0455841531959891
 20
38.5359571422085878
 30
0.0
 11
416.6705841733947864
 21
38.5359571422085878
 31
0.0
  0
LINE
  5
82F7
  8
0
 10
417.913202273347224
 20
38.8202896130085904
 30
0.0
 11
417.7222625020551732
 21
38.8202896130085904
 31
0.0
  0
ARC
  5
82F8
  8
0
 10
417.9061689157181263
 20
38.6605046595465183
 30
0.0
 40
0.1599396744788904
 50
308.8568743623173987
 51
87.4796015819869268
  0
LINE
  5
82F9
  8
0
 10
417.9131878556470951
 20
38.8202896130085904
 30
0.0
 11
417.9131878556470951
 21
38.8596596918085879
 31
0.0
  0
LINE
  5
82FA
  8
0
 10
417.9131878556470951
 20
38.8596596918085879
 30
0.0
 11
417.7018146867708879
 21
38.8596596918085879
 31
0.0
  0
LINE
  5
82FB
  8
0
 10
417.6996504949157156
 20
38.8647778020085894
 30
0.0
 11
417.9129774784086067
 21
38.8647778020085894
 31
0.0
  0
LINE
  5
82FC
  8
0
 10
417.8698951866471134
 20
38.8596596918085879
 30
0.0
 11
417.8698951866471134
 21
38.8647778020085894
 31
0.0
  0
ARC
  5
82FD
  8
0
 10
417.913280343398128
 20
38.8844639885286369
 30
0.0
 40
0.019688516116011
 50
269.1185945690942845
 51
6.6346911288331869
  0
ARC
  5
82FE
  8
0
 10
417.7182832429584209
 20
38.8617823994753593
 30
0.0
 40
0.2160003182621842
 50
6.6346911288331869
 51
20.4409493552632
  0
ARC
  5
82FF
  8
0
 10
417.7482617521657176
 20
38.8729557025961299
 30
0.0
 40
0.1840072921952728
 50
20.4409493552632
 51
46.7146375928217878
  0
ARC
  5
8300
  8
0
 10
417.6600906115043017
 20
38.7793428567906204
 30
0.0
 40
0.3126055617999672
 50
46.7146375928217878
 51
61.9889855236939979
  0
ARC
  5
8301
  8
0
 10
417.3067146452575003
 20
38.1150474326313073
 30
0.0
 40
1.0650435885370091
 50
61.9889855236939979
 51
65.947365149130178
  0
ARC
  5
8302
  8
0
 10
417.3538645989748943
 20
40.415861478165013
 30
0.0
 40
1.4218648904989519
 50
270.1700327289888719
 51
271.2017807666724138
  0
ARC
  5
8303
  8
0
 10
417.3651832684107035
 20
39.8763147497855925
 30
0.0
 40
0.8821994530446499
 50
271.2017807666724138
 51
288.430243233295414
  0
ARC
  5
8304
  8
0
 10
417.5226215326417218
 20
39.40387062427844
 30
0.0
 40
0.3842132496511352
 50
288.430243233295414
 51
315.6554849168687724
  0
ARC
  5
8305
  8
0
 10
417.6809520829500002
 20
39.2327781184455375
 30
0.0
 40
0.1518449761283811
 50
320.0702089873439036
 51
2.1416540736974778
  0
ARC
  5
8306
  8
0
 10
417.5399700359801045
 20
39.2275059068477816
 30
0.0
 40
0.2929255693471692
 50
2.1416540736974778
 51
19.9328422197535993
  0
ARC
  5
8307
  8
0
 10
417.5986790219296836
 20
39.2354788440201219
 30
0.0
 40
0.2353487849004134
 50
22.9822030716648698
 51
58.9147789341890373
  0
ARC
  5
8308
  8
0
 10
417.4402639521122751
 20
38.9966777680030532
 30
0.0
 40
0.5217964313707532
 50
57.5562838991132182
 51
73.4941129416123857
  0
ARC
  5
8309
  8
0
 10
417.3865156884799035
 20
38.8204213911054126
 30
0.0
 40
0.7060615083446168
 50
73.375924441866573
 51
89.1945585292214105
  0
LINE
  5
830A
  8
0
 10
417.3964408957870091
 20
39.5264131359762629
 30
0.0
 11
417.3197274303072959
 21
39.5264177486906618
 31
0.0
  0
ARC
  5
830B
  8
0
 10
417.9920170110888762
 20
38.9853883046607876
 30
0.0
 40
0.3162674076304631
 50
167.292415046565111
 51
211.4680124680666893
  0
ARC
  5
830C
  8
0
 10
418.0079674225700046
 20
38.9951504846380175
 30
0.0
 40
0.334968097038253
 50
211.4680124680672009
 51
279.9833309453164247
  0
LINE
  5
830D
  8
0
 10
418.3650194083314773
 20
37.95897884704803
 30
0.0
 11
418.3404832074530191
 21
39.3647847733356429
 31
0.0
  0
ARC
  5
830E
  8
0
 10
418.3011207692525772
 20
39.3641075195264918
 30
0.0
 40
0.0393682640442029
 50
0.9857060808821621
 51
68.1372619657495449
  0
ARC
  5
830F
  8
0
 10
418.6109378125623834
 20
40.214998464486122
 30
0.0
 40
0.8661929395438207
 50
230.986594655613203
 51
250.0773073752230005
  0
ARC
  5
8310
  8
0
 10
418.2066044127237205
 20
39.7152082008529987
 30
0.0
 40
0.2233282480814962
 50
191.0101631553804111
 51
230.8704923274420935
  0
ARC
  5
8311
  8
0
 10
417.963698287669672
 20
39.6682825120425377
 30
0.0
 40
0.0240710451831512
 50
10.2269668977008106
 51
83.3304773213174457
  0
LINE
  5
8312
  8
0
 10
417.9664939571994182
 20
39.6921906581032573
 30
0.0
 11
417.2149122620475055
 21
39.6921906581032573
 31
0.0
  0
ARC
  5
8313
  8
0
 10
417.2398908573945278
 20
39.9027222823074226
 30
0.0
 40
0.2120082428009
 50
230.3054207672186067
 51
263.2337535087254992
  0
LINE
  5
8314
  8
0
 10
416.5746195960471141
 20
37.4218615027085875
 30
0.0
 11
416.5746195960471141
 21
37.346831158008591
 31
0.0
  0
LINE
  5
8315
  8
0
 10
416.117926682747111
 20
36.8980122603085903
 30
0.0
 11
416.117926682747111
 21
36.8507681659085904
 31
0.0
  0
ARC
  5
8316
  8
0
 10
415.9780841630470718
 20
37.4513980871085934
 30
0.0
 40
0.38
 50
323.8387126747999787
 51
355.5404689666997911
  0
ARC
  5
8317
  8
0
 10
416.5916771388471034
 20
37.0029522598085876
 30
0.0
 40
0.38
 50
143.8387126748000071
 51
179.3859376343000065
  0
ARC
  5
8318
  8
0
 10
416.236036918947093
 20
37.346831158008591
 30
0.0
 40
0.3385826772
 50
270.0
 51
0.0
  0
ARC
  5
8319
  8
0
 10
416.2281629031471084
 20
36.8980122603085903
 30
0.0
 40
0.1102362205
 50
90.0
 51
180.0
  0
ARC
  5
831A
  8
0
 10
416.1680841630471264
 20
36.8633980871085782
 30
0.0
 40
0.06
 50
146.7157243880101021
 51
181.2068739733965117
  0
ARC
  5
831B
  8
0
 10
416.1572967614471281
 20
36.8507681659085904
 30
0.0
 40
0.0393700787
 50
180.0
 51
270.0
  0
ARC
  5
831C
  8
0
 10
416.287383704847116
 20
37.4518615027085886
 30
0.0
 40
0.03
 50
215.3209208658994953
 51
270.0
  0
ARC
  5
831D
  8
0
 10
416.7225161987680053
 20
37.7849372906818317
 30
0.0
 40
0.5779585750328741
 50
199.4323859934958136
 51
217.3229670627382006
  0
ARC
  5
831E
  8
0
 10
416.4377749743708819
 20
37.6753898380649019
 30
0.0
 40
0.2731265503161103
 50
140.4852644303919078
 51
197.6331875061152061
  0
ARC
  5
831F
  8
0
 10
416.643357823454096
 20
37.504790396424049
 30
0.0
 40
0.5402747323327873
 50
123.1849653247962948
 51
140.40008088008031
  0
ARC
  5
8320
  8
0
 10
413.3039829811485788
 20
43.2238328462903283
 30
0.0
 40
6.0830837474589172
 50
300.0230274737824061
 51
303.0339640460564965
  0
ARC
  5
8321
  8
0
 10
416.5434459484076797
 20
38.2732501387152482
 30
0.0
 40
0.1676960782295467
 50
297.196924255638919
 51
41.1672712925287527
  0
ARC
  5
8322
  8
0
 10
417.378177941407273
 20
39.0906461857495131
 30
0.0
 40
1.0009104728268881
 50
220.6698217078647133
 51
224.9399564143839996
  0
ARC
  5
8323
  8
0
 10
416.6705269507959883
 20
38.473559499933053
 30
0.0
 40
0.0623976685138738
 50
89.947456191659299
 51
214.3477571064204028
  0
LINE
  5
8324
  8
0
 10
416.802966052747081
 20
38.8202896130085904
 30
0.0
 11
416.993905824039075
 21
38.8202896130085904
 31
0.0
  0
ARC
  5
8325
  8
0
 10
416.8099994103761219
 20
38.6605046595465183
 30
0.0
 40
0.1599396744788904
 50
92.5203984180130732
 51
231.1431256376826866
  0
LINE
  5
8326
  8
0
 10
416.8029804704470962
 20
38.8202896130085904
 30
0.0
 11
416.8029804704470962
 21
38.8596596918085879
 31
0.0
  0
LINE
  5
8327
  8
0
 10
416.8029804704470962
 20
38.8596596918085879
 30
0.0
 11
417.0143536393234172
 21
38.8596596918085879
 31
0.0
  0
LINE
  5
8328
  8
0
 10
417.0165178311785894
 20
38.8647778020085894
 30
0.0
 11
416.8031908476856984
 21
38.8647778020085894
 31
0.0
  0
LINE
  5
8329
  8
0
 10
416.8462731394470779
 20
38.8596596918085879
 30
0.0
 11
416.8462731394470779
 21
38.8647778020085894
 31
0.0
  0
ARC
  5
832A
  8
0
 10
416.802887982696177
 20
38.8844639885286369
 30
0.0
 40
0.019688516116011
 50
173.3653088711666044
 51
270.8814054309057155
  0
ARC
  5
832B
  8
0
 10
416.9978850831358272
 20
38.8617823994753593
 30
0.0
 40
0.2160003182621842
 50
159.5590506447371979
 51
173.3653088711666044
  0
ARC
  5
832C
  8
0
 10
416.9679065739285875
 20
38.8729557025961299
 30
0.0
 40
0.1840072921952728
 50
133.2853624071778995
 51
159.5590506447371979
  0
ARC
  5
832D
  8
0
 10
417.056077714589776
 20
38.7793428567906204
 30
0.0
 40
0.3126055617999672
 50
118.0110144763060021
 51
133.2853624071778995
  0
ARC
  5
832E
  8
0
 10
417.4094536808366911
 20
38.1150474326313073
 30
0.0
 40
1.0650435885370091
 50
114.0526348508697936
 51
118.0110144763060021
  0
ARC
  5
832F
  8
0
 10
417.362303727119297
 20
40.415861478165013
 30
0.0
 40
1.4218648904989519
 50
268.7982192333274725
 51
269.8299672710111281
  0
ARC
  5
8330
  8
0
 10
417.3509850576834879
 20
39.8763147497855925
 30
0.0
 40
0.8821994530446499
 50
251.569756766704586
 51
268.7982192333274725
  0
ARC
  5
8331
  8
0
 10
417.1935467934525263
 20
39.40387062427844
 30
0.0
 40
0.3842132496511352
 50
224.3445150831308865
 51
251.569756766704586
  0
ARC
  5
8332
  8
0
 10
417.0352162431441911
 20
39.2327781184455375
 30
0.0
 40
0.1518449761283811
 50
177.8583459263028885
 51
219.9297910126560112
  0
ARC
  5
8333
  8
0
 10
417.1761982901140868
 20
39.2275059068477816
 30
0.0
 40
0.2929255693471692
 50
160.0671577802463901
 51
177.8583459263024906
  0
ARC
  5
8334
  8
0
 10
417.1174893041643941
 20
39.2354788440201219
 30
0.0
 40
0.2353487849004134
 50
121.0852210658109982
 51
157.0177969283350876
  0
ARC
  5
8335
  8
0
 10
417.2759043739819731
 20
38.9966777680030532
 30
0.0
 40
0.5217964313707532
 50
106.5058870583876001
 51
122.4437161008868031
  0
ARC
  5
8336
  8
0
 10
417.3360910064429277
 20
38.7785359963905307
 30
0.0
 40
0.748060747564971
 50
91.2534257950534737
 51
106.1787800171624951
  0
ARC
  5
8337
  8
0
 10
416.724151315005372
 20
38.9853883046607876
 30
0.0
 40
0.3162674076304631
 50
328.5319875319328276
 51
12.7075849534348801
  0
ARC
  5
8338
  8
0
 10
416.7082009035241867
 20
38.9951504846380175
 30
0.0
 40
0.334968097038253
 50
260.0166690546835753
 51
328.5319875319328276
  0
ARC
  5
8339
  8
0
 10
414.3114200195303738
 20
38.5124637588201821
 30
0.0
 40
2.746387577249735
 50
62.2520007640440411
 51
161.1128629023947951
  0
ARC
  5
833A
  8
0
 10
414.3107897637030987
 20
38.517209258306039
 30
0.0
 40
1.743880023406067
 50
64.0014257980638206
 51
160.1704362382575937
  0
ARC
  5
833B
  8
0
 10
412.6622705729283211
 20
37.8286873115353472
 30
0.0
 40
3.679775751449295
 50
1.9180434246105149
 51
11.5504799293122602
  0
ARC
  5
833C
  8
0
 10
414.4004797919544103
 20
38.1839250842833522
 30
0.0
 40
1.905637886373901
 50
11.5504799293122602
 51
24.9996775054823388
  0
ARC
  5
833D
  8
0
 10
414.0159431348923817
 20
38.0046153312798793
 30
0.0
 40
2.329926029204477
 50
24.9996775054823388
 51
40.607607831660232
  0
ARC
  5
833E
  8
0
 10
413.4744952253747101
 20
37.5404136216454773
 30
0.0
 40
3.0431224018456109
 50
40.607607831660232
 51
46.5953178970005908
  0
ARC
  5
833F
  8
0
 10
414.2912344496018022
 20
38.4039497710529218
 30
0.0
 40
1.8545275836992461
 50
46.5953178970005908
 51
64.9923034441192726
  0
ARC
  5
8340
  8
0
 10
412.5108052004097203
 20
35.5179856997979115
 30
0.0
 40
6.2380359086340533
 50
44.7739441810086021
 51
60.4204828788329493
  0
ARC
  5
8341
  8
0
 10
419.4762884395418041
 20
42.1863059187436491
 30
0.0
 40
3.4076210656655399
 50
221.8792160668284907
 51
225.8906551758470869
  0
ARC
  5
8342
  8
0
 10
417.889936595363281
 20
40.295566490478457
 30
0.0
 40
0.9913247001712063
 50
266.0717346565003254
 51
295.4604264594935898
  0
ARC
  5
8343
  8
0
 10
418.2142516996040058
 20
41.0729796362400066
 30
0.0
 40
1.8831307964845669
 50
220.1996974320198888
 51
236.239310934244287
  0
ARC
  5
8344
  8
0
 10
401.7589591682208834
 20
27.1673282578013797
 30
0.0
 40
19.6608658743299607
 50
40.1996974320198319
 51
43.2016913135940896
  0
LINE
  5
8346
  8
0
 10
416.1080974732223012
 20
36.8621343450952708
 30
0.0
 11
416.1080974732223012
 21
36.8113980871085928
 31
0.0
  0
LINE
  5
8347
  8
0
 10
418.6080708528717764
 20
36.8621343450953418
 30
0.0
 11
418.6080708528717764
 21
36.8113980871085928
 31
0.0
  0
ENDSEC
  0
EOF
