  0
SECTION
  2
HEADER
  9
$ACADVER
  1
AC1009
  9
$INSBASE
 10
3577.982286079045025
 20
170.5678453155780119
 30
0.0
  9
$EXTMIN
 10
3572.5476093823608608
 20
170.5655302660723009
 30
-0.0015258207003583
  9
$EXTMAX
 10
3583.4831943045201115
 20
177.0210253464827872
 30
0.0000000349246037
  9
$LIMMIN
 10
0.0
 20
0.0
  9
$LIMMAX
 10
11.6929133858000007
 20
8.2677165353999982
  9
$ORTHOMODE
 70
     0
  9
$REGENMODE
 70
     1
  9
$FILLMODE
 70
     1
  9
$QTEXTMODE
 70
     0
  9
$MIRRTEXT
 70
     0
  9
$DRAGMODE
 70
     2
  9
$LTSCALE
 40
0.6431102362
  9
$OSMODE
 70
  4095
  9
$ATTMODE
 70
     1
  9
$TEXTSIZE
 40
0.2
  9
$TRACEWID
 40
0.05
  9
$TEXTSTYLE
  7
STANDARD
  9
$CLAYER
  8
0
  9
$CELTYPE
  6
BYLAYER
  9
$CECOLOR
 62
   256
  9
$DIMSCALE
 40
1.0
  9
$DIMASZ
 40
0.1875
  9
$DIMEXO
 40
0.0625
  9
$DIMDLI
 40
0.4443307087
  9
$DIMRND
 40
0.0
  9
$DIMDLE
 40
0.0
  9
$DIMEXE
 40
0.125
  9
$DIMTP
 40
0.01
  9
$DIMTM
 40
0.01
  9
$DIMTXT
 40
2.0
  9
$DIMCEN
 40
0.1052362205
  9
$DIMTSZ
 40
0.0
  9
$DIMTOL
 70
     1
  9
$DIMLIM
 70
     0
  9
$DIMTIH
 70
     1
  9
$DIMTOH
 70
     1
  9
$DIMSE1
 70
     0
  9
$DIMSE2
 70
     0
  9
$DIMTAD
 70
     0
  9
$DIMZIN
 70
     0
  9
$DIMBLK
  1

  9
$DIMASO
 70
     1
  9
$DIMSHO
 70
     1
  9
$DIMPOST
  1
\X
  9
$DIMAPOST
  1

  9
$DIMALT
 70
     1
  9
$DIMALTD
 70
     2
  9
$DIMALTF
 40
25.3999999999999986
  9
$DIMLFAC
 40
1.0
  9
$DIMTOFL
 70
     0
  9
$DIMTVP
 40
0.0
  9
$DIMTIX
 70
     0
  9
$DIMSOXD
 70
     0
  9
$DIMSAH
 70
     0
  9
$DIMBLK1
  1

  9
$DIMBLK2
  1

  9
$DIMSTYLE
  2
STANDARD
  9
$DIMCLRD
 70
     0
  9
$DIMCLRE
 70
     0
  9
$DIMCLRT
 70
     0
  9
$DIMTFAC
 40
1.0
  9
$DIMGAP
 40
0.09
  9
$LUNITS
 70
     2
  9
$LUPREC
 70
     4
  9
$SKETCHINC
 40
0.1
  9
$FILLETRAD
 40
0.0
  9
$AUNITS
 70
     0
  9
$AUPREC
 70
     0
  9
$MENU
  1
.
  9
$ELEVATION
 40
0.0
  9
$PELEVATION
 40
0.0
  9
$THICKNESS
 40
0.0
  9
$LIMCHECK
 70
     0
  9
$BLIPMODE
 70
     0
  9
$CHAMFERA
 40
0.0
  9
$CHAMFERB
 40
0.0
  9
$SKPOLY
 70
     0
  9
$TDCREATE
 40
2458060.468368056230247
  9
$TDUPDATE
 40
2459088.3938078708015382
  9
$TDINDWG
 40
0.5505047454000001
  9
$TDUSRTIMER
 40
0.5505047454000001
  9
$USRTIMER
 70
     1
  9
$ANGBASE
 50
0.0
  9
$ANGDIR
 70
     0
  9
$PDMODE
 70
     0
  9
$PDSIZE
 40
0.3125
  9
$PLINEWID
 40
0.0
  9
$COORDS
 70
     1
  9
$SPLFRAME
 70
     0
  9
$SPLINETYPE
 70
     6
  9
$SPLINESEGS
 70
     8
  9
$ATTDIA
 70
     1
  9
$ATTREQ
 70
     1
  9
$HANDLING
 70
     1
  9
$HANDSEED
  5
E435
  9
$SURFTAB1
 70
     6
  9
$SURFTAB2
 70
     6
  9
$SURFTYPE
 70
     6
  9
$SURFU
 70
     6
  9
$SURFV
 70
     6
  9
$UCSNAME
  2

  9
$UCSORG
 10
0.0
 20
0.0
 30
0.0
  9
$UCSXDIR
 10
1.0
 20
0.0
 30
0.0
  9
$UCSYDIR
 10
0.0
 20
1.0
 30
0.0
  9
$PUCSNAME
  2

  9
$PUCSORG
 10
0.0
 20
0.0
 30
0.0
  9
$PUCSXDIR
 10
1.0
 20
0.0
 30
0.0
  9
$PUCSYDIR
 10
0.0
 20
1.0
 30
0.0
  9
$USERI1
 70
     0
  9
$USERI2
 70
     0
  9
$USERI3
 70
     0
  9
$USERI4
 70
     0
  9
$USERI5
 70
     0
  9
$USERR1
 40
0.0
  9
$USERR2
 40
0.0
  9
$USERR3
 40
0.0
  9
$USERR4
 40
0.0
  9
$USERR5
 40
0.0
  9
$WORLDVIEW
 70
     1
  9
$SHADEDGE
 70
     3
  9
$SHADEDIF
 70
    70
  9
$TILEMODE
 70
     1
  9
$MAXACTVP
 70
    64
  9
$PLIMCHECK
 70
     0
  9
$PEXTMIN
 10
1.0000000000000000E+20
 20
1.0000000000000000E+20
 30
1.0000000000000000E+20
  9
$PEXTMAX
 10
-1.0000000000000000E+20
 20
-1.0000000000000000E+20
 30
-1.0000000000000000E+20
  9
$PLIMMIN
 10
0.0
 20
0.0
  9
$PLIMMAX
 10
12.0
 20
9.0
  9
$UNITMODE
 70
     0
  9
$VISRETAIN
 70
     1
  9
$PLINEGEN
 70
     0
  9
$PSLTSCALE
 70
     1
  0
ENDSEC
  0
SECTION
  2
TABLES
  0
TABLE
  2
VPORT
 70
     1
  0
VPORT
  2
*ACTIVE
 70
     0
 10
0.0
 20
0.0
 11
1.0
 21
1.0
 12
274.3222866090654861
 22
-21.4682337696102117
 13
0.0
 23
0.0
 14
1.0
 24
1.0
 15
0.0
 25
0.0
 16
0.0
 26
0.0
 36
96.5995694866707311
 17
3303.693115234375
 27
195.2615115758877096
 37
0.0
 40
6.5092162599978423
 41
2.6486111111111108
 42
50.0
 43
0.0
 44
0.0
 50
0.0
 51
0.0
 71
     0
 72
   100
 73
     1
 74
     1
 75
     0
 76
     0
 77
     0
 78
     0
  0
ENDTAB
  0
TABLE
  2
LTYPE
 70
     2
  0
LTYPE
  2
CONTINUOUS
 70
     0
  3
Solid line
 72
    65
 73
     0
 40
0.0
  0
LTYPE
  2
PHANTOM2
 70
     0
  3
___ _ _ ___ _ _ ___ _ _ ___ _ _
 72
    65
 73
     6
 40
1.25
 49
0.625
 49
-0.125
 49
0.125
 49
-0.125
 49
0.125
 49
-0.125
  0
ENDTAB
  0
TABLE
  2
LAYER
 70
     2
  0
LAYER
  2
0
 70
     0
 62
   255
  6
CONTINUOUS
  0
LAYER
  2
DEFPOINTS
 70
     0
 62
     7
  6
CONTINUOUS
  0
ENDTAB
  0
TABLE
  2
STYLE
 70
     1
  0
STYLE
  2
STANDARD
 70
     0
 40
0.0
 41
0.8
 50
0.0
 71
     0
 42
0.2
  3
txt
  4

  0
ENDTAB
  0
TABLE
  2
VIEW
 70
     0
  0
ENDTAB
  0
TABLE
  2
UCS
 70
     0
  0
ENDTAB
  0
TABLE
  2
APPID
 70
     9
  0
APPID
  2
ACAD
 70
     0
  0
APPID
  2
ACAD_MLEADERVER
 70
     0
  0
APPID
  2
ACAD_EXEMPT_FROM_CAD_STANDARDS
 70
     0
  0
APPID
  2
ACAD_NAV_VCDISPLAY
 70
     0
  0
APPID
  2
ACAECLAYERSTANDARD
 70
     0
  0
APPID
  2
ACCMTRANSPARENCY
 70
     0
  0
APPID
  2
ACAD_DSTYLE_DIMJAG
 70
     0
  0
APPID
  2
ACAD_DSTYLE_DIMTALN
 70
     0
  0
APPID
  2
ACDBATTR
 70
     0
  0
ENDTAB
  0
TABLE
  2
DIMSTYLE
 70
     1
  0
DIMSTYLE
  2
STANDARD
 70
     0
  3

  4

  5

  6

  7

 40
1.0
 41
0.1875
 42
0.0625
 43
0.38
 44
0.125
 45
0.0
 46
0.0
 47
0.01
 48
0.01
140
0.15625
141
0.09
142
0.0
143
25.3999999999999986
144
1.0
145
0.0
146
1.0
147
0.09
 71
     1
 72
     0
 73
     1
 74
     1
 75
     0
 76
     0
 77
     0
 78
     4
170
     0
171
     2
172
     0
173
     0
174
     0
175
     0
176
     0
177
     0
178
     0
  0
ENDTAB
  0
ENDSEC
  0
SECTION
  2
BLOCKS
  0
BLOCK
  8
0
  2
$MODEL_SPACE
 70
     0
 10
0.0
 20
0.0
 30
0.0
  3
$MODEL_SPACE
  1

  0
ENDBLK
  5
21
  8
0
  0
BLOCK
 67
     1
  8
0
  2
$PAPER_SPACE
 70
     0
 10
0.0
 20
0.0
 30
0.0
  3
$PAPER_SPACE
  1

  0
ENDBLK
  5
1D
 67
     1
  8
0
  0
BLOCK
  8
0
  2
_FILLED
 70
     0
 10
0.0
 20
0.0
 30
0.0
  3
_FILLED
  1

  0
SOLID
  5
9E2C
  8
0
  6
BYBLOCK
 62
     0
 10
0.0
 20
0.0
 30
0.0
 11
-1.0
 21
0.1666666667
 31
0.0
 12
-1.0
 22
-0.1666666667
 32
0.0
 13
-1.0
 23
-0.1666666667
 33
0.0
  0
ENDBLK
  5
9E2D
  8
0
  6
BYBLOCK
 62
     0
  0
BLOCK
  8
0
  2
A$C6B0F1CD5
 70
     2
 10
0.0
 20
0.0
 30
0.0
  3
A$C6B0F1CD5
  1

  0
ATTDEF
  5
B779
  8
DEFPOINTS
 10
0.0005209962714616
 20
0.000347009907216
 30
0.0
 40
0.001
  1
BATH FAUCET
  3

  2
PRODUCT
 70
     0
1001
ACDBATTR
1070
     0
1070
     1
  0
ATTDEF
  5
B77A
  8
DEFPOINTS
 10
0.0005209962714616
 20
0.0020136765738812
 30
0.0
 40
0.001
  1
SINGULIER
  3

  2
TRADENAME
 70
     0
1001
ACDBATTR
1070
     0
1070
     1
  0
ATTDEF
  5
B77B
  8
DEFPOINTS
 10
0.0005209962714616
 20
0.0036803432405463
 30
0.0
 40
0.001
  1
K-10873W
  3

  2
MODELNUMBER
 70
     0
1001
ACDBATTR
1070
     0
1070
     1
  0
ENDBLK
  5
B77F
  8
0
  0
ENDSEC
  0
SECTION
  2
ENTITIES
  0
ATTDEF
  5
D5A5
  8
DEFPOINTS
 10
3577.9827185644239762
 20
170.5718995523733952
 30
0.0
 40
0.001
  1
K-8670T-3
  3

  2
MODELNUMBER
 70
     0
1001
ACDBATTR
1070
     0
1070
     1
  0
ATTDEF
  5
D5A6
  8
DEFPOINTS
 10
3577.9827185644239762
 20
170.5702328857067016
 30
0.0
 40
0.001
  1
FINIAL
  3

  2
TRADENAME
 70
     0
1001
ACDBATTR
1070
     0
1070
     1
  0
ATTDEF
  5
D5A7
  8
DEFPOINTS
 10
3577.9827185644239762
 20
170.5685662190400933
 30
0.0
 40
0.001
  1
BATHROOM SINK FAUCET
  3

  2
PRODUCT
 70
     0
1001
ACDBATTR
1070
     0
1070
     1
  0
LINE
  5
DDF9
  8
0
 10
3580.9122860790448613
 20
170.5678453155780119
 30
0.0
 11
3583.0522860790460982
 21
170.5678453155780119
 31
0.0
  0
LINE
  5
DDFA
  8
0
 10
3581.0072765438740134
 20
170.7978453155780869
 30
0.0
 11
3582.9572860779098846
 21
170.7978453145676099
 31
0.0
  0
LINE
  5
DDFB
  8
0
 10
3581.6672869620460915
 20
173.6578453155781006
 30
0.0
 11
3582.2972851960448679
 21
173.6578453155781006
 31
0.0
  0
LINE
  5
DDFC
  8
0
 10
3581.6672869620460915
 20
173.6758453155779875
 30
0.0
 11
3582.2972851960448679
 21
173.6758453155779875
 31
0.0
  0
LINE
  5
DDFD
  8
0
 10
3580.9078180608780713
 20
170.6475949924779911
 30
0.0
 11
3583.0567540972137976
 21
170.6475949924779911
 31
0.0
  0
LINE
  5
DDFE
  8
0
 10
3580.9958730775238109
 20
170.7378590117779993
 30
0.0
 11
3582.9686990805671485
 21
170.7378590117779993
 31
0.0
  0
CIRCLE
  5
DDFF
  8
0
 10
3581.982286079045025
 20
174.1208453155780091
 30
0.0
 40
0.0422124307000003
  0
ARC
  5
DE00
  8
0
 10
3581.9822931147082272
 20
174.1208453155780091
 30
0.0
 40
0.2275000001087924
 50
269.9982280714572767
 51
90.0017719285427091
  0
ARC
  5
DE01
  8
0
 10
3583.0522860790460982
 20
170.6078453155780039
 30
0.0
 40
0.0399999999999992
 50
270.0
 51
83.5866520741995629
  0
ARC
  5
DE02
  8
0
 10
3583.0612221144488103
 20
170.6873446694648067
 30
0.0
 40
0.0399999999821941
 50
182.1138208335684965
 51
263.5866520741994918
  0
ARC
  5
DE03
  8
0
 10
3582.9672860789078186
 20
170.6838775015791896
 30
0.0
 40
0.0540000001576987
 50
2.1138208335702058
 51
88.5005890240654054
  0
ARC
  5
DE04
  8
0
 10
3582.9697457460270016
 20
170.7778453155999898
 30
0.0
 40
0.0400000000240729
 50
194.4775122095026063
 51
268.5005890240653912
  0
ARC
  5
DE05
  8
0
 10
3582.8922860790671621
 20
170.757845315556807
 30
0.0
 40
0.0400000000212474
 50
14.4775122095010698
 51
90.0000000307450136
  0
ARC
  5
DE06
  8
0
 10
3582.9572860779339862
 20
170.8428453155144098
 30
0.0
 40
0.04500000094676
 50
270.0000014156258885
 51
32.3993034346596787
  0
ARC
  5
DE07
  8
0
 10
3586.7947860606259383
 20
173.2781314843267069
 30
0.0
 40
4.4999999815800384
 50
179.9999999318642097
 51
212.3993041687301115
  0
LINE
  5
DE08
  8
0
 10
3582.2947860790459345
 20
173.2781314896780032
 30
0.0
 11
3582.2945865844958462
 21
173.6128453155781131
 31
0.0
  0
ARC
  5
DE09
  8
0
 10
3582.2499263911959133
 20
173.6131840580437995
 30
0.0
 40
0.0446614779428262
 50
359.5654263894608107
 51
90.1800054007338048
  0
LINE
  5
DE0A
  8
0
 10
3582.2972851960448679
 20
173.6578453155781006
 30
0.0
 11
3582.2972851960448679
 21
173.6758453155779875
 31
0.0
  0
ARC
  5
DE0B
  8
0
 10
3582.2499263904701365
 20
173.7205065738349106
 30
0.0
 40
0.0446614786631659
 50
269.819995533372321
 51
0.4345726764645539
  0
LINE
  5
DE0C
  8
0
 10
3582.2945865844958462
 20
173.7208453155780035
 30
0.0
 11
3582.2945865844958462
 21
174.0200953149688132
 31
0.0
  0
ARC
  5
DE0D
  8
0
 10
3582.5941750406718711
 20
174.1208453152233915
 30
0.0
 40
0.3160756327608274
 50
161.4124823260104904
 51
198.5875176739893959
  0
LINE
  5
DE0E
  8
0
 10
3582.2945865844958462
 20
174.2215953154781118
 30
0.0
 11
3582.2945865844958462
 21
174.2383453155779875
 31
0.0
  0
ARC
  5
DE0F
  8
0
 10
3581.9824270343410717
 20
174.2386856117628895
 30
0.0
 40
0.3121597356392789
 50
359.9375398656205221
 51
90.0258718305188239
  0
ARC
  5
DE10
  8
0
 10
3582.2943300991350952
 20
175.3114380870736113
 30
0.0
 40
1.099424317282516
 50
269.8542940893642026
 51
298.3155103000494819
  0
ARC
  5
DE11
  8
0
 10
3582.8347882606990424
 20
174.3083489688063139
 30
0.0
 40
0.0399978185330488
 50
359.9944819317914835
 51
118.3155103000494961
  0
LINE
  5
DE12
  8
0
 10
3582.8747860790458617
 20
174.308345116677998
 30
0.0
 11
3582.8747860790458617
 21
173.9383819697781064
 31
0.0
  0
ARC
  5
DE13
  8
0
 10
3582.8347963819619508
 20
173.9333273753906042
 30
0.0
 40
0.0399890955891149
 50
241.6645364122018123
 51
358.07235893146742
  0
ARC
  5
DE14
  8
0
 10
3582.2943150020169014
 20
172.9301351095060966
 30
0.0
 40
1.0995348624640531
 50
61.686699730461882
 51
90.1447971060283777
  0
ARC
  5
DE15
  8
0
 10
3583.3147860789981678
 20
174.1208453155780091
 30
0.0
 40
0.0600000000477209
 50
315.2883010838077098
 51
44.7116989161922476
  0
ARC
  5
DE16
  8
0
 10
3582.9132655323528525
 20
173.7233453169613995
 30
0.0
 40
0.6249999985240856
 50
44.7116989161922476
 51
89.3558191001919937
  0
ARC
  5
DE17
  8
0
 10
3582.9197863671010964
 20
174.3033075098236964
 30
0.0
 40
0.045001148149831
 50
89.3558191001919937
 51
179.7605322067466886
  0
ARC
  5
DE18
  8
0
 10
3582.9132655315938791
 20
174.5183453156496967
 30
0.0
 40
0.625000000087532
 50
270.6441809678422032
 51
315.2883010380011797
  0
ARC
  5
DE19
  8
0
 10
3582.9197845054832214
 20
173.9383909614406036
 30
0.0
 40
0.0450090088273557
 50
181.3810679220374027
 51
270.6464383519814874
  0
ARC
  5
DE1A
  8
0
 10
3582.4271474190309164
 20
173.9368070058870899
 30
0.0
 40
0.4476414306694995
 50
359.3824441682343149
 51
0.2015876186376359
  0
LINE
  5
DE1B
  8
0
 10
3582.8158162337458634
 20
174.3435610076668922
 30
0.0
 11
3582.8158162337458634
 21
173.8981296234777005
 31
0.0
  0
LINE
  5
DE1C
  8
0
 10
3576.9122860790448613
 20
170.5678453155780119
 30
0.0
 11
3579.0522860790460982
 21
170.5678453155780119
 31
0.0
  0
ARC
  5
DE1D
  8
0
 10
3576.9042844392051848
 20
170.6874502978016892
 30
0.0
 40
0.0400116463506237
 50
275.0666684580710921
 51
359.9928655675709024
  0
ARC
  5
DE1E
  8
0
 10
3576.9962960851298703
 20
170.6874453156256948
 30
0.0
 40
0.0519999998849334
 50
90.0241850836364534
 51
180.000000052501008
  0
ARC
  5
DE1F
  8
0
 10
3576.9963032338851008
 20
170.7793846829441975
 30
0.0
 40
0.0399393826662523
 50
269.9582562924637728
 51
344.4016683931318994
  0
ARC
  5
DE20
  8
0
 10
3577.073312694273227
 20
170.7578282451308098
 30
0.0
 40
0.0400302368967384
 50
91.4695683589614958
 51
164.3224991333862022
  0
LINE
  5
DE21
  8
0
 10
3577.0722860777332244
 20
170.7978453155444072
 30
0.0
 11
3578.8922861171190561
 21
170.7978453146012896
 31
0.0
  0
LINE
  5
DE22
  8
0
 10
3576.9078180608780713
 20
170.6475949924779911
 30
0.0
 11
3579.0557670648931889
 21
170.6476935619324991
 31
0.0
  0
LINE
  5
DE23
  8
0
 10
3576.9962741353738238
 20
170.7394453108780112
 30
0.0
 11
3578.9682980225679785
 21
170.7394453108780965
 31
0.0
  0
ARC
  5
DE24
  8
0
 10
3577.0986991791178298
 20
170.8453523114463053
 30
0.0
 40
0.0475076754243612
 50
176.0729494486382976
 51
269.6935540975816821
  0
ARC
  5
DE25
  8
0
 10
3277.5836642537701664
 20
186.9428081144617977
 30
0.0
 40
299.9108777701046051
 50
357.1491458892951982
 51
357.7864361817161125
  0
ARC
  5
DE26
  8
0
 10
3584.368685342928984
 20
175.0845823301168878
 30
0.0
 40
7.1032370250100794
 50
169.8538664120540886
 51
177.7864361817161125
  0
ARC
  5
DE27
  8
0
 10
3578.5320677147451534
 20
176.1292619693525978
 30
0.0
 40
1.1738643165242399
 50
150.9609340404946067
 51
169.8620504250860108
  0
ARC
  5
DE28
  8
0
 10
3577.977129420026813
 20
176.4064561048726887
 30
0.0
 40
0.5547947320731818
 50
97.3045580108150148
 51
148.1691095777844964
  0
ARC
  5
DE29
  8
0
 10
3577.9893750160758827
 20
176.3107666494225896
 30
0.0
 40
0.6512645520351754
 50
90.6236700472918528
 51
97.3027915426320931
  0
ARC
  5
DE2A
  8
0
 10
3530.5230317911868951
 20
174.2866848217612983
 30
0.0
 40
46.65512204103225
 50
355.7739659563300165
 51
357.2230771397140074
  0
ARC
  5
DE2B
  8
0
 10
3574.9716623651288501
 20
176.2200939322050033
 30
0.0
 40
2.5436127758257561
 50
347.5076656324721966
 51
2.952622725477267
  0
ARC
  5
DE2C
  8
0
 10
3572.2158950051448301
 20
176.5547129604769907
 30
0.0
 40
5.3133523605502546
 50
347.0078043654049793
 51
350.4139521655694125
  0
ARC
  5
DE2D
  8
0
 10
3577.9818129885229609
 20
174.3492291058419141
 30
0.0
 40
1.2557461827523331
 50
89.978414355319245
 51
98.1835943817248733
  0
ARC
  5
DE2E
  8
0
 10
3577.9402927913379244
 20
174.6379448822245024
 30
0.0
 40
0.9640601763918375
 50
98.1835943817248733
 51
112.4666188167090013
  0
ARC
  5
DE2F
  8
0
 10
3577.7335042905438058
 20
175.1380003151761002
 30
0.0
 40
0.422934571670721
 50
112.4666188167090013
 51
129.9949724366549049
  0
ARC
  5
DE30
  8
0
 10
3577.5835114639330641
 20
175.3061926108005082
 30
0.0
 40
0.1977960972155693
 50
128.0222094482764987
 51
164.1539505364160902
  0
ARC
  5
DE31
  8
0
 10
3577.5624406828778774
 20
175.3251426956267949
 30
0.0
 40
0.1728026392243509
 50
168.2943610140227122
 51
191.0224951982555126
  0
ARC
  5
DE32
  8
0
 10
3577.5809804862938108
 20
175.3339608146737874
 30
0.0
 40
0.1927541644334738
 50
192.5418295734488083
 51
223.8502589866045867
  0
ARC
  5
DE33
  8
0
 10
3577.6863712751701314
 20
175.4231900039563072
 30
0.0
 40
0.3306863981001523
 50
222.3488775803448902
 51
237.9288520058634901
  0
ARC
  5
DE34
  8
0
 10
3577.9815059352231401
 20
174.4810124169862888
 30
0.0
 40
0.686688497250889
 50
89.9349064994745078
 51
100.1047490308997965
  0
ARC
  5
DE35
  8
0
 10
3577.9499506603688133
 20
174.6580776989343065
 30
0.0
 40
0.5068334182499307
 50
100.1047487900891042
 51
112.7708691670378016
  0
ARC
  5
DE36
  8
0
 10
3577.8411467394480496
 20
174.9108573074155117
 30
0.0
 40
0.2316565666711037
 50
112.1559432457123933
 51
135.8124077100881948
  0
ARC
  5
DE37
  8
0
 10
3577.7549134303740175
 20
174.999113134153788
 30
0.0
 40
0.1083534520509058
 50
137.4938692682837029
 51
156.1910184753369037
  0
ARC
  5
DE38
  8
0
 10
3577.72375482341522
 20
175.0127874374751968
 30
0.0
 40
0.0743264237324525
 50
156.1387481111383977
 51
198.0960569079421134
  0
ARC
  5
DE39
  8
0
 10
3577.7572649953499422
 20
175.0264701188459924
 30
0.0
 40
0.110459616629634
 50
199.443392792834203
 51
226.776837509899309
  0
ARC
  5
DE3A
  8
0
 10
3577.8899366835821638
 20
175.1871560342931105
 30
0.0
 40
0.3186897217812665
 50
229.1808514463251072
 51
257.9725588961932203
  0
ARC
  5
DE3B
  8
0
 10
3577.9794623070138186
 20
175.5091085443924044
 30
0.0
 40
0.6525512641843051
 50
256.1747805377946747
 51
270.2479356542879145
  0
ARC
  5
DE3C
  8
0
 10
3577.9820386153101026
 20
175.5412260942501064
 30
0.0
 40
0.6777919107468674
 50
261.2132652670691186
 51
270.0209188509606975
  0
ARC
  5
DE3D
  8
0
 10
3577.9566006335930979
 20
175.3766547157173932
 30
0.0
 40
0.5112661483377873
 50
246.7980818540675045
 51
261.2132652670691186
  0
ARC
  5
DE3E
  8
0
 10
3577.8450055592788885
 20
175.1163079712794115
 30
0.0
 40
0.2280102782298115
 50
230.1472700055849998
 51
246.7980818540675045
  0
ARC
  5
DE3F
  8
0
 10
3577.7842237658251179
 20
175.043491767433693
 30
0.0
 40
0.1331597328540837
 50
206.1216073321245119
 51
230.1472700055849998
  0
ARC
  5
DE40
  8
0
 10
3577.7296117760638481
 20
175.0138337863781999
 30
0.0
 40
0.071114946005991
 50
163.6237315478124117
 51
204.0390214077837925
  0
ARC
  5
DE41
  8
0
 10
3577.7538005400319889
 20
175.0039631831359941
 30
0.0
 40
0.0971415104517565
 50
136.1689570681278951
 51
162.0603543660348009
  0
ARC
  5
DE42
  8
0
 10
3577.8228561452870053
 20
174.9380519439341981
 30
0.0
 40
0.1926031763541011
 50
118.3658068738070028
 51
136.2510546883619895
  0
ARC
  5
DE43
  8
0
 10
3577.9318857683028909
 20
174.7300756433349136
 30
0.0
 40
0.4274177559240448
 50
99.5819114338739269
 51
117.9809858798859068
  0
ARC
  5
DE44
  8
0
 10
3577.9725967120439236
 20
174.558021732987612
 30
0.0
 40
0.6039574791377238
 50
94.6739572144764452
 51
100.673265146135904
  0
ARC
  5
DE45
  8
0
 10
3577.9816152083890302
 20
174.493543101655689
 30
0.0
 40
0.6689669888122549
 50
89.9425411652469791
 51
94.9938060640410527
  0
ARC
  5
DE46
  8
0
 10
3577.980997976548224
 20
174.5313752406736967
 30
0.0
 40
0.9852860533977548
 50
89.9250949940527136
 51
101.8428665480206945
  0
ARC
  5
DE47
  8
0
 10
3577.8947693771028753
 20
174.9119177452429881
 30
0.0
 40
0.595180469859322
 50
101.2368556025371049
 51
119.7617078275321063
  0
ARC
  5
DE48
  8
0
 10
3577.7272141704529531
 20
175.2073989580470936
 30
0.0
 40
0.2555035314306461
 50
120.035476384095702
 51
141.6501391216984018
  0
ARC
  5
DE49
  8
0
 10
3577.6376538623158012
 20
175.280989725594111
 30
0.0
 40
0.1396232533674897
 50
142.5299186237421054
 51
158.0294765299807125
  0
ARC
  5
DE4A
  8
0
 10
3577.6102716022569439
 20
175.2920364934927022
 30
0.0
 40
0.110096667940329
 50
158.0294765299807125
 51
205.361976978035301
  0
LINE
  5
DE4B
  8
0
 10
3577.510786079045829
 20
175.3392966131220021
 30
0.0
 11
3577.510786079045829
 21
175.1290440924780114
 31
0.0
  0
ARC
  5
DE4C
  8
0
 10
3577.6408001732338562
 20
175.1292280420151997
 30
0.0
 40
0.1300142243184421
 50
180.0810644811699888
 51
204.2219522298117056
  0
ARC
  5
DE4D
  8
0
 10
3577.7138263850210933
 20
175.1690784783259005
 30
0.0
 40
0.2130565545282708
 50
205.9383344722153026
 51
236.9535326073190049
  0
ARC
  5
DE4E
  8
0
 10
3577.8377590443387817
 20
175.3420408191338993
 30
0.0
 40
0.4257288163589296
 50
235.6662416878072008
 51
248.4839038580375075
  0
ARC
  5
DE4F
  8
0
 10
3577.9278887750751892
 20
174.6567370296324953
 30
0.0
 40
0.6867850149734855
 50
101.0992672917709001
 51
113.9683590371531068
  0
ARC
  5
DE50
  8
0
 10
3577.7868829876201744
 20
174.9739124908138876
 30
0.0
 40
0.3396785395637588
 50
113.9683590371531068
 51
131.9048888741764927
  0
ARC
  5
DE51
  8
0
 10
3577.6707684126768072
 20
175.1033020869180916
 30
0.0
 40
0.1658272752764386
 50
131.9048888741764927
 51
154.6081402893337895
  0
ARC
  5
DE52
  8
0
 10
3577.6168630323118123
 20
175.1288888586705923
 30
0.0
 40
0.1061575767605834
 50
154.6081402893337895
 51
177.7668369693269881
  0
ARC
  5
DE53
  8
0
 10
3577.9811452213962184
 20
174.4900525792419046
 30
0.0
 40
0.9682872616283756
 50
89.932492818947793
 51
101.0428686886746021
  0
LINE
  5
DE54
  8
0
 10
3577.982286079045025
 20
175.4404111747780064
 30
0.0
 11
3577.7956761918458142
 21
175.4404111747780064
 31
0.0
  0
LINE
  5
DE55
  8
0
 10
3577.7956761918458142
 20
175.4404111747780064
 30
0.0
 11
3577.7956761918458142
 21
175.3306758173781077
 31
0.0
  0
ARC
  5
DE56
  8
0
 10
3577.8058853404281763
 20
175.3306758173781077
 30
0.0
 40
0.0102091485820912
 50
179.9999999999984084
 51
218.1131064060670894
  0
ARC
  5
DE57
  8
0
 10
3577.8312992515311635
 20
175.3565132247757958
 30
0.0
 40
0.0463848607870782
 50
223.8576871630502865
 51
258.2487759435564953
  0
ARC
  5
DE58
  8
0
 10
3577.8743341336589765
 20
175.5209801021458986
 30
0.0
 40
0.2163417779872962
 50
255.9607104213469029
 51
268.2287382056625802
  0
ARC
  5
DE59
  8
0
 10
3577.8944099727800676
 20
175.8847434074195064
 30
0.0
 40
0.5806188392840971
 50
267.3580925349891118
 51
270.163791015700383
  0
LINE
  5
DE5A
  8
0
 10
3577.896069781245842
 20
175.3041269405781009
 30
0.0
 11
3577.9822860789959122
 21
175.3041269405781009
 31
0.0
  0
ARC
  5
DE5B
  8
0
 10
3577.9677007049508575
 20
174.5061099771874922
 30
0.0
 40
0.8012253510030458
 50
95.1291893690966788
 51
106.9553108917924931
  0
ARC
  5
DE5C
  8
0
 10
3577.8695780480229587
 20
174.8279523354142952
 30
0.0
 40
0.4647575823361249
 50
106.9553108917924931
 51
122.4081950656908049
  0
ARC
  5
DE5D
  8
0
 10
3577.7313502216920824
 20
175.045695690966312
 30
0.0
 40
0.2068446108533875
 50
122.4081950656908049
 51
149.6968641890123877
  0
ARC
  5
DE5E
  8
0
 10
3577.6326097265919088
 20
175.1034022272633877
 30
0.0
 40
0.0924779649108568
 50
149.6968641890138088
 51
200.5700343720546073
  0
ARC
  5
DE5F
  8
0
 10
3577.7075132044719794
 20
175.1359700912884989
 30
0.0
 40
0.1740986806158727
 50
201.9438134288733124
 51
237.4737520562599116
  0
ARC
  5
DE60
  8
0
 10
3577.8239505089181876
 20
175.291959717877404
 30
0.0
 40
0.3685048554475685
 50
235.2497844274409999
 51
245.649285972998797
  0
ARC
  5
DE61
  8
0
 10
3577.9785232626991274
 20
174.5150716557072883
 30
0.0
 40
0.7716021298619282
 50
89.7205611558783858
 51
105.2603829140855964
  0
ARC
  5
DE62
  8
0
 10
3577.8887906212771668
 20
174.8439722946843062
 30
0.0
 40
0.4306804713301847
 50
105.2603829140855964
 51
123.6236433176246976
  0
ARC
  5
DE63
  8
0
 10
3577.7398142139941228
 20
175.0679991960423081
 30
0.0
 40
0.1616413989652113
 50
123.6236433176246976
 51
152.955845576336003
  0
ARC
  5
DE64
  8
0
 10
3577.6833324266740419
 20
175.1015845493840004
 30
0.0
 40
0.0961582194992607
 50
155.4783169387912949
 51
226.0254175601158124
  0
ARC
  5
DE65
  8
0
 10
3577.7414777987210073
 20
175.0709447064834876
 30
0.0
 40
0.1307281389192334
 50
197.1554344189640915
 51
234.7611691057709038
  0
ARC
  5
DE66
  8
0
 10
3577.695692528302061
 20
175.0519797034648946
 30
0.0
 40
0.0815167403374255
 50
180.0664850966144002
 51
193.9091281089704921
  0
LINE
  5
DE67
  8
0
 10
3577.6141758428448156
 20
175.051885112778109
 30
0.0
 11
3577.6141758428448156
 21
175.1283868808006901
 31
0.0
  0
ARC
  5
DE68
  8
0
 10
3577.6978776953210399
 20
175.1282537848962022
 30
0.0
 40
0.0837019582950335
 50
157.6175493957084086
 51
179.9088929701991901
  0
ARC
  5
DE69
  8
0
 10
3577.7320798747850858
 20
175.1141689178944887
 30
0.0
 40
0.1206907749630549
 50
133.4894828848395036
 51
157.6175493957084086
  0
LINE
  5
DE6A
  8
0
 10
3577.5958472680858904
 20
175.141493824047501
 30
0.0
 11
3577.6141758428448156
 21
175.1068118635780024
 31
0.0
  0
ARC
  5
DE6B
  8
0
 10
3577.9776522055208261
 20
174.5159577038469934
 30
0.0
 40
0.7073576005820033
 50
89.6246866694117443
 51
105.9835014136363043
  0
ARC
  5
DE6C
  8
0
 10
3577.8903042238957823
 20
174.82090770491439
 30
0.0
 40
0.3901444655373067
 50
105.9835014136363043
 51
123.5054588843435965
  0
ARC
  5
DE6D
  8
0
 10
3577.7612130307770713
 20
175.0159028547444962
 30
0.0
 40
0.1562905697001915
 50
123.5054588843435965
 51
153.2467883600897949
  0
ARC
  5
DE6E
  8
0
 10
3577.6840308603527774
 20
175.0548112969007093
 30
0.0
 40
0.0698558874118627
 50
153.2467883600911875
 51
180.2859382264410897
  0
ARC
  5
DE6F
  8
0
 10
3577.7092189141990275
 20
175.0519227674087119
 30
0.0
 40
0.0773197128232235
 50
162.1563024592338138
 51
189.4124092744939105
  0
ARC
  5
DE70
  8
0
 10
3577.7212297756368571
 20
175.054395388824986
 30
0.0
 40
0.0895745006681081
 50
189.7162927452502004
 51
207.7842154580193039
  0
ARC
  5
DE71
  8
0
 10
3579.2092968517440568
 20
175.7255648485053996
 30
0.0
 40
1.7218406674535831
 50
204.4593530332248861
 51
205.4919538188642036
  0
ARC
  5
DE72
  8
0
 10
3577.7719280397750481
 20
175.0209920815129863
 30
0.0
 40
0.146846684387787
 50
116.8137701979876937
 51
158.1626104876980889
  0
ARC
  5
DE73
  8
0
 10
3577.8978300944818329
 20
174.8209963535580869
 30
0.0
 40
0.3827730891033685
 50
106.6243834253600937
 51
120.1309077977944071
  0
ARC
  5
DE74
  8
0
 10
3577.9669678408690743
 20
174.5961489073031032
 30
0.0
 40
0.6180051429501145
 50
95.6013862588848156
 51
106.8023752563246944
  0
ARC
  5
DE75
  8
0
 10
3577.9820382134130341
 20
174.4744042515795002
 30
0.0
 40
0.7406459979287981
 50
89.9808589337053775
 51
95.8423828405872484
  0
LINE
  5
DE76
  8
0
 10
3577.9745310285461528
 20
175.1574033871766005
 30
0.0
 11
3577.9745310285461528
 21
175.162472579944108
 31
0.0
  0
ARC
  5
DE77
  8
0
 10
3577.9818203155709853
 20
175.1577735546987924
 30
0.0
 40
0.0072986799726402
 50
182.9071201559328017
 51
273.6588023048004175
  0
LINE
  5
DE78
  8
0
 10
3577.9783490711461127
 20
175.1624642390781048
 30
0.0
 11
3577.9783490711461127
 21
175.1588281612868059
 31
0.0
  0
ARC
  5
DE79
  8
0
 10
3577.9820965401981994
 20
175.1596360491674886
 30
0.0
 40
0.0038335632416939
 50
192.1657638961000885
 51
272.8339705551957763
  0
LINE
  5
DE7A
  8
0
 10
3577.923382937146016
 20
175.1599707681779989
 30
0.0
 11
3577.923382937146016
 21
175.1542677232781102
 31
0.0
  0
ARC
  5
DE7B
  8
0
 10
3577.9149283018709866
 20
175.1548399769424122
 30
0.0
 40
0.0084739796963013
 50
276.3245795723971128
 51
356.1278297740531116
  0
ARC
  5
DE7C
  8
0
 10
3577.9148429349747857
 20
175.1533903401123098
 30
0.0
 40
0.0070468140689332
 50
234.0700093652783096
 51
278.3132716912007254
  0
ARC
  5
DE7D
  8
0
 10
3577.9142287268241489
 20
175.1523283382121861
 30
0.0
 40
0.0058278179668547
 50
179.311066999984007
 51
232.8327932939081109
  0
LINE
  5
DE7E
  8
0
 10
3577.9084013301458072
 20
175.152398411076291
 30
0.0
 11
3577.9084013301458072
 21
175.1585578181226879
 31
0.0
  0
LINE
  5
DE7F
  8
0
 10
3577.9186761995761117
 20
175.1595674211457947
 30
0.0
 11
3577.9186764822461555
 21
175.1555776054323985
 31
0.0
  0
ARC
  5
DE80
  8
0
 10
3577.9144356065039574
 20
175.1559066035740102
 30
0.0
 40
0.0042536180875397
 50
275.4936549954704788
 51
355.5639998614068986
  0
ARC
  5
DE81
  8
0
 10
3577.9142526308578454
 20
175.1549971163379951
 30
0.0
 40
0.0033765742022146
 50
201.5179172551744102
 51
280.0665510783856007
  0
LINE
  5
DE82
  8
0
 10
3577.9111113940448377
 20
175.1537586153779955
 30
0.0
 11
3577.9084014841369026
 21
175.1584569975125021
 31
0.0
  0
LINE
  5
DE83
  8
0
 10
3577.9164954535340257
 20
175.1593679605470868
 30
0.0
 11
3577.9186764839728312
 21
175.1555776024302133
 31
0.0
  0
LINE
  5
DE84
  8
0
 10
3577.8607388966461258
 20
175.1515303392781107
 30
0.0
 11
3577.8607388966461258
 21
175.1432051097779947
 31
0.0
  0
ARC
  5
DE85
  8
0
 10
3577.8511365959461727
 20
175.1436666744486956
 30
0.0
 40
0.0096133875748336
 50
287.1056688621256967
 51
357.248017051545105
  0
ARC
  5
DE86
  8
0
 10
3577.8523301910308874
 20
175.1391736833141977
 30
0.0
 40
0.0049713577848417
 50
210.8866846118507965
 51
289.1893078016624941
  0
ARC
  5
DE87
  8
0
 10
3577.8527891778749108
 20
175.1394078641731085
 30
0.0
 40
0.0054855773003624
 50
178.0567695973072091
 51
210.5248029121950992
  0
LINE
  5
DE88
  8
0
 10
3577.847306755244972
 20
175.1395938760780098
 30
0.0
 11
3577.847306755244972
 21
175.1417583626779901
 31
0.0
  0
LINE
  5
DE89
  8
0
 10
3577.8401744306511318
 20
175.1475381789296932
 30
0.0
 11
3577.847306755244972
 21
175.1417583626470105
 31
0.0
  0
LINE
  5
DE8A
  8
0
 10
3577.847306755244972
 20
175.1417583626470105
 30
0.0
 11
3577.8488950207060952
 21
175.1404773462290905
 31
0.0
  0
ARC
  5
DE8B
  8
0
 10
3577.851151339243188
 20
175.1423752279175972
 30
0.0
 40
0.0029483772221871
 50
220.0685619684020082
 51
286.641932199271082
  0
ARC
  5
DE8C
  8
0
 10
3577.8506349677568323
 20
175.1442021457498868
 30
0.0
 40
0.00484673842935
 50
286.3053955316725023
 51
356.3930776310829742
  0
LINE
  5
DE8D
  8
0
 10
3577.8554721054510992
 20
175.1438972321097083
 30
0.0
 11
3577.8554637884130898
 21
175.1506058076143972
 31
0.0
  0
LINE
  5
DE8E
  8
0
 10
3577.8486613172549369
 20
175.149312603569598
 30
0.0
 11
3577.8554721054510992
 21
175.1438972321097083
 31
0.0
  0
LINE
  5
DE8F
  8
0
 10
3577.7861429946460703
 20
175.1318778110814094
 30
0.0
 11
3577.8008957182460108
 21
175.1250080255780119
 31
0.0
  0
LINE
  5
DE90
  8
0
 10
3577.8008957182460108
 20
175.1250080255780119
 30
0.0
 11
3577.8008957182460108
 21
175.1369264081924086
 31
0.0
  0
LINE
  5
DE91
  8
0
 10
3577.7778872568628685
 20
175.1287865618627961
 30
0.0
 11
3577.7965175183671818
 21
175.120121074578492
 31
0.0
  0
ARC
  5
DE92
  8
0
 10
3577.7970922414310735
 20
175.1220636693001893
 30
0.0
 40
0.0020258284362482
 50
253.5189746408044016
 51
297.5008910046166193
  0
ARC
  5
DE93
  8
0
 10
3577.795259805473961
 20
175.1251791383880914
 30
0.0
 40
0.0056385051000189
 50
299.3991141918766061
 51
358.2609892122836186
  0
ARC
  5
DE94
  8
0
 10
3577.8057994221071567
 20
175.1201742541452973
 30
0.0
 40
0.010398670458765
 50
177.4563603219359891
 51
191.3001185373794044
  0
ARC
  5
DE95
  8
0
 10
3577.7999214940268757
 20
175.1189997155694869
 30
0.0
 40
0.004404541716364
 50
191.3001185373730095
 51
229.8165330804465043
  0
ARC
  5
DE96
  8
0
 10
3577.7990657401251156
 20
175.1185826254238123
 30
0.0
 40
0.0035546020155505
 50
236.0289197387521938
 51
299.416102801045497
  0
ARC
  5
DE97
  8
0
 10
3577.7951149794139383
 20
175.1252054674012015
 30
0.0
 40
0.0112655890130355
 50
300.3754145231861798
 51
358.799526256504123
  0
LINE
  5
DE98
  8
0
 10
3577.806378095745913
 20
175.1249694455779888
 30
0.0
 11
3577.806378095745913
 21
175.1386509267385918
 31
0.0
  0
LINE
  5
DE99
  8
0
 10
3577.7640051332450639
 20
175.1231431063127957
 30
0.0
 11
3577.7640051332450639
 21
175.1011800282215063
 31
0.0
  0
ARC
  5
DE9A
  8
0
 10
3577.7491879331901146
 20
175.1008443192853008
 30
0.0
 40
0.0148210025973272
 50
316.9931198631568918
 51
1.2979115420820451
  0
ARC
  5
DE9B
  8
0
 10
3577.7582882662131851
 20
175.0926765355808072
 30
0.0
 40
0.0026056127155879
 50
270.6332878067934757
 51
311.8331267827687725
  0
ARC
  5
DE9C
  8
0
 10
3577.7586244131498461
 20
175.0919358692036951
 30
0.0
 40
0.001889945473174
 50
202.4159209710547884
 51
260.6408473169341846
  0
ARC
  5
DE9D
  8
0
 10
3577.4309233842918729
 20
174.979734522052695
 30
0.0
 40
0.3444907461329559
 50
18.8813851036845897
 51
19.5151756660872202
  0
LINE
  5
DE9E
  8
0
 10
3577.7556241857450914
 20
175.0948139020781014
 30
0.0
 11
3577.7239563226189603
 21
175.1033238671932963
 31
0.0
  0
LINE
  5
DE9F
  8
0
 10
3577.7313505369461382
 20
175.1075296922780069
 30
0.0
 11
3577.7586881144461586
 21
175.100179979478014
 31
0.0
  0
LINE
  5
DEA0
  8
0
 10
3577.7586881144461586
 20
175.100179979478014
 30
0.0
 11
3577.7586831965868441
 21
175.1208272360765079
 31
0.0
  0
ARC
  5
DEA1
  8
0
 10
3577.7528791409449695
 20
175.0999369009431916
 30
0.0
 40
0.0058140626624288
 50
298.1498824385810735
 51
2.396146990324282
  0
LINE
  5
DEA2
  8
0
 10
3577.7365076563460207
 20
175.0999494591630139
 30
0.0
 11
3577.7365076563460207
 21
175.0723540278781059
 31
0.0
  0
ARC
  5
DEA3
  8
0
 10
3577.7085801352782255
 20
175.0723540278781059
 30
0.0
 40
0.0279275210682517
 50
346.2361719139930756
 51
0.0000000000016284
  0
ARC
  5
DEA4
  8
0
 10
3577.7114477848272145
 20
175.0716515849188966
 30
0.0
 40
0.0249750915522912
 50
338.746327764909779
 51
346.2361719139930756
  0
ARC
  5
DEA5
  8
0
 10
3577.7309481495281034
 20
175.0640668689509027
 30
0.0
 40
0.0040516085774586
 50
315.031630881577712
 51
338.7463277649083011
  0
ARC
  5
DEA6
  8
0
 10
3577.733527764316932
 20
175.0614901008100048
 30
0.0
 40
0.0004054946853192
 50
228.2797371830307895
 51
315.0316308816146034
  0
ARC
  5
DEA7
  8
0
 10
3577.7349439883319064
 20
175.0626285748572002
 30
0.0
 40
0.0022180475136259
 50
188.4688973061645925
 51
220.5213988355903041
  0
ARC
  5
DEA8
  8
0
 10
3577.7435503173151119
 20
175.0645278823911895
 30
0.0
 40
0.0110271955374896
 50
182.7338989520827113
 51
191.6458288506813972
  0
ARC
  5
DEA9
  8
0
 10
3577.7296918753049795
 20
175.0619846826629953
 30
0.0
 40
0.0034866033852163
 50
35.3497583550485786
 51
82.8954705704237824
  0
LINE
  5
DEAA
  8
0
 10
3577.7301230981461231
 20
175.06544451647801
 30
0.0
 11
3577.683721526429963
 21
175.0712341937422138
 31
0.0
  0
LINE
  5
DEAB
  8
0
 10
3577.688910839275195
 20
175.076452227673002
 30
0.0
 11
3577.7317183532450144
 21
175.0711109712779887
 31
0.0
  0
LINE
  5
DEAC
  8
0
 10
3577.7317183532450144
 20
175.0711109712779887
 30
0.0
 11
3577.7317183532450144
 21
175.1012380109548872
 31
0.0
  0
ARC
  5
DEAD
  8
0
 10
3577.7202256468090127
 20
175.0712898361119869
 30
0.0
 40
0.0114940986652642
 50
329.4572607387153198
 51
359.1082154753925124
  0
ARC
  5
DEAE
  8
0
 10
3577.9817818654391886
 20
174.6123440563048064
 30
0.0
 40
0.5310383587451977
 50
89.9455984384433123
 51
99.8805231186890694
  0
ARC
  5
DEAF
  8
0
 10
3577.9556426390918205
 20
174.7624162579838867
 30
0.0
 40
0.3787067308052864
 50
99.8805231186890694
 51
116.1293930917398995
  0
ARC
  5
DEB0
  8
0
 10
3577.8526970490861459
 20
174.9722817740978087
 30
0.0
 40
0.144951881966808
 50
116.1293930917398995
 51
139.7264230391187994
  0
ARC
  5
DEB1
  8
0
 10
3577.7965151103207972
 20
175.0198829968695122
 30
0.0
 40
0.071315704358629
 50
139.7264230391201068
 51
170.2193750952424978
  0
ARC
  5
DEB2
  8
0
 10
3577.7663076929770796
 20
175.025090204777598
 30
0.0
 40
0.0406627587123739
 50
170.2193750952424978
 51
180.6832166444002894
  0
ARC
  5
DEB3
  8
0
 10
3577.7798888704710407
 20
175.0226611545286914
 30
0.0
 40
0.0542758771962347
 50
177.9472031897063005
 51
204.377902935711802
  0
ARC
  5
DEB4
  8
0
 10
3577.8213201920862048
 20
175.0415015259931124
 30
0.0
 40
0.0997897439688772
 50
204.4121858341958955
 51
232.6664024387243899
  0
ARC
  5
DEB5
  8
0
 10
3577.900195952510785
 20
175.1449149078314065
 30
0.0
 40
0.2298501650272751
 50
232.6664024387243899
 51
243.5436256686849106
  0
ARC
  5
DEB6
  8
0
 10
3577.9426484092018654
 20
175.2454721722099862
 30
0.0
 40
0.3388578157914071
 50
244.6923518231328956
 51
257.5864397882714911
  0
ARC
  5
DEB7
  8
0
 10
3577.9807136686099511
 20
175.4127840101033939
 30
0.0
 40
0.5104423281251744
 50
257.4507424496684962
 51
270.1764991247160879
  0
ARC
  5
DEB8
  8
0
 10
3577.9821623132011155
 20
174.8893301930426105
 30
0.0
 40
0.0038245092761524
 50
184.3991139784486109
 51
271.8544859781782748
  0
LINE
  5
DEB9
  8
0
 10
3577.9783490711652121
 20
174.889036839375791
 30
0.0
 11
3577.9783490711461127
 21
174.9023471590344059
 31
0.0
  0
LINE
  5
DEBA
  8
0
 10
3577.9743151523462075
 20
174.9023817870968003
 30
0.0
 11
3577.9743151523462075
 21
174.8872041699779913
 31
0.0
  0
ARC
  5
DEBB
  8
0
 10
3577.982185048689189
 20
174.8879226671423055
 30
0.0
 40
0.0079026265656242
 50
185.2164660093492046
 51
270.7325122432063154
  0
LINE
  5
DEBC
  8
0
 10
3577.9115098792590288
 20
174.9070546300087017
 30
0.0
 11
3577.9032858461650903
 21
174.8927622891818032
 31
0.0
  0
ARC
  5
DEBD
  8
0
 10
3577.9000322187062011
 20
174.8940355485063947
 30
0.0
 40
0.0034938919497583
 50
261.1477415917601093
 51
338.6278390968286089
  0
ARC
  5
DEBE
  8
0
 10
3577.899995518193009
 20
174.8948402105662012
 30
0.0
 40
0.0042863121605516
 50
183.4071300206425974
 51
263.2881929267733199
  0
LINE
  5
DEBF
  8
0
 10
3577.8957167823100463
 20
174.8945854725157005
 30
0.0
 11
3577.8957167823100463
 21
174.9094681056519107
 31
0.0
  0
LINE
  5
DEC0
  8
0
 10
3577.8908124815247902
 20
174.9103209299526895
 30
0.0
 11
3577.8908016521459103
 21
174.8933013390779934
 31
0.0
  0
ARC
  5
DEC1
  8
0
 10
3577.8994221148091128
 20
174.89391888840089
 30
0.0
 40
0.0086425542345385
 50
184.097532705194709
 51
263.712346084709111
  0
ARC
  5
DEC2
  8
0
 10
3577.8997563473699302
 20
174.8916494601631086
 30
0.0
 40
0.0064495844798972
 50
258.5459962792095894
 51
357.605437691744612
  0
LINE
  5
DEC3
  8
0
 10
3577.9062003000731238
 20
174.8913799911628075
 30
0.0
 11
3577.9062003000449295
 21
174.8978272454758098
 31
0.0
  0
LINE
  5
DEC4
  8
0
 10
3577.903549742794894
 20
174.9082078524158135
 30
0.0
 11
3577.8957167823459713
 21
174.8945854725780009
 31
0.0
  0
LINE
  5
DEC5
  8
0
 10
3577.8439419387827911
 20
174.9213091699716074
 30
0.0
 11
3577.8255870698449144
 21
174.9064404003781021
 31
0.0
  0
ARC
  5
DEC6
  8
0
 10
3577.8231600357621573
 20
174.9086289959641931
 30
0.0
 40
0.0032680950236932
 50
255.5608753084530917
 51
317.9572100463793731
  0
ARC
  5
DEC7
  8
0
 10
3577.8238101355468643
 20
174.9100653160028003
 30
0.0
 40
0.0048287833276049
 50
181.9146661584148035
 51
252.3386872134803127
  0
LINE
  5
DEC8
  8
0
 10
3577.8189840481450119
 20
174.9099039814780099
 30
0.0
 11
3577.8189824514170141
 21
174.9299862767911975
 31
0.0
  0
LINE
  5
DEC9
  8
0
 10
3577.8135275160361743
 20
174.9321793151719078
 30
0.0
 11
3577.813522664417178
 21
174.9092559863734948
 31
0.0
  0
ARC
  5
DECA
  8
0
 10
3577.8232501364218479
 20
174.909696112228886
 30
0.0
 40
0.0097374238065805
 50
182.5906183019720004
 51
252.8365128271175024
  0
ARC
  5
DECB
  8
0
 10
3577.8221269296518585
 20
174.9052970330542962
 30
0.0
 40
0.0052076550449991
 50
250.3604812797636896
 51
2.720708201932089
  0
LINE
  5
DECC
  8
0
 10
3577.8273287145448194
 20
174.9055442272779999
 30
0.0
 11
3577.8273287145448194
 21
174.9078493048097869
 31
0.0
  0
LINE
  5
DECD
  8
0
 10
3577.836181382533141
 20
174.9237745011658944
 30
0.0
 11
3577.818984048045877
 21
174.9099039813974059
 31
0.0
  0
LINE
  5
DECE
  8
0
 10
3577.7891478799788274
 20
174.9436702210687997
 30
0.0
 11
3577.7590172172449456
 21
174.9296378948779989
 31
0.0
  0
ARC
  5
DECF
  8
0
 10
3577.7785458189327983
 20
174.8877054523779861
 30
0.0
 40
0.0462568483352745
 50
114.9721401892446977
 51
116.9303657550600946
  0
ARC
  5
DED0
  8
0
 10
3577.7580385543469674
 20
174.9335968019030929
 30
0.0
 40
0.0046717359659786
 50
175.6822479582556866
 51
264.5611974327591156
  0
ARC
  5
DED1
  8
0
 10
3577.7337014332319995
 20
174.9294113234030021
 30
0.0
 40
0.0253167978790611
 50
357.6178969471965843
 51
0.5127726907714792
  0
ARC
  5
DED2
  8
0
 10
3577.7531512551518063
 20
174.9286022202877859
 30
0.0
 40
0.0058501540858682
 50
319.3458330371832972
 51
357.6178969471949927
  0
ARC
  5
DED3
  8
0
 10
3577.7551426297741273
 20
174.9275999285017065
 30
0.0
 40
0.003725304347653
 50
240.5589778956311022
 51
311.0582840525115103
  0
ARC
  5
DED4
  8
0
 10
3577.7590998031059826
 20
174.9341259140979048
 30
0.0
 40
0.0113561007931498
 50
180.7321447089107096
 51
239.3558115768935863
  0
LINE
  5
DED5
  8
0
 10
3577.7477446294460606
 20
174.9339808059781092
 30
0.0
 11
3577.7477446294460606
 21
174.970815372078107
 31
0.0
  0
LINE
  5
DED6
  8
0
 10
3577.7533746097828953
 20
174.968416706455713
 30
0.0
 11
3577.7533800774458541
 21
174.9339485260780123
 31
0.0
  0
LINE
  5
DED7
  8
0
 10
3577.75338007724622
 20
174.9339485234339122
 30
0.0
 11
3577.7824664493391538
 21
174.947504516904587
 31
0.0
  0
LINE
  5
DED8
  8
0
 10
3577.7502207548232036
 20
174.9714810788202897
 30
0.0
 11
3577.7063049380449229
 21
174.9596775650780103
 31
0.0
  0
ARC
  5
DED9
  8
0
 10
3577.7086442997101585
 20
174.9644414149124998
 30
0.0
 40
0.0053072477086002
 50
173.0836944296283946
 51
243.845944077415993
  0
LINE
  5
DEDA
  8
0
 10
3577.7456511280829545
 20
174.9764462744427078
 30
0.0
 11
3577.7033756722271391
 21
174.965080510219309
 31
0.0
  0
LINE
  5
DEDB
  8
0
 10
3577.7033756724458726
 20
174.9991804453779878
 30
0.0
 11
3577.7033756724458726
 21
174.9650805102779998
 31
0.0
  0
LINE
  5
DEDC
  8
0
 10
3577.6979502006461189
 20
174.9985034886780113
 30
0.0
 11
3577.697950197245973
 21
174.9657909099780966
 31
0.0
  0
ARC
  5
DEDD
  8
0
 10
3577.7132516935430431
 20
174.965790908387703
 30
0.0
 40
0.0153014962966803
 50
179.999994044930105
 51
221.8330903320430139
  0
ARC
  5
DEDE
  8
0
 10
3577.7033958646848077
 20
174.9569685326015076
 30
0.0
 40
0.0020738102947037
 50
221.8330903320207028
 51
305.2228404851858841
  0
ARC
  5
DEDF
  8
0
 10
3577.6968016899991198
 20
174.9608413720447118
 30
0.0
 40
0.0095749300868436
 50
324.4501788774148281
 51
352.9994113437068108
  0
LINE
  5
DEE0
  8
0
 10
3577.7295194642038041
 20
175.0024425057675046
 30
0.0
 11
3577.6738128012461857
 21
174.9954917932780063
 31
0.0
  0
ARC
  5
DEE1
  8
0
 10
3577.6744596760909189
 20
174.9903073982914066
 30
0.0
 40
0.0052245955291428
 50
97.112235295408567
 51
161.6396472993966995
  0
ARC
  5
DEE2
  8
0
 10
3577.6942796002190335
 20
175.0020351912008039
 30
0.0
 40
0.0267511747949477
 50
178.9649524093040043
 51
202.140793001027788
  0
LINE
  5
DEE3
  8
0
 10
3577.6675327903449215
 20
175.0025184245779997
 30
0.0
 11
3577.6675327903449215
 21
175.0340116865781113
 31
0.0
  0
LINE
  5
DEE4
  8
0
 10
3577.6723714364461557
 20
175.0340116865781113
 30
0.0
 11
3577.6723785507460889
 21
175.0011783407780115
 31
0.0
  0
LINE
  5
DEE5
  8
0
 10
3577.6723785507460889
 20
175.0011783407780115
 30
0.0
 11
3577.7276110877742212
 21
175.0080699146340066
 31
0.0
  0
ARC
  5
DEE6
  8
0
 10
3577.6719355592449574
 20
175.0090076858907935
 30
0.0
 40
0.0078418675304503
 50
235.8442861740007004
 51
273.2383947076381219
  0
LINE
  5
DEE7
  8
0
 10
3577.6635038917979728
 20
175.0397820101779871
 30
0.0
 11
3577.7218243584238735
 21
175.0397980695213107
 31
0.0
  0
LINE
  5
DEE8
  8
0
 10
3577.7218243584238735
 20
175.0397980695213107
 30
0.0
 11
3577.7218170109408675
 21
175.0664808943951982
 31
0.0
  0
LINE
  5
DEE9
  8
0
 10
3577.7257595729461173
 20
175.0659889679203047
 30
0.0
 11
3577.7256498526971882
 21
175.025722636470789
 31
0.0
  0
ARC
  5
DEEA
  8
0
 10
3577.7217070213227998
 20
175.0300383066881125
 30
0.0
 40
0.0039780787406479
 50
6.0750735452958926
 51
89.6358363119827857
  0
LINE
  5
DEEB
  8
0
 10
3577.7217323052459506
 20
175.034016305078012
 30
0.0
 11
3577.6625111101261609
 21
175.0340116865781113
 31
0.0
  0
ARC
  5
DEEC
  8
0
 10
3577.6623720689790389
 20
175.0313509548921047
 30
0.0
 40
0.0026643621273032
 50
87.0086306443574955
 51
112.2776616817456983
  0
ARC
  5
DEED
  8
0
 10
3577.7220633686420115
 20
175.0449221950374863
 30
0.0
 40
0.0051457387484624
 50
267.3377340986851891
 51
314.8470259506430011
  0
ARC
  5
DEEE
  8
0
 10
3577.9810237870710807
 20
174.759968373600401
 30
0.0
 40
0.3448018988599939
 50
89.7902442984197648
 51
103.6302392958918972
  0
ARC
  5
DEEF
  8
0
 10
3577.9517861255831122
 20
174.8805439072768024
 30
0.0
 40
0.2207321597184051
 50
103.6302392958918972
 51
116.0120735495436008
  0
ARC
  5
DEF0
  8
0
 10
3577.9075757830710245
 20
174.9711400844535092
 30
0.0
 40
0.1199243142694517
 50
116.0120735495429045
 51
134.8011199255711858
  0
ARC
  5
DEF1
  8
0
 10
3577.8592213247270593
 20
175.019831400915308
 30
0.0
 40
0.0513021754181397
 50
134.8011199255711858
 51
162.2943782483243069
  0
ARC
  5
DEF2
  8
0
 10
3577.8463734320989715
 20
175.0239330755304934
 30
0.0
 40
0.0378154382439731
 50
162.2943782483243069
 51
178.8472823609461102
  0
ARC
  5
DEF3
  8
0
 10
3577.8481294509160762
 20
175.0238977419155049
 30
0.0
 40
0.0395718125058835
 50
178.8472823609461102
 51
196.719982091064395
  0
ARC
  5
DEF4
  8
0
 10
3577.8628814310977759
 20
175.0283291565366994
 30
0.0
 40
0.054975005514688
 50
196.719982091064395
 51
222.8585882792854989
  0
ARC
  5
DEF5
  8
0
 10
3577.919071018107843
 20
175.0877465800120945
 30
0.0
 40
0.1366833052084968
 50
225.0956708876051948
 51
252.464988743057603
  0
ARC
  5
DEF6
  8
0
 10
3577.9676574970840193
 20
175.2146243029100958
 30
0.0
 40
0.2724244575011671
 50
250.7607384524561098
 51
261.0007503208489084
  0
ARC
  5
DEF7
  8
0
 10
3577.9815306468540257
 20
175.2909524985940948
 30
0.0
 40
0.3499875825634598
 50
260.7121312624361167
 51
269.479143317666626
  0
ARC
  5
DEF8
  8
0
 10
3577.9822863990380029
 20
175.3090278829492945
 30
0.0
 40
0.3680695653712839
 50
269.3870816967581732
 51
269.9999501881649167
  0
ARC
  5
DEF9
  8
0
 10
3577.9822990795278201
 20
174.5919830256688954
 30
0.0
 40
0.5457129741639282
 50
90.001364953446739
 51
91.0079849918914334
  0
ARC
  5
DEFA
  8
0
 10
3577.9817389275908681
 20
174.6238198376030084
 30
0.0
 40
0.5138712348220077
 50
91.0079849877740656
 51
94.6418392319635302
  0
ARC
  5
DEFB
  8
0
 10
3577.9809920460002104
 20
174.6330186692918005
 30
0.0
 40
0.5046421321271645
 50
94.6418392319635302
 51
102.9137986198071957
  0
ARC
  5
DEFC
  8
0
 10
3577.9418615564018182
 20
174.8036824777769027
 30
0.0
 40
0.329549782943183
 50
102.9137986198071957
 51
111.8530094094986964
  0
ARC
  5
DEFD
  8
0
 10
3577.9131157279839499
 20
174.8753597812116993
 30
0.0
 40
0.2523231134619575
 50
111.8530094094986964
 51
122.2766234684810058
  0
ARC
  5
DEFE
  8
0
 10
3577.8304021586941417
 20
175.000284713771407
 30
0.0
 40
0.1025825539640971
 50
120.4768409625718988
 51
154.8034591660162107
  0
ARC
  5
DEFF
  8
0
 10
3577.7855137877181733
 20
175.0238068261826925
 30
0.0
 40
0.0519967104743605
 50
157.1996712390088078
 51
180.7060288380615134
  0
ARC
  5
DF00
  8
0
 10
3577.7939229046160108
 20
175.0247480143966925
 30
0.0
 40
0.0604225908853993
 50
181.5002123604986082
 51
211.7174638720468067
  0
ARC
  5
DF01
  8
0
 10
3577.8461426671788104
 20
175.0612160809569957
 30
0.0
 40
0.1240670880558526
 50
213.3654616962496107
 51
241.039690169656609
  0
ARC
  5
DF02
  8
0
 10
3577.9231553001682187
 20
175.1895923547236009
 30
0.0
 40
0.2737302124572104
 50
239.9465075485888974
 51
253.631734567003889
  0
ARC
  5
DF03
  8
0
 10
3577.9707834902601462
 20
175.3451456243585085
 30
0.0
 40
0.4364050139077916
 50
253.3873563769442967
 51
263.827575108360179
  0
ARC
  5
DF04
  8
0
 10
3577.9820467909808031
 20
175.4320720788909966
 30
0.0
 40
0.5240418518480081
 50
263.6251315865981724
 51
270.0261624079329863
  0
ARC
  5
DF05
  8
0
 10
3577.9822122965988456
 20
175.2972705234894875
 30
0.0
 40
0.3506260348336371
 50
263.3746254428722864
 51
270.0120567853211924
  0
ARC
  5
DF06
  8
0
 10
3577.9736164351038497
 20
175.223265731715486
 30
0.0
 40
0.2761236990289515
 50
246.1508846246827034
 51
263.3746254428722864
  0
ARC
  5
DF07
  8
0
 10
3577.9010634476230734
 20
175.0591472615882935
 30
0.0
 40
0.0966834353493199
 50
217.5175801947823118
 51
246.1508846246827034
  0
ARC
  5
DF08
  8
0
 10
3577.8546052567089646
 20
175.0234759845444898
 30
0.0
 40
0.0381103740596664
 50
165.6488712843791973
 51
217.5175801947823118
  0
ARC
  5
DF09
  8
0
 10
3577.8628717582250829
 20
175.0193631171690072
 30
0.0
 40
0.0471780706026157
 50
137.6227961617688891
 51
163.2975552572293054
  0
ARC
  5
DF0A
  8
0
 10
3577.8972034501589405
 20
174.9880856055991103
 30
0.0
 40
0.0936210162897567
 50
119.876274869671704
 51
137.6438600095029017
  0
ARC
  5
DF0B
  8
0
 10
3577.938702093998927
 20
174.917486678465508
 30
0.0
 40
0.1755111289683708
 50
107.2634233745203005
 51
120.1427408818889973
  0
ARC
  5
DF0C
  8
0
 10
3577.9667312386509366
 20
174.837352319085312
 30
0.0
 40
0.2603706640388506
 50
99.5259745915591338
 51
107.9203770973731054
  0
ARC
  5
DF0D
  8
0
 10
3577.9816160541390673
 20
174.7570908285329949
 30
0.0
 40
0.3419916133970234
 50
89.8877468850405279
 51
99.7599741896509329
  0
LINE
  5
DF0E
  8
0
 10
3577.9747375721308345
 20
175.099013261403087
 30
0.0
 11
3577.9747392951458096
 21
175.0800832373780054
 31
0.0
  0
ARC
  5
DF0F
  8
0
 10
3577.9819312858708145
 20
175.0804541311484002
 30
0.0
 40
0.0072015479424819
 50
182.9521504147251107
 51
272.8238906386806093
  0
ARC
  5
DF10
  8
0
 10
3577.982293100068091
 20
175.0825790991987958
 30
0.0
 40
0.004000346382074
 50
189.6254531764134867
 51
269.8994399210556026
  0
LINE
  5
DF11
  8
0
 10
3577.9783490711461127
 20
175.0819102142781105
 30
0.0
 11
3577.978346651892025
 21
175.0990668139745026
 31
0.0
  0
LINE
  5
DF12
  8
0
 10
3577.9236412701447989
 20
175.0941326479780003
 30
0.0
 11
3577.9236412701447989
 21
175.0702272667780051
 31
0.0
  0
ARC
  5
DF13
  8
0
 10
3577.9129986842958715
 20
175.0702272667780051
 30
0.0
 40
0.0106425858493982
 50
298.5358105832971773
 51
0.0000000000016284
  0
ARC
  5
DF14
  8
0
 10
3577.9166164664648022
 20
175.0644952021492031
 30
0.0
 40
0.0039034982479557
 50
159.1533435939768992
 51
292.0631694525355897
  0
ARC
  5
DF15
  8
0
 10
3577.9128320411577988
 20
175.0705540848537112
 30
0.0
 40
0.0054870194773633
 50
294.9252766218937154
 51
357.6650558418485844
  0
ARC
  5
DF16
  8
0
 10
3577.9142928222690898
 20
175.0674107332179972
 30
0.0
 40
0.0020208196911304
 50
229.0548559721092943
 51
294.9252766219173054
  0
LINE
  5
DF17
  8
0
 10
3577.9129685060602242
 20
175.0658843326145018
 30
0.0
 11
3577.8780017247358956
 21
175.0821670402667962
 31
0.0
  0
LINE
  5
DF18
  8
0
 10
3577.9183129089628892
 20
175.0931814574614123
 30
0.0
 11
3577.9183145049460109
 21
175.0703305371818885
 31
0.0
  0
ARC
  5
DF19
  8
0
 10
3577.9211125467509191
 20
175.0772247251869089
 30
0.0
 40
0.0074403539022239
 50
247.9099720682395116
 51
289.8687108960940009
  0
LINE
  5
DF1A
  8
0
 10
3577.9183145049460109
 20
175.0703305371818885
 30
0.0
 11
3577.8866164792461859
 21
175.085091108978105
 31
0.0
  0
LINE
  5
DF1B
  8
0
 10
3577.8918030110448854
 20
175.0757403031838066
 30
0.0
 11
3577.8918030110439759
 21
175.0414629463085987
 31
0.0
  0
ARC
  5
DF1C
  8
0
 10
3577.888423972955934
 20
175.0439306229455099
 30
0.0
 40
0.0041841757114041
 50
262.5245109491771132
 51
323.859729950963299
  0
LINE
  5
DF1D
  8
0
 10
3577.8878796260460149
 20
175.0775672751780121
 30
0.0
 11
3577.8878796031458478
 21
175.0397820101779871
 31
0.0
  0
LINE
  5
DF1E
  8
0
 10
3577.8878796031458478
 20
175.0397820101779871
 30
0.0
 11
3577.8203413084970634
 21
175.0397820101779871
 31
0.0
  0
ARC
  5
DF1F
  8
0
 10
3577.820448119071898
 20
175.030007552595805
 30
0.0
 40
0.0040078776817324
 50
90.4021042204129657
 51
133.6924120491783015
  0
LINE
  5
DF20
  8
0
 10
3577.8204199918459381
 20
175.0340153315779901
 30
0.0
 11
3577.8876227343448591
 21
175.0340116865781113
 31
0.0
  0
ARC
  5
DF21
  8
0
 10
3577.8876325872752204
 20
175.0301421098781987
 30
0.0
 40
0.0038696187203368
 50
4.6299291578551642
 51
90.1457520268338044
  0
LINE
  5
DF22
  8
0
 10
3577.8918030110439759
 20
175.0414629463085987
 30
0.0
 11
3577.8916499956990265
 21
175.0364161710892006
 31
0.0
  0
LINE
  5
DF23
  8
0
 10
3577.8916499956990265
 20
175.0364161710892006
 30
0.0
 11
3577.8914895788479953
 21
175.0304544639267874
 31
0.0
  0
LINE
  5
DF24
  8
0
 10
3577.8914895788479953
 20
175.0304544639267874
 30
0.0
 11
3577.8914888808271826
 21
175.0244096123498139
 31
0.0
  0
LINE
  5
DF25
  8
0
 10
3577.8651503915448302
 20
175.0340116865781113
 30
0.0
 11
3577.8651503915448302
 21
174.9859957344781094
 31
0.0
  0
LINE
  5
DF26
  8
0
 10
3577.8651503915448302
 20
174.9859957344781094
 30
0.0
 11
3577.9018602068658765
 21
175.0030901072491929
 31
0.0
  0
LINE
  5
DF27
  8
0
 10
3577.9073298231460285
 20
174.9987014665780123
 30
0.0
 11
3577.8693414052459048
 21
174.9809732875781094
 31
0.0
  0
ARC
  5
DF28
  8
0
 10
3577.8697403626279083
 20
174.9855660326913096
 30
0.0
 40
0.0046100406363087
 50
174.6516955694933131
 51
265.0353575483039776
  0
LINE
  5
DF29
  8
0
 10
3577.85945035959503
 20
175.0340132146154986
 30
0.0
 11
3577.8594505291448513
 21
174.9860603127781076
 31
0.0
  0
ARC
  5
DF2A
  8
0
 10
3577.8706675277207978
 20
174.9860603524386988
 30
0.0
 40
0.0112169985758221
 50
180.0002025842516105
 51
239.7395279836499924
  0
ARC
  5
DF2B
  8
0
 10
3577.8668894535671825
 20
174.9798804756329105
 30
0.0
 40
0.003978072040002
 50
241.8867816741133083
 51
7.1857218493777593
  0
ARC
  5
DF2C
  8
0
 10
3577.850191559706218
 20
174.9813553556442116
 30
0.0
 40
0.0206678399879831
 50
357.2897581827527915
 51
0.901412357229441
  0
ARC
  5
DF2D
  8
0
 10
3577.9830220903240843
 20
175.1860988155235077
 30
0.0
 40
0.206472180777791
 50
265.3078916400996832
 51
269.7957574128976717
  0
ARC
  5
DF2E
  8
0
 10
3577.9791152635161779
 20
175.140025403031899
 30
0.0
 40
0.1602336412056613
 50
253.5864428768828134
 51
265.3525428018159005
  0
ARC
  5
DF2F
  8
0
 10
3577.9533161789368023
 20
175.0628639212839914
 30
0.0
 40
0.0789816016818247
 50
234.3520613732777917
 51
255.7228263291652013
  0
ARC
  5
DF30
  8
0
 10
3577.9402929918878726
 20
175.0447054437339887
 30
0.0
 40
0.0566358256193699
 50
227.2815226882322008
 51
234.3520613732777917
  0
ARC
  5
DF31
  8
0
 10
3577.9203694141060623
 20
175.0252919264225113
 30
0.0
 40
0.0288940076932214
 50
181.7498691367611912
 51
230.1931824375816973
  0
ARC
  5
DF32
  8
0
 10
3577.9215709926911586
 20
175.0209508008584862
 30
0.0
 40
0.0302803043432165
 50
121.319701666497707
 51
173.440990448447792
  0
ARC
  5
DF33
  8
0
 10
3577.9635722398979851
 20
174.9596109282616112
 30
0.0
 40
0.1045908762905597
 50
100.7025126747570027
 51
123.5090444291627989
  0
ARC
  5
DF34
  8
0
 10
3577.9817704199240325
 20
174.8833981667820012
 30
0.0
 40
0.1828954707273086
 50
89.8384589276743952
 51
101.8705187243608066
  0
ARC
  5
DF35
  8
0
 10
3577.9832016009431754
 20
174.8625325195284859
 30
0.0
 40
0.1979921977611022
 50
90.2649383576622597
 51
95.8053112484624734
  0
ARC
  5
DF36
  8
0
 10
3577.9779735544411778
 20
174.9139542661069129
 30
0.0
 40
0.1463053668329638
 50
95.8053112484624734
 51
106.1077468412314033
  0
ARC
  5
DF37
  8
0
 10
3577.9642668473579761
 20
174.9614181795708987
 30
0.0
 40
0.0969019570278628
 50
106.1077468412314033
 51
122.7965675673276991
  0
ARC
  5
DF38
  8
0
 10
3577.9285905764299969
 20
175.0167841996884874
 30
0.0
 40
0.0310370005559465
 50
122.7965675673276991
 51
145.2867839502582967
  0
ARC
  5
DF39
  8
0
 10
3577.9202292053810197
 20
175.022576741333495
 30
0.0
 40
0.0208651735557215
 50
145.2867839502582967
 51
177.9994349895260086
  0
ARC
  5
DF3A
  8
0
 10
3577.9211867600151891
 20
175.0247522744325863
 30
0.0
 40
0.0218579683963065
 50
183.7961397936882122
 51
220.1452776604311055
  0
ARC
  5
DF3B
  8
0
 10
3577.9475192471040828
 20
175.0492211309214952
 30
0.0
 40
0.0577884073535628
 50
221.8578124313798128
 51
250.1069632379166023
  0
ARC
  5
DF3C
  8
0
 10
3577.9762380247279907
 20
175.1194654774760124
 30
0.0
 40
0.1336492765295697
 50
248.7764075860499133
 51
263.6542664886964076
  0
ARC
  5
DF3D
  8
0
 10
3577.9821837245149254
 20
175.1595302753287058
 30
0.0
 40
0.1741320617015362
 50
263.1669569181360089
 51
270.0336783642222258
  0
LINE
  5
DF3E
  8
0
 10
3577.9716281783457816
 20
175.0601861718187138
 30
0.0
 11
3577.9716281783457816
 21
175.0455043756676901
 31
0.0
  0
LINE
  5
DF3F
  8
0
 10
3577.9716281783457816
 20
175.0455043756676901
 30
0.0
 11
3577.9470634788449388
 21
175.0569432272779977
 31
0.0
  0
ARC
  5
DF40
  8
0
 10
3577.9668891884789446
 20
175.0453709050740088
 30
0.0
 40
0.0047408690509369
 50
273.5456853481554162
 51
1.613272333375368
  0
LINE
  5
DF41
  8
0
 10
3577.9671823846460939
 20
175.0406391109781055
 30
0.0
 11
3577.9373819269449086
 21
175.0545159256780039
 31
0.0
  0
LINE
  5
DF42
  8
0
 10
3577.9077565749830683
 20
175.039789411864291
 30
0.0
 11
3577.9632765234450744
 21
175.0397820101779871
 31
0.0
  0
ARC
  5
DF43
  8
0
 10
3577.9632774022270496
 20
175.0463737374190032
 30
0.0
 40
0.0065917272995672
 50
269.992361567491173
 51
302.4586771184655163
  0
ARC
  5
DF44
  8
0
 10
3577.9660157755088221
 20
175.0353685522536011
 30
0.0
 40
0.0061268077563741
 50
37.8264378314201721
 51
65.3668681734858268
  0
ARC
  5
DF45
  8
0
 10
3577.969240797492148
 20
175.0381141668007103
 30
0.0
 40
0.0019052304186503
 50
314.106229862532814
 51
32.0767799888735965
  0
ARC
  5
DF46
  8
0
 10
3577.9616020796938756
 20
175.0495615389666
 30
0.0
 40
0.0156397465191444
 50
276.1460584043763902
 51
304.9738445555340149
  0
LINE
  5
DF47
  8
0
 10
3577.9632765234450744
 20
175.0340116865781113
 30
0.0
 11
3577.9027764836810093
 21
175.0340116865781113
 31
0.0
  0
LINE
  5
DF48
  8
0
 10
3577.9180972923459194
 20
175.0340116865781113
 30
0.0
 11
3577.9180972923459194
 21
175.0132910765128997
 31
0.0
  0
ARC
  5
DF49
  8
0
 10
3577.9291976864187745
 20
175.0132910765128997
 30
0.0
 40
0.0111003940739547
 50
179.9999999999967031
 51
240.017953555528095
  0
ARC
  5
DF4A
  8
0
 10
3577.9256104784190029
 20
175.0074200014881001
 30
0.0
 40
0.0042258959963653
 50
242.3673218262800049
 51
8.6888900791548505
  0
ARC
  5
DF4B
  8
0
 10
3577.9326097050661701
 20
175.0086088679275917
 30
0.0
 40
0.0028750195623433
 50
168.9617416501243952
 51
191.0382583498947042
  0
LINE
  5
DF4C
  8
0
 10
3577.9239287161449283
 20
175.0340116865781113
 30
0.0
 11
3577.9239287161449283
 21
175.0134149753644976
 31
0.0
  0
ARC
  5
DF4D
  8
0
 10
3577.9300875919070677
 20
175.0134149753644976
 30
0.0
 40
0.0061588757610158
 50
179.9999999999967031
 51
233.6183049712255979
  0
ARC
  5
DF4E
  8
0
 10
3577.9273857116900217
 20
175.0122695342911072
 30
0.0
 40
0.003929853167681
 50
255.9908111871380072
 51
307.6806817596125256
  0
LINE
  5
DF4F
  8
0
 10
3577.929787874646081
 20
175.0091593318772141
 30
0.0
 11
3577.970506202046181
 21
175.0281204484780062
 31
0.0
  0
ARC
  5
DF50
  8
0
 10
3577.9740263204580515
 20
175.0195728732068119
 30
0.0
 40
0.0092440312221357
 50
90.0417228407013823
 51
112.3843775567359984
  0
ARC
  5
DF51
  8
0
 10
3577.9740288701359532
 20
175.0160715349254872
 30
0.0
 40
0.012745370431786
 50
69.1769022258048807
 51
90.0417228407013823
  0
ARC
  5
DF52
  8
0
 10
3577.9821845327410301
 20
175.029566263222307
 30
0.0
 40
0.003955008278378
 50
203.5758230610184114
 51
271.4712520796741728
  0
LINE
  5
DF53
  8
0
 10
3577.9783490711461127
 20
175.0280623785438081
 30
0.0
 11
3577.9783490711461127
 21
175.0011485006058933
 31
0.0
  0
ARC
  5
DF54
  8
0
 10
3577.982241101920863
 20
175.0016017754186919
 30
0.0
 40
0.0039183365869887
 50
186.6428720406493085
 51
270.6576913385511034
  0
ARC
  5
DF55
  8
0
 10
3577.9818764312349231
 20
175.0002452513278115
 30
0.0
 40
0.0078896195714668
 50
185.2245216968819079
 51
272.9762714546790221
  0
LINE
  5
DF56
  8
0
 10
3577.9740195889448842
 20
174.9995268320780042
 30
0.0
 11
3577.9740195889448842
 21
175.02881690197799
 31
0.0
  0
LINE
  5
DF57
  8
0
 10
3577.9239287161449283
 20
175.0133665773780081
 30
0.0
 11
3577.9660604083410362
 21
175.0329857131760036
 31
0.0
  0
ARC
  5
DF58
  8
0
 10
3577.9633972197198091
 20
175.0229521349403967
 30
0.0
 40
0.0110602102156984
 50
76.0668252749178606
 51
90.6252615677911137
  0
LINE
  5
DF59
  8
0
 10
3577.966060408345129
 20
175.0336869230781076
 30
0.0
 11
3577.9660604083410362
 21
175.0329857131760036
 31
0.0
  0
ARC
  5
DF5A
  8
0
 10
3577.9709455700949547
 20
175.0329857131455924
 30
0.0
 40
0.0048851617531627
 50
179.9999996440303107
 51
264.8377933305894771
  0
ARC
  5
DF5B
  8
0
 10
3577.9740614844167794
 20
175.0509592858890926
 30
0.0
 40
0.0059730246816285
 50
245.9594831264363108
 51
315.8752030873337731
  0
LINE
  5
DF5C
  8
0
 10
3577.9783490711461127
 20
175.0468007255742862
 30
0.0
 11
3577.9783490711461127
 21
175.0604652437781112
 31
0.0
  0
ARC
  5
DF5D
  8
0
 10
3577.9821537377179084
 20
175.0471335211830137
 30
0.0
 40
0.0038191937157271
 50
184.9989600002363943
 51
271.9857902973005253
  0
LINE
  5
DF5E
  8
0
 10
3577.9742205978459424
 20
174.9798143149780003
 30
0.0
 11
3577.9742205978459424
 21
174.9608116517781013
 31
0.0
  0
ARC
  5
DF5F
  8
0
 10
3577.9818960757547757
 20
174.96144363301471
 30
0.0
 40
0.0077014519037306
 50
184.7069851613044875
 51
272.9027129502683238
  0
ARC
  5
DF60
  8
0
 10
3577.9821697913030221
 20
174.9628968819820898
 30
0.0
 40
0.0038291652798695
 50
183.8059955780398127
 51
271.7402804425710769
  0
LINE
  5
DF61
  8
0
 10
3577.9783490711411105
 20
174.9626427084523073
 30
0.0
 11
3577.9783490711461127
 21
174.9796825340779947
 31
0.0
  0
LINE
  5
DF62
  8
0
 10
3577.9783474578111964
 20
174.9409793947108938
 30
0.0
 11
3577.9783474578111964
 21
174.9235915088644902
 31
0.0
  0
ARC
  5
DF63
  8
0
 10
3577.9821773234129978
 20
174.9243599544354879
 30
0.0
 40
0.0039061975281224
 50
191.3454939195466977
 51
271.5954247092157061
  0
LINE
  5
DF64
  8
0
 10
3577.9743036275172017
 20
174.9410395406457894
 30
0.0
 11
3577.9743036275172017
 21
174.9217258715486025
 31
0.0
  0
ARC
  5
DF65
  8
0
 10
3577.9819338484071523
 20
174.9228410917930034
 30
0.0
 40
0.0077112895819316
 50
188.3153765662160026
 51
272.6180255790476963
  0
LINE
  5
DF66
  8
0
 10
3577.9329704470392244
 20
174.9443501112068873
 30
0.0
 11
3577.9227177376160398
 21
174.9265324859898101
 31
0.0
  0
ARC
  5
DF67
  8
0
 10
3577.9192010388960625
 20
174.928556082831193
 30
0.0
 40
0.004057353086555
 50
182.8320816057816955
 51
330.0827954460193041
  0
LINE
  5
DF68
  8
0
 10
3577.9151486413461498
 20
174.9283556129780095
 30
0.0
 11
3577.9151472033840946
 21
174.9473084707931037
 31
0.0
  0
LINE
  5
DF69
  8
0
 10
3577.910205035144827
 20
174.9483269133961016
 30
0.0
 11
3577.910205035144827
 21
174.9270754389779938
 31
0.0
  0
ARC
  5
DF6A
  8
0
 10
3577.9188607939531721
 20
174.9277107631181991
 30
0.0
 40
0.0086790435701969
 50
184.1979257227866924
 51
263.6424897523669983
  0
ARC
  5
DF6B
  8
0
 10
3577.9191870707350063
 20
174.9254253882631076
 30
0.0
 40
0.0064696636398583
 50
258.5227680347298929
 51
357.5431803541197269
  0
LINE
  5
DF6C
  8
0
 10
3577.9256507875329589
 20
174.9251480567307908
 30
0.0
 11
3577.9256475035890617
 21
174.9316239666825084
 31
0.0
  0
LINE
  5
DF6D
  8
0
 10
3577.9250444464460088
 20
174.9455532844781089
 30
0.0
 11
3577.9151486409441532
 21
174.9283556123272945
 31
0.0
  0
LINE
  5
DF6E
  8
0
 10
3577.8855496604869586
 20
174.9548679012293917
 30
0.0
 11
3577.8623700512630421
 21
174.9361727342123061
 31
0.0
  0
ARC
  5
DF6F
  8
0
 10
3577.8605838010889784
 20
174.9398363924856028
 30
0.0
 40
0.0040749210975354
 50
175.1423186355260952
 51
296.0708820751502799
  0
LINE
  5
DF70
  8
0
 10
3577.8565235166461207
 20
174.9401814608781081
 30
0.0
 11
3577.8565197011039345
 21
174.9662160955087131
 31
0.0
  0
LINE
  5
DF71
  8
0
 10
3577.8510368283459684
 20
174.9691983832900064
 30
0.0
 11
3577.8510368283459684
 21
174.9396533007090966
 31
0.0
  0
ARC
  5
DF72
  8
0
 10
3577.8599663688528381
 20
174.9396533007090966
 30
0.0
 40
0.0089295405071343
 50
179.9999999999984084
 51
222.9920579224549897
  0
ARC
  5
DF73
  8
0
 10
3577.8615165488399725
 20
174.9410984652512866
 30
0.0
 40
0.0110488702471063
 50
222.992057922453796
 51
250.9004160496569114
  0
ARC
  5
DF74
  8
0
 10
3577.8596441751437851
 20
174.9356912456449038
 30
0.0
 40
0.0053266497751526
 50
250.9004160496562861
 51
302.0171207436491159
  0
ARC
  5
DF75
  8
0
 10
3577.8597236259620331
 20
174.9355641822600091
 30
0.0
 40
0.0051767913877412
 50
302.0171207436483201
 51
2.7785356603477989
  0
LINE
  5
DF76
  8
0
 10
3577.8648943313460222
 20
174.9358151302780016
 30
0.0
 11
3577.8648943313460222
 21
174.9382083338921916
 31
0.0
  0
LINE
  5
DF77
  8
0
 10
3577.8778899069011459
 20
174.9574145348271941
 30
0.0
 11
3577.8565235166461207
 21
174.9401814608781081
 31
0.0
  0
LINE
  5
DF78
  8
0
 10
3577.8416749484308639
 20
174.9750870295015091
 30
0.0
 11
3577.8064689029461078
 21
174.9586699844780071
 31
0.0
  0
LINE
  5
DF79
  8
0
 10
3577.8064689029461078
 20
174.9586699844780071
 30
0.0
 11
3577.8064689029461078
 21
174.9866034038780072
 31
0.0
  0
LINE
  5
DF7A
  8
0
 10
3577.80082755654621
 20
174.9850867268683885
 30
0.0
 11
3577.8008202859459743
 21
174.958708758378009
 31
0.0
  0
ARC
  5
DF7B
  8
0
 10
3577.8119552852617744
 20
174.958705689221091
 30
0.0
 40
0.0111349997386051
 50
179.9842074766305018
 51
239.9498543920508951
  0
ARC
  5
DF7C
  8
0
 10
3577.8082478500791694
 20
174.9522971825541049
 30
0.0
 40
0.0037313497377223
 50
239.9498543920500992
 51
289.2285311049233201
  0
ARC
  5
DF7D
  8
0
 10
3577.8069561419411002
 20
174.9532921853518985
 30
0.0
 40
0.0051737180717274
 50
299.1559977077067174
 51
1.67666103062197
  0
LINE
  5
DF7E
  8
0
 10
3577.8121276449451216
 20
174.9534435635779914
 30
0.0
 11
3577.8121276449451216
 21
174.9543694125229933
 31
0.0
  0
LINE
  5
DF7F
  8
0
 10
3577.8479254605031201
 20
174.9710391014351956
 30
0.0
 11
3577.8121276449451216
 21
174.9543694124780018
 31
0.0
  0
LINE
  5
DF80
  8
0
 10
3577.8121276449451216
 20
174.9543694124780018
 30
0.0
 11
3577.8108558222461397
 21
174.9537788568781025
 31
0.0
  0
ARC
  5
DF81
  8
0
 10
3577.8100842750291122
 20
174.9556477850765077
 30
0.0
 40
0.0020219242612522
 50
242.9010104897076019
 51
292.4322406213162822
  0
ARC
  5
DF82
  8
0
 10
3577.8121080993050782
 20
174.9586570301680126
 30
0.0
 40
0.005639211238636
 50
179.8683808909117943
 51
238.5191825062101998
  0
LINE
  5
DF83
  8
0
 10
3577.9783479043198895
 20
175.1376815759215049
 30
0.0
 11
3577.9784306861711229
 21
175.1204833457624943
 31
0.0
  0
ARC
  5
DF84
  8
0
 10
3577.9819906898969748
 20
175.1207507560316117
 30
0.0
 40
0.0035700328817477
 50
184.2957148625424111
 51
274.7461530848967186
  0
ARC
  5
DF85
  8
0
 10
3577.9819141587108788
 20
175.1192070826110978
 30
0.0
 40
0.0073409704069221
 50
183.4583362729551084
 51
272.9040564236448176
  0
LINE
  5
DF86
  8
0
 10
3577.9745865567460896
 20
175.1187642553780108
 30
0.0
 11
3577.9745865567460896
 21
175.1376412853468025
 31
0.0
  0
LINE
  5
DF87
  8
0
 10
3577.9448052628449659
 20
175.1363620801409979
 30
0.0
 11
3577.9448052628449659
 21
175.116938495578097
 31
0.0
  0
ARC
  5
DF88
  8
0
 10
3577.9365429695421881
 20
175.1174299960298981
 30
0.0
 40
0.0082768993779768
 50
275.6753067856724897
 51
356.5956480893760272
  0
ARC
  5
DF89
  8
0
 10
3577.9361273717559015
 20
175.1156007920280047
 30
0.0
 40
0.0065248957398324
 50
233.0526340407022019
 51
280.9025013173405796
  0
ARC
  5
DF8A
  8
0
 10
3577.9357493130978582
 20
175.1150014446056957
 30
0.0
 40
0.0058189507645357
 50
179.2011971211886134
 51
232.4803859443960903
  0
LINE
  5
DF8B
  8
0
 10
3577.9299309278458168
 20
175.1150825682780123
 30
0.0
 11
3577.9299309278458168
 21
175.1210415171350974
 31
0.0
  0
LINE
  5
DF8C
  8
0
 10
3577.9223361213557837
 20
175.1342403408324913
 30
0.0
 11
3577.9325849868741898
 21
175.1164290945218056
 31
0.0
  0
ARC
  5
DF8D
  8
0
 10
3577.9357043410618644
 20
175.1176812581358888
 30
0.0
 40
0.0033612920531586
 50
201.871393722837098
 51
280.2929335585487252
  0
ARC
  5
DF8E
  8
0
 10
3577.936147793327109
 20
175.1183780793793971
 30
0.0
 40
0.0040071028860028
 50
272.2475415842852158
 51
358.2275675753700739
  0
LINE
  5
DF8F
  8
0
 10
3577.9401529790461609
 20
175.1182541402965001
 30
0.0
 11
3577.940152981645042
 21
175.1360055998779899
 31
0.0
  0
LINE
  5
DF90
  8
0
 10
3577.9304463458488499
 20
175.1351230545685951
 30
0.0
 11
3577.9401529818687777
 21
175.1182541353888098
 31
0.0
  0
LINE
  5
DF91
  8
0
 10
3577.9021791799459606
 20
175.1314684798668111
 30
0.0
 11
3577.9020631080998101
 21
175.1098717428444047
 31
0.0
  0
ARC
  5
DF92
  8
0
 10
3577.8927991996129094
 20
175.1099215317987898
 30
0.0
 40
0.0092640422816504
 50
286.4710597755371282
 51
359.6920663136737062
  0
ARC
  5
DF93
  8
0
 10
3577.8938745249438398
 20
175.1062845494010958
 30
0.0
 40
0.0054714224050336
 50
235.1433027746219011
 51
286.4710597755366166
  0
ARC
  5
DF94
  8
0
 10
3577.8942382681170784
 20
175.1059146927426866
 30
0.0
 40
0.0053999372641549
 50
177.5626557914582975
 51
229.725338815583001
  0
LINE
  5
DF95
  8
0
 10
3577.888843216046098
 20
175.1061443350779996
 30
0.0
 11
3577.888843216046098
 21
175.1082571069781011
 31
0.0
  0
LINE
  5
DF96
  8
0
 10
3577.8682121684450976
 20
175.124897089977992
 30
0.0
 11
3577.8903842219460785
 21
175.107013841478107
 31
0.0
  0
ARC
  5
DF97
  8
0
 10
3577.8926070905240522
 20
175.10889377123749
 30
0.0
 40
0.0029112335220246
 50
220.2219495744895141
 51
286.9810880384147822
  0
ARC
  5
DF98
  8
0
 10
3577.8921418218578765
 20
175.1107458588903967
 30
0.0
 40
0.0048194117456213
 50
285.8405465122621081
 51
356.383590873647222
  0
LINE
  5
DF99
  8
0
 10
3577.8969516367310462
 20
175.1104418680118897
 30
0.0
 11
3577.8969541773458332
 21
175.1306142059981141
 31
0.0
  0
LINE
  5
DF9A
  8
0
 10
3577.8767092432290156
 20
175.1267683817617069
 30
0.0
 11
3577.8969541781198132
 21
175.1104398182538091
 31
0.0
  0
LINE
  5
DF9B
  8
0
 10
3577.8650074973697883
 20
175.1241454445111003
 30
0.0
 11
3577.8650847594949482
 21
175.097624810815006
 31
0.0
  0
ARC
  5
DF9C
  8
0
 10
3577.8544097195440372
 20
175.097593711396712
 30
0.0
 40
0.0106750852517906
 50
298.1568644740781906
 51
0.1669183798672822
  0
ARC
  5
DF9D
  8
0
 10
3577.8577588172329342
 20
175.0913363634404902
 30
0.0
 40
0.0035778422114059
 50
229.9781246095184883
 51
298.1568644740781906
  0
ARC
  5
DF9E
  8
0
 10
3577.8623084606829252
 20
175.0931095776695088
 30
0.0
 40
0.0082034980158826
 50
183.8505265867578942
 51
213.3770339277965036
  0
LINE
  5
DF9F
  8
0
 10
3577.8541234809449634
 20
175.0925586816780992
 30
0.0
 11
3577.8541234809449634
 21
175.0932862353330961
 31
0.0
  0
LINE
  5
DFA0
  8
0
 10
3577.8273405766508404
 20
175.1126938119294891
 30
0.0
 11
3577.8595706010460162
 21
175.0976853516781091
 31
0.0
  0
LINE
  5
DFA1
  8
0
 10
3577.8595706010460162
 20
175.0976853516781091
 30
0.0
 11
3577.8595677003140736
 21
175.1227918331522915
 31
0.0
  0
LINE
  5
DFA2
  8
0
 10
3577.819194327844798
 20
175.1095514210780095
 30
0.0
 11
3577.8550469802448788
 21
175.0928586246780014
 31
0.0
  0
ARC
  5
DFA3
  8
0
 10
3577.8557351623189788
 20
175.0947399846716053
 30
0.0
 40
0.0020053010557874
 50
249.8524556295031971
 51
297.5694557703305918
  0
ARC
  5
DFA4
  8
0
 10
3577.8541578754570764
 20
175.0977609625223863
 30
0.0
 40
0.0054132536697879
 50
297.5695295698599239
 51
359.1996822226614086
  0
LINE
  5
DFA5
  8
0
 10
3577.8358373374449002
 20
175.1018014008780028
 30
0.0
 11
3577.8357034691489389
 21
175.081369079613296
 31
0.0
  0
ARC
  5
DFA6
  8
0
 10
3577.8207304230759291
 20
175.0814671798806899
 30
0.0
 40
0.0149733674350104
 50
317.8967854461419051
 51
359.6246154027094803
  0
ARC
  5
DFA7
  8
0
 10
3577.8304622405498776
 20
175.0726728161911865
 30
0.0
 40
0.0018566184459182
 50
256.5871912832653265
 51
317.8967854461442926
  0
ARC
  5
DFA8
  8
0
 10
3577.830474838534883
 20
175.0727256446099034
 30
0.0
 40
0.0019109282153982
 50
202.8089704218847089
 51
256.5871912832656108
  0
ARC
  5
DFA9
  8
0
 10
3577.8613772881899422
 20
175.0857215317998907
 30
0.0
 40
0.0354348671032329
 50
196.7658461932120986
 51
202.8089704218847089
  0
ARC
  5
DFAA
  8
0
 10
3577.8245848068409032
 20
175.080734031943507
 30
0.0
 40
0.005966394801418
 50
298.6860358253026106
 51
1.2091213758443631
  0
LINE
  5
DFAB
  8
0
 10
3577.8274487342459906
 20
175.0754999334779995
 30
0.0
 11
3577.7783733080459569
 21
175.0886938709780054
 31
0.0
  0
LINE
  5
DFAC
  8
0
 10
3577.7854294249459599
 20
175.0929905731591134
 30
0.0
 11
3577.8305498826598523
 21
175.0808599297592991
 31
0.0
  0
LINE
  5
DFAD
  8
0
 10
3577.8305498826598523
 20
175.0808599297592991
 30
0.0
 11
3577.830549881844945
 21
175.1042635689931046
 31
0.0
  0
LINE
  5
DFAE
  8
0
 10
3577.8118697337449703
 20
175.0796883506779977
 30
0.0
 11
3577.8118697239478934
 21
175.0611101797005063
 31
0.0
  0
LINE
  5
DFAF
  8
0
 10
3577.8118697239478934
 20
175.0611101797005063
 30
0.0
 11
3577.753677039951981
 21
175.0683760974530117
 31
0.0
  0
LINE
  5
DFB0
  8
0
 10
3577.749266704035108
 20
175.0630558725553954
 30
0.0
 11
3577.8102331247459915
 21
175.0554488802781066
 31
0.0
  0
ARC
  5
DFB1
  8
0
 10
3577.8022279996162069
 20
175.0608302701855905
 30
0.0
 40
0.009645796269701
 50
326.0893059889942833
 51
1.6628814294776599
  0
LINE
  5
DFB2
  8
0
 10
3577.8166426647449043
 20
175.078405147278005
 30
0.0
 11
3577.8166426647449043
 21
175.0623285083781013
 31
0.0
  0
ARC
  5
DFB3
  8
0
 10
3577.7904475422451469
 20
175.0623285083781013
 30
0.0
 40
0.0261951225003383
 50
336.582113077262818
 51
0.0000000000032569
  0
ARC
  5
DFB4
  8
0
 10
3577.8081601792200672
 20
175.048641223462397
 30
0.0
 40
0.0071230810859897
 50
27.3855250490961488
 51
73.0476978079523889
  0
LINE
  5
DFB5
  8
0
 10
3577.8087363169461241
 20
175.0556356421913051
 30
0.0
 11
3577.8085675907777841
 21
175.0247849743545032
 31
0.0
  0
ARC
  5
DFB6
  8
0
 10
3577.8046307326781061
 20
175.0300142145970028
 30
0.0
 40
0.0040024290178931
 50
7.486617900136296
 51
89.4643044748659548
  0
LINE
  5
DFB7
  8
0
 10
3577.8046681534460731
 20
175.0340164686780042
 30
0.0
 11
3577.7375030158009395
 21
175.0340123811805029
 31
0.0
  0
ARC
  5
DFB8
  8
0
 10
3577.7374853296300898
 20
175.0300624658171103
 30
0.0
 40
0.003949954959125
 50
89.7434536968061849
 51
146.0004518832226097
  0
LINE
  5
DFB9
  8
0
 10
3577.7360714636997727
 20
175.0399038599439052
 30
0.0
 11
3577.8048031779458142
 21
175.0397820101779871
 31
0.0
  0
LINE
  5
DFBA
  8
0
 10
3577.8048031779458142
 20
175.0397820101779871
 30
0.0
 11
3577.8048031779458142
 21
175.0561263752780121
 31
0.0
  0
LINE
  5
DFBB
  8
0
 10
3577.744892501546019
 20
175.0340116865781113
 30
0.0
 11
3577.7448992350459775
 21
175.0102270210605013
 31
0.0
  0
LINE
  5
DFBC
  8
0
 10
3577.7448992350459775
 20
175.0102270210605013
 30
0.0
 11
3577.8089598518608909
 21
175.0182201095327059
 31
0.0
  0
LINE
  5
DFBD
  8
0
 10
3577.8102306468458664
 20
175.012513147278014
 30
0.0
 11
3577.7463113392459491
 21
175.0045377108781111
 31
0.0
  0
ARC
  5
DFBE
  8
0
 10
3577.7469595130619382
 20
174.9993429078000133
 30
0.0
 40
0.005235084365724
 50
97.1122387467779049
 51
161.5671457005904017
  0
ARC
  5
DFBF
  8
0
 10
3577.7656913826021992
 20
175.0106635010247089
 30
0.0
 40
0.0255935645770564
 50
178.1502674899703038
 51
202.1879185929824985
  0
LINE
  5
DFC0
  8
0
 10
3577.7401111543340448
 20
175.0114896181609936
 30
0.0
 11
3577.7400466034459896
 21
175.0340116865781113
 31
0.0
  0
ARC
  5
DFC1
  8
0
 10
3577.7437482447730872
 20
175.0156410444787127
 30
0.0
 40
0.0055350183543312
 50
228.9116219156599072
 51
282.0020662815711034
  0
LINE
  5
DFC2
  8
0
 10
3577.7629563464461171
 20
175.0066145668592128
 30
0.0
 11
3577.7629601082971931
 21
174.9832805277011119
 31
0.0
  0
ARC
  5
DFC3
  8
0
 10
3577.7782842899669049
 20
174.9832766968158069
 30
0.0
 40
0.0153279501661352
 50
179.9734592642280973
 51
221.326790301462097
  0
ARC
  5
DFC4
  8
0
 10
3577.768484769018869
 20
174.9746594854929072
 30
0.0
 40
0.0022785462793763
 50
221.3267903014645128
 51
288.0991749416597827
  0
ARC
  5
DFC5
  8
0
 10
3577.767825549697136
 20
174.9750096021618901
 30
0.0
 40
0.0028633481342328
 50
298.5183789871770728
 51
345.6045137235245761
  0
ARC
  5
DFC6
  8
0
 10
3577.7620798812417888
 20
174.9779243645429005
 30
0.0
 40
0.0092589291171172
 50
336.9403051299664753
 51
355.202033924821194
  0
LINE
  5
DFC7
  8
0
 10
3577.7713063654891812
 20
174.9771499248504085
 30
0.0
 11
3577.8225828430549882
 21
174.9909356406436984
 31
0.0
  0
LINE
  5
DFC8
  8
0
 10
3577.8184113708098266
 20
174.9960078791910121
 30
0.0
 11
3577.768395939146103
 21
174.9825612210779866
 31
0.0
  0
ARC
  5
DFC9
  8
0
 10
3577.7665426250678138
 20
174.9894547036685992
 30
0.0
 40
0.0071382683682513
 50
239.8758887311828119
 51
285.0481541845950915
  0
LINE
  5
DFCA
  8
0
 10
3577.768395939146103
 20
175.007293283936292
 30
0.0
 11
3577.7683959397459148
 21
174.9825612212393082
 31
0.0
  0
ARC
  5
DFCB
  8
0
 10
3577.7748817104961745
 20
174.9825612213967077
 30
0.0
 40
0.0064857707511274
 50
180.0000013899843907
 51
236.5465130972607994
  0
ARC
  5
DFCC
  8
0
 10
3577.9800585175380547
 20
174.4275257389936087
 30
0.0
 40
1.132616405203301
 50
89.8873140502799544
 51
102.2191910683511935
  0
ARC
  5
DFCD
  8
0
 10
3577.8984864380868203
 20
174.8042006844335106
 30
0.0
 40
0.7472101018453521
 50
102.2191910683511935
 51
117.3568207872885978
  0
ARC
  5
DFCE
  8
0
 10
3577.7001960231891644
 20
175.1874483054182861
 30
0.0
 40
0.3157036388217249
 50
117.3568207872885978
 51
144.3237967901955869
  0
ARC
  5
DFCF
  8
0
 10
3577.5450139996169128
 20
175.2988601988205914
 30
0.0
 40
0.1246694260965056
 50
144.3237967901955869
 51
187.5520214070203053
  0
ARC
  5
DFD0
  8
0
 10
3577.5708344798467806
 20
175.3022833822942061
 30
0.0
 40
0.1507158343793675
 50
187.5520214070203053
 51
217.8880958699548955
  0
ARC
  5
DFD1
  8
0
 10
3577.6778135469558038
 20
175.3855286229679962
 30
0.0
 40
0.2862676358953799
 50
217.8880958699548955
 51
234.3052975489372045
  0
ARC
  5
DFD2
  8
0
 10
3579.0602877188857747
 20
170.6874502978016892
 30
0.0
 40
0.0400116463506237
 50
180.0071344324290976
 51
264.9333315419290216
  0
ARC
  5
DFD3
  8
0
 10
3578.9682760729610891
 20
170.6874453156256948
 30
0.0
 40
0.0519999998849334
 50
359.9999999474990204
 51
89.9758149163895951
  0
ARC
  5
DFD4
  8
0
 10
3578.9682689242072229
 20
170.7793846829441975
 30
0.0
 40
0.0399393826662523
 50
195.5983316068681006
 51
270.0417437075362272
  0
ARC
  5
DFD5
  8
0
 10
3578.8912594638181872
 20
170.7578282451308098
 30
0.0
 40
0.0400302368967384
 50
15.6775008666138191
 51
88.5304316410385042
  0
ARC
  5
DFD6
  8
0
 10
3578.8658729789740391
 20
170.8453523114463053
 30
0.0
 40
0.0475076754243612
 50
270.3064459024183179
 51
3.9270505513616829
  0
ARC
  5
DFD7
  8
0
 10
3878.3809079043221573
 20
186.9428081144617977
 30
0.0
 40
299.9108777701046051
 50
182.2135638182838875
 51
182.8508541107048018
  0
ARC
  5
DFD8
  8
0
 10
3571.5958868151628849
 20
175.0845823301168878
 30
0.0
 40
7.1032370250100794
 50
2.213563818283919
 51
10.1461335879458208
  0
ARC
  5
DFD9
  8
0
 10
3577.4325044433471703
 20
176.1292619693525978
 30
0.0
 40
1.1738643165242399
 50
10.1379495749139501
 51
29.039065959505411
  0
ARC
  5
DFDA
  8
0
 10
3577.9874427380641464
 20
176.4064561048726887
 30
0.0
 40
0.5547947320731818
 50
31.8308904222155284
 51
82.695441989184971
  0
ARC
  5
DFDB
  8
0
 10
3577.9751971420150767
 20
176.3107666494225896
 30
0.0
 40
0.6512645520351257
 50
82.6972084573679069
 51
89.3763299527081472
  0
ARC
  5
DFDC
  8
0
 10
3625.4415403669049738
 20
174.2866848217612983
 30
0.0
 40
46.65512204103225
 50
182.7769228602842873
 51
184.2260340436698982
  0
ARC
  5
DFDD
  8
0
 10
3580.9929097929621093
 20
176.2200939322050033
 30
0.0
 40
2.5436127758257561
 50
177.0473772745226881
 51
192.4923343675276897
  0
ARC
  5
DFDE
  8
0
 10
3583.7486771529461294
 20
176.5547129604769907
 30
0.0
 40
5.3133523605502546
 50
189.5860478344305875
 51
192.9921956345949923
  0
ARC
  5
DFDF
  8
0
 10
3577.9827591695679985
 20
174.3492291058419141
 30
0.0
 40
1.2557461827523331
 50
81.8164056182751409
 51
90.0215856446807265
  0
ARC
  5
DFE0
  8
0
 10
3578.0242793667539445
 20
174.6379448822245024
 30
0.0
 40
0.9640601763918375
 50
67.5333811832909845
 51
81.8164056182751409
  0
ARC
  5
DFE1
  8
0
 10
3578.2310678675471536
 20
175.1380003151761002
 30
0.0
 40
0.422934571670721
 50
50.0050275633450312
 51
67.5333811832909845
  0
ARC
  5
DFE2
  8
0
 10
3578.3810606941588048
 20
175.3061926108005082
 30
0.0
 40
0.1977960972155693
 50
15.8460494635838192
 51
51.9777905517235297
  0
ARC
  5
DFE3
  8
0
 10
3578.402131475213082
 20
175.3251426956267949
 30
0.0
 40
0.1728026392243543
 50
348.9775048017444874
 51
11.7056389859772896
  0
ARC
  5
DFE4
  8
0
 10
3578.3835916717971486
 20
175.3339608146737874
 30
0.0
 40
0.1927541644334738
 50
316.1497410133953849
 51
347.4581704265511917
  0
ARC
  5
DFE5
  8
0
 10
3578.2782008829199185
 20
175.4231900039563072
 30
0.0
 40
0.3306863981001523
 50
302.0711479941364814
 51
317.6511224196552234
  0
ARC
  5
DFE6
  8
0
 10
3577.9830662228678193
 20
174.4810124169862888
 30
0.0
 40
0.6866884972508843
 50
79.8952509691001467
 51
90.0650935005254922
  0
ARC
  5
DFE7
  8
0
 10
3578.0146214977221462
 20
174.6580776989343065
 30
0.0
 40
0.5068334182499307
 50
67.2291308329622268
 51
79.8952512099108532
  0
ARC
  5
DFE8
  8
0
 10
3578.1234254186429098
 20
174.9108573074155117
 30
0.0
 40
0.2316565666711037
 50
44.1875922899117626
 51
67.8440567542875357
  0
ARC
  5
DFE9
  8
0
 10
3578.2096587277178514
 20
174.999113134153788
 30
0.0
 40
0.1083534520509058
 50
23.8089815246630607
 51
42.5061307317162971
  0
ARC
  5
DFEA
  8
0
 10
3578.2408173346761942
 20
175.0127874374751968
 30
0.0
 40
0.0743264237324525
 50
341.9039430920577729
 51
23.8612518888615917
  0
ARC
  5
DFEB
  8
0
 10
3578.2073071627410172
 20
175.0264701188459924
 30
0.0
 40
0.110459616629634
 50
313.2231624901006057
 51
340.5566072071658255
  0
ARC
  5
DFEC
  8
0
 10
3578.0746354745087956
 20
175.1871560342931105
 30
0.0
 40
0.3186897217812665
 50
282.0274411038067228
 51
310.8191485536750065
  0
ARC
  5
DFED
  8
0
 10
3577.9851098510771408
 20
175.5091085443924044
 30
0.0
 40
0.6525512641843051
 50
269.7520643457120855
 51
283.8252194622053253
  0
ARC
  5
DFEE
  8
0
 10
3577.982533542782221
 20
175.5412260942501064
 30
0.0
 40
0.6777919107468674
 50
269.9790811490393025
 51
278.7867347329308245
  0
ARC
  5
DFEF
  8
0
 10
3578.0079715244978615
 20
175.3766547157173932
 30
0.0
 40
0.5112661483377873
 50
278.7867347329308245
 51
293.2019181459324955
  0
ARC
  5
DFF0
  8
0
 10
3578.1195665988111614
 20
175.1163079712794115
 30
0.0
 40
0.2280102782298115
 50
293.2019181459324955
 51
309.8527299944150855
  0
ARC
  5
DFF1
  8
0
 10
3578.1803483922672058
 20
175.043491767433693
 30
0.0
 40
0.1331597328540837
 50
309.8527299944150855
 51
333.8783926678755165
  0
ARC
  5
DFF2
  8
0
 10
3578.2349603820262018
 20
175.0138337863781999
 30
0.0
 40
0.071114946005991
 50
335.9609785922161791
 51
16.3762684521875315
  0
ARC
  5
DFF3
  8
0
 10
3578.21077161805988
 20
175.0039631831359941
 30
0.0
 40
0.0971415104517565
 50
17.9396456339651884
 51
43.8310429318720622
  0
ARC
  5
DFF4
  8
0
 10
3578.1417160128048636
 20
174.9380519439341981
 30
0.0
 40
0.1926031763541011
 50
43.7489453116379323
 51
61.634193126192983
  0
ARC
  5
DFF5
  8
0
 10
3578.0326863897880685
 20
174.7300756433349136
 30
0.0
 40
0.4274177559240448
 50
62.0190141201140932
 51
80.4180885661260731
  0
ARC
  5
DFF6
  8
0
 10
3577.9919754460470358
 20
174.558021732987612
 30
0.0
 40
0.6039574791377238
 50
79.326734853864096
 51
85.326042785523569
  0
ARC
  5
DFF7
  8
0
 10
3577.9829569497019293
 20
174.4935431016569964
 30
0.0
 40
0.6689669888110238
 50
85.0061939359588052
 51
90.0574588347530209
  0
ARC
  5
DFF8
  8
0
 10
3577.9835741815431902
 20
174.5313752406736967
 30
0.0
 40
0.9852860533977548
 50
78.1571334519792913
 51
90.0749050059472864
  0
ARC
  5
DFF9
  8
0
 10
3578.0698027809889936
 20
174.9119177452429881
 30
0.0
 40
0.595180469859322
 50
60.2382921724678582
 51
78.7631443974628525
  0
ARC
  5
DFFA
  8
0
 10
3578.2373579876389158
 20
175.2073989580470936
 30
0.0
 40
0.2555035314306461
 50
38.3498608783015982
 51
59.9645236159043122
  0
ARC
  5
DFFB
  8
0
 10
3578.3269182957751582
 20
175.280989725594111
 30
0.0
 40
0.1396232533674897
 50
21.9705234700192911
 51
37.4700813762578733
  0
ARC
  5
DFFC
  8
0
 10
3578.3543005558340155
 20
175.2920364934927022
 30
0.0
 40
0.110096667940329
 50
334.6380230219647274
 51
21.9705234700192911
  0
LINE
  5
DFFD
  8
0
 10
3578.45378607904604
 20
175.3392966131220021
 30
0.0
 11
3578.45378607904604
 21
175.1290440924780114
 31
0.0
  0
ARC
  5
DFFE
  8
0
 10
3578.3237719848571032
 20
175.1292280420151997
 30
0.0
 40
0.1300142243184421
 50
335.7780477701883228
 51
359.9189355188299828
  0
ARC
  5
DFFF
  8
0
 10
3578.2507457730707756
 20
175.1690784783259005
 30
0.0
 40
0.2130565545282708
 50
303.0464673926809951
 51
334.0616655277847258
  0
ARC
  5
E000
  8
0
 10
3578.1268131137521777
 20
175.3420408191338993
 30
0.0
 40
0.4257288163589296
 50
291.5160961419624073
 51
304.3337583121926855
  0
ARC
  5
E001
  8
0
 10
3578.0366833830171345
 20
174.6567370296324953
 30
0.0
 40
0.6867850149734855
 50
66.0316409628468648
 51
78.9007327082290857
  0
ARC
  5
E002
  8
0
 10
3578.177689170470785
 20
174.9739124908138876
 30
0.0
 40
0.3396785395637588
 50
48.0951111258234505
 51
66.0316409628468648
  0
ARC
  5
E003
  8
0
 10
3578.2938037454150617
 20
175.1033020869180916
 30
0.0
 40
0.1658272752764386
 50
25.3918597106662283
 51
48.0951111258234505
  0
ARC
  5
E004
  8
0
 10
3578.3477091257791471
 20
175.1288888586705923
 30
0.0
 40
0.1061575767605834
 50
2.2331630306729751
 51
25.3918597106662283
  0
ARC
  5
E005
  8
0
 10
3577.9834269366951958
 20
174.4900525792419046
 30
0.0
 40
0.9682872616283756
 50
78.9571313113254121
 51
90.067507181052207
  0
LINE
  5
E006
  8
0
 10
3577.982286079045025
 20
175.4404111747780064
 30
0.0
 11
3578.1688959662451452
 21
175.4404111747780064
 31
0.0
  0
LINE
  5
E007
  8
0
 10
3578.1688959662451452
 20
175.4404111747780064
 30
0.0
 11
3578.1688959662451452
 21
175.3306758173781077
 31
0.0
  0
ARC
  5
E008
  8
0
 10
3578.1586868176627831
 20
175.3306758173781077
 30
0.0
 40
0.0102091485820912
 50
321.8868935939329958
 51
0.0000000000016284
  0
ARC
  5
E009
  8
0
 10
3578.133272906559796
 20
175.3565132247757958
 30
0.0
 40
0.0463848607870782
 50
281.7512240564436183
 51
316.1423128369497135
  0
ARC
  5
E00A
  8
0
 10
3578.0902380244319829
 20
175.5209801021458986
 30
0.0
 40
0.2163417779872962
 50
271.7712617943373061
 51
284.0392895786530971
  0
ARC
  5
E00B
  8
0
 10
3578.0701621853108918
 20
175.8847434074195064
 30
0.0
 40
0.5806188392840971
 50
269.836208984299617
 51
272.6419074650110019
  0
LINE
  5
E00C
  8
0
 10
3578.0685023768460269
 20
175.3041269405781009
 30
0.0
 11
3577.9822860790959567
 21
175.3041269405781009
 31
0.0
  0
ARC
  5
E00D
  8
0
 10
3577.9968714531401019
 20
174.5061099771874922
 30
0.0
 40
0.8012253510030458
 50
73.0446891082074643
 51
84.870810630903307
  0
ARC
  5
E00E
  8
0
 10
3578.0949941100689102
 20
174.8279523354142952
 30
0.0
 40
0.4647575823361249
 50
57.591804934309117
 51
73.0446891082074643
  0
ARC
  5
E00F
  8
0
 10
3578.233221936398877
 20
175.045695690966312
 30
0.0
 40
0.2068446108533875
 50
30.3031358109876017
 51
57.591804934309117
  0
ARC
  5
E010
  8
0
 10
3578.3319624314999601
 20
175.1034022272633877
 30
0.0
 40
0.0924779649108568
 50
339.4299656279454211
 51
30.3031358109861912
  0
ARC
  5
E011
  8
0
 10
3578.2570589536198895
 20
175.1359700912884989
 30
0.0
 40
0.1740986806158727
 50
302.5262479437400884
 51
338.056186571126716
  0
ARC
  5
E012
  8
0
 10
3578.1406216491741361
 20
175.291959717877404
 30
0.0
 40
0.3685048554475685
 50
294.3507140270011746
 51
304.7502155725588864
  0
ARC
  5
E013
  8
0
 10
3577.9860488953931963
 20
174.5150716557072883
 30
0.0
 40
0.7716021298619282
 50
74.7396170859144178
 51
90.2794388441216569
  0
ARC
  5
E014
  8
0
 10
3578.0757815368137926
 20
174.8439722946843062
 30
0.0
 40
0.4306804713301847
 50
56.3763566823752811
 51
74.7396170859144178
  0
ARC
  5
E015
  8
0
 10
3578.2247579440982008
 20
175.0679991960423081
 30
0.0
 40
0.1616413989652113
 50
27.0441544236639899
 51
56.3763566823752811
  0
ARC
  5
E016
  8
0
 10
3578.2812397314169175
 20
175.1015845493840004
 30
0.0
 40
0.0961582194992607
 50
313.974582439884216
 51
24.5216830612086696
  0
ARC
  5
E017
  8
0
 10
3578.2230943593699521
 20
175.0709447064834876
 30
0.0
 40
0.1307281389192334
 50
305.2388308942291246
 51
342.8445655810357948
  0
ARC
  5
E018
  8
0
 10
3578.2688796297888985
 20
175.0519797034648946
 30
0.0
 40
0.0815167403374255
 50
346.0908718910295079
 51
359.9335149033856283
  0
LINE
  5
E019
  8
0
 10
3578.3503963152461438
 20
175.051885112778109
 30
0.0
 11
3578.3503963152461438
 21
175.1283868808006901
 31
0.0
  0
ARC
  5
E01A
  8
0
 10
3578.26669446276901
 20
175.1282537848962022
 30
0.0
 40
0.0837019582950335
 50
0.0911070298007981
 51
22.3824506042915914
  0
ARC
  5
E01B
  8
0
 10
3578.2324922833058736
 20
175.1141689178944887
 30
0.0
 40
0.1206907749630549
 50
22.3824506042915914
 51
46.5105171151604893
  0
LINE
  5
E01C
  8
0
 10
3578.368724890005069
 20
175.141493824047501
 30
0.0
 11
3578.3503963152461438
 21
175.1068118635780024
 31
0.0
  0
ARC
  5
E01D
  8
0
 10
3577.9869199525710428
 20
174.5159577038469934
 30
0.0
 40
0.7073576005820033
 50
74.0164985863636389
 51
90.3753133305882841
  0
ARC
  5
E01E
  8
0
 10
3578.0742679341960866
 20
174.82090770491439
 30
0.0
 40
0.3901444655373067
 50
56.4945411156564106
 51
74.0164985863636389
  0
ARC
  5
E01F
  8
0
 10
3578.2033591273138882
 20
175.0159028547444962
 30
0.0
 40
0.1562905697001915
 50
26.7532116399102016
 51
56.4945411156564106
  0
ARC
  5
E020
  8
0
 10
3578.280541297738182
 20
175.0548112969007093
 30
0.0
 40
0.0698558874118627
 50
359.7140617735587966
 51
26.7532116399087414
  0
ARC
  5
E021
  8
0
 10
3578.2553532438919319
 20
175.0519227674087119
 30
0.0
 40
0.0773197128232235
 50
350.5875907255060042
 51
17.84369754076614
  0
ARC
  5
E022
  8
0
 10
3578.2433423824550118
 20
175.054395388824986
 30
0.0
 40
0.0895745006681081
 50
332.2157845419806108
 51
350.2837072547497996
  0
ARC
  5
E023
  8
0
 10
3576.7552753063478121
 20
175.7255648485053996
 30
0.0
 40
1.7218406674535831
 50
334.50804618113591
 51
335.5406469667751139
  0
ARC
  5
E024
  8
0
 10
3578.1926441183159113
 20
175.0209920815129863
 30
0.0
 40
0.146846684387787
 50
21.8373895123018507
 51
63.1862298020122992
  0
ARC
  5
E025
  8
0
 10
3578.066742063610036
 20
174.8209963535580869
 30
0.0
 40
0.3827730891033685
 50
59.8690922022056213
 51
73.3756165746398636
  0
ARC
  5
E026
  8
0
 10
3577.9976043172227946
 20
174.5961489073031032
 30
0.0
 40
0.6180051429501145
 50
73.1976247436752772
 51
84.3986137411151702
  0
ARC
  5
E027
  8
0
 10
3577.9825339446779253
 20
174.4744042515795002
 30
0.0
 40
0.7406459979287981
 50
84.1576171594127516
 51
90.0191410662946083
  0
LINE
  5
E028
  8
0
 10
3577.9900411295448066
 20
175.1574033871766005
 30
0.0
 11
3577.9900411295448066
 21
175.162472579944108
 31
0.0
  0
ARC
  5
E029
  8
0
 10
3577.9827518425190647
 20
175.1577735546987924
 30
0.0
 40
0.0072986799726402
 50
266.3411976951996962
 51
357.092879844067113
  0
LINE
  5
E02A
  8
0
 10
3577.9862230869448467
 20
175.1624642390781048
 30
0.0
 11
3577.9862230869448467
 21
175.1588281612868059
 31
0.0
  0
ARC
  5
E02B
  8
0
 10
3577.9824756178932148
 20
175.1596360491674886
 30
0.0
 40
0.0038335632416939
 50
267.1660294448042237
 51
347.8342361038999115
  0
LINE
  5
E02C
  8
0
 10
3578.0411892209458529
 20
175.1599707681779989
 30
0.0
 11
3578.0411892209458529
 21
175.1542677232781102
 31
0.0
  0
ARC
  5
E02D
  8
0
 10
3578.0496438562208823
 20
175.1548399769424122
 30
0.0
 40
0.0084739796963013
 50
183.8721702259468884
 51
263.6754204276027735
  0
ARC
  5
E02E
  8
0
 10
3578.0497292231161737
 20
175.1533903401123098
 30
0.0
 40
0.0070468140689332
 50
261.6867283087992746
 51
305.9299906347217188
  0
ARC
  5
E02F
  8
0
 10
3578.0503434312668105
 20
175.1523283382121861
 30
0.0
 40
0.0058278179668547
 50
307.1672067060918039
 51
0.6889330000176507
  0
LINE
  5
E030
  8
0
 10
3578.0561708279460618
 20
175.152398411076291
 30
0.0
 11
3578.0561708279460618
 21
175.1585578181226879
 31
0.0
  0
LINE
  5
E031
  8
0
 10
3578.0458959585148477
 20
175.1595674211457947
 30
0.0
 11
3578.0458956758448039
 21
175.1555776054323985
 31
0.0
  0
ARC
  5
E032
  8
0
 10
3578.050136551587002
 20
175.1559066035740102
 30
0.0
 40
0.0042536180875397
 50
184.4360001385929877
 51
264.5063450045295212
  0
ARC
  5
E033
  8
0
 10
3578.0503195272322046
 20
175.1549971163379951
 30
0.0
 40
0.0033765742022146
 50
259.933448921614513
 51
338.4820827448256182
  0
LINE
  5
E034
  8
0
 10
3578.0534607640461218
 20
175.1537586153779955
 30
0.0
 11
3578.0561706739549663
 21
175.1584569975125021
 31
0.0
  0
LINE
  5
E035
  8
0
 10
3578.0480767045569337
 20
175.1593679605470868
 30
0.0
 11
3578.0458956741190377
 21
175.1555776024302133
 31
0.0
  0
LINE
  5
E036
  8
0
 10
3578.1038332614448336
 20
175.1515303392781107
 30
0.0
 11
3578.1038332614448336
 21
175.1432051097779947
 31
0.0
  0
ARC
  5
E037
  8
0
 10
3578.1134355621447867
 20
175.1436666744486956
 30
0.0
 40
0.0096133875748336
 50
182.751982948454895
 51
252.8943311378743033
  0
ARC
  5
E038
  8
0
 10
3578.1122419670600721
 20
175.1391736833141977
 30
0.0
 40
0.0049713577848417
 50
250.8106921983375059
 51
329.1133153881493172
  0
ARC
  5
E039
  8
0
 10
3578.1117829802160486
 20
175.1394078641731085
 30
0.0
 40
0.0054855773003624
 50
329.4751970878048155
 51
1.9432304026927301
  0
LINE
  5
E03A
  8
0
 10
3578.1172654028459874
 20
175.1395938760780098
 30
0.0
 11
3578.1172654028459874
 21
175.1417583626779901
 31
0.0
  0
LINE
  5
E03B
  8
0
 10
3578.1243977274398276
 20
175.1475381789296932
 30
0.0
 11
3578.1172654028459874
 21
175.1417583626470105
 31
0.0
  0
LINE
  5
E03C
  8
0
 10
3578.1172654028459874
 20
175.1417583626470105
 30
0.0
 11
3578.1156771373848642
 21
175.1404773462290905
 31
0.0
  0
ARC
  5
E03D
  8
0
 10
3578.1134208188482262
 20
175.1423752279175972
 30
0.0
 40
0.0029483772221871
 50
253.3580678007288896
 51
319.931438031598077
  0
ARC
  5
E03E
  8
0
 10
3578.1139371903341271
 20
175.1442021457498868
 30
0.0
 40
0.00484673842935
 50
183.6069223689169974
 51
253.6946044683274977
  0
LINE
  5
E03F
  8
0
 10
3578.1091000526398602
 20
175.1438972321097083
 30
0.0
 11
3578.1091083696778696
 21
175.1506058076143972
 31
0.0
  0
LINE
  5
E040
  8
0
 10
3578.115910840836932
 20
175.149312603569598
 30
0.0
 11
3578.1091000526398602
 21
175.1438972321097083
 31
0.0
  0
LINE
  5
E041
  8
0
 10
3578.1784291634448891
 20
175.1318778110814094
 30
0.0
 11
3578.1636764398458581
 21
175.1250080255780119
 31
0.0
  0
LINE
  5
E042
  8
0
 10
3578.1636764398458581
 20
175.1250080255780119
 30
0.0
 11
3578.1636764398458581
 21
175.1369264081924086
 31
0.0
  0
LINE
  5
E043
  8
0
 10
3578.1866849012280909
 20
175.1287865618627961
 30
0.0
 11
3578.1680546397251419
 21
175.120121074578492
 31
0.0
  0
ARC
  5
E044
  8
0
 10
3578.1674799166598859
 20
175.1220636693001893
 30
0.0
 40
0.0020258284362482
 50
242.4991089953834091
 51
286.4810253591955984
  0
ARC
  5
E045
  8
0
 10
3578.1693123526169984
 20
175.1251791383880914
 30
0.0
 40
0.0056385051000189
 50
181.7390107877164098
 51
240.6008858081233939
  0
ARC
  5
E046
  8
0
 10
3578.1587727359838027
 20
175.1201742541452973
 30
0.0
 40
0.010398670458765
 50
348.6998814626205103
 51
2.543639678064018
  0
ARC
  5
E047
  8
0
 10
3578.1646506640640837
 20
175.1189997155694869
 30
0.0
 40
0.004404541716364
 50
310.1834669195536094
 51
348.6998814626268768
  0
ARC
  5
E048
  8
0
 10
3578.1655064179658439
 20
175.1185826254238123
 30
0.0
 40
0.0035546020155505
 50
240.583897198954503
 51
303.9710802612478915
  0
ARC
  5
E049
  8
0
 10
3578.1694571786770211
 20
175.1252054674012015
 30
0.0
 40
0.0112655890130355
 50
181.2004737434959054
 51
239.6245854768137917
  0
LINE
  5
E04A
  8
0
 10
3578.1581940623450464
 20
175.1249694455779888
 30
0.0
 11
3578.1581940623450464
 21
175.1386509267385918
 31
0.0
  0
LINE
  5
E04B
  8
0
 10
3578.2005670248458955
 20
175.1231431063127957
 30
0.0
 11
3578.2005670248458955
 21
175.1011800282215063
 31
0.0
  0
ARC
  5
E04C
  8
0
 10
3578.2153842249022091
 20
175.1008443192853008
 30
0.0
 40
0.0148210025973272
 50
178.7020884579179096
 51
223.0068801368431082
  0
ARC
  5
E04D
  8
0
 10
3578.2062838918777743
 20
175.0926765355808072
 30
0.0
 40
0.0026056127155879
 50
228.1668732172311991
 51
269.3667121932064106
  0
ARC
  5
E04E
  8
0
 10
3578.2059477449420228
 20
175.0919358692036951
 30
0.0
 40
0.001889945473174
 50
279.3591526830657017
 51
337.5840790289452116
  0
ARC
  5
E04F
  8
0
 10
3578.5336487737990865
 20
174.979734522052695
 30
0.0
 40
0.3444907461329559
 50
160.4848243339127976
 51
161.1186148963153926
  0
LINE
  5
E050
  8
0
 10
3578.208947972345868
 20
175.0948139020781014
 30
0.0
 11
3578.2406158354719992
 21
175.1033238671932963
 31
0.0
  0
LINE
  5
E051
  8
0
 10
3578.2332216211448213
 20
175.1075296922780069
 30
0.0
 11
3578.2058840436461651
 21
175.100179979478014
 31
0.0
  0
LINE
  5
E052
  8
0
 10
3578.2058840436461651
 20
175.100179979478014
 30
0.0
 11
3578.2058889615041153
 21
175.1208272360765079
 31
0.0
  0
ARC
  5
E053
  8
0
 10
3578.2116930171459899
 20
175.0999369009431916
 30
0.0
 40
0.0058140626624288
 50
177.6038530096757029
 51
241.8501175614188128
  0
LINE
  5
E054
  8
0
 10
3578.2280645017458482
 20
175.0999494591630139
 30
0.0
 11
3578.2280645017458482
 21
175.0723540278781059
 31
0.0
  0
ARC
  5
E055
  8
0
 10
3578.2559920228140982
 20
175.0723540278781059
 30
0.0
 40
0.0279275210682517
 50
179.9999999999984084
 51
193.763828086006896
  0
ARC
  5
E056
  8
0
 10
3578.2531243732651092
 20
175.0716515849188966
 30
0.0
 40
0.0249750915522912
 50
193.763828086006896
 51
201.2536722350901925
  0
ARC
  5
E057
  8
0
 10
3578.233624008562856
 20
175.0640668689509027
 30
0.0
 40
0.0040516085774586
 50
201.2536722350916989
 51
224.968369118422288
  0
ARC
  5
E058
  8
0
 10
3578.2310443937740274
 20
175.0614901008100048
 30
0.0
 40
0.0004054946853192
 50
224.9683691183855103
 51
311.720262816969182
  0
ARC
  5
E059
  8
0
 10
3578.229628169759053
 20
175.0626285748572002
 30
0.0
 40
0.0022180475136259
 50
319.4786011644097243
 51
351.5311026938352938
  0
ARC
  5
E05A
  8
0
 10
3578.2210218407758475
 20
175.0645278823911895
 30
0.0
 40
0.0110271955374896
 50
348.3541711493185744
 51
357.266101047917175
  0
ARC
  5
E05B
  8
0
 10
3578.2348802827859799
 20
175.0619846826629953
 30
0.0
 40
0.0034866033852163
 50
97.1045294295762318
 51
144.650241644951393
  0
LINE
  5
E05C
  8
0
 10
3578.2344490599462006
 20
175.06544451647801
 30
0.0
 11
3578.2808506316609964
 21
175.0712341937422138
 31
0.0
  0
LINE
  5
E05D
  8
0
 10
3578.2756613188162191
 20
175.076452227673002
 30
0.0
 11
3578.2328538048450355
 21
175.0711109712779887
 31
0.0
  0
LINE
  5
E05E
  8
0
 10
3578.2328538048450355
 20
175.0711109712779887
 30
0.0
 11
3578.2328538048450355
 21
175.1012380109548872
 31
0.0
  0
ARC
  5
E05F
  8
0
 10
3578.2443465112819467
 20
175.0712898361119869
 30
0.0
 40
0.0114940986652642
 50
180.8917845246074023
 51
210.5427392612845949
  0
ARC
  5
E060
  8
0
 10
3577.9827902926522256
 20
174.6123440563048064
 30
0.0
 40
0.5310383587451977
 50
80.1194768813109448
 51
90.0544015615566877
  0
ARC
  5
E061
  8
0
 10
3578.0089295190000485
 20
174.7624162579838867
 30
0.0
 40
0.3787067308052864
 50
63.8706069082601005
 51
80.1194768813109448
  0
ARC
  5
E062
  8
0
 10
3578.1118751090048136
 20
174.9722817740978087
 30
0.0
 40
0.144951881966808
 50
40.2735769608811367
 51
63.8706069082601005
  0
ARC
  5
E063
  8
0
 10
3578.1680570477710717
 20
175.0198829968695122
 30
0.0
 40
0.071315704358629
 50
9.7806249047574685
 51
40.2735769608799075
  0
ARC
  5
E064
  8
0
 10
3578.1982644651147893
 20
175.025090204777598
 30
0.0
 40
0.0406627587123739
 50
359.3167833555996822
 51
9.7806249047574685
  0
ARC
  5
E065
  8
0
 10
3578.1846832876199187
 20
175.0226611545286914
 30
0.0
 40
0.0542758771962347
 50
335.622097064288198
 51
2.0527968102936409
  0
ARC
  5
E066
  8
0
 10
3578.1432519660052094
 20
175.0415015259931124
 30
0.0
 40
0.0997897439688772
 50
307.3335975612756101
 51
335.5878141658039908
  0
ARC
  5
E067
  8
0
 10
3578.0643762055801744
 20
175.1449149078314065
 30
0.0
 40
0.2298501650272751
 50
296.4563743313150894
 51
307.3335975612756101
  0
ARC
  5
E068
  8
0
 10
3578.021923748889094
 20
175.2454721722099862
 30
0.0
 40
0.3388578157914071
 50
282.4135602117283952
 51
295.307648176867076
  0
ARC
  5
E069
  8
0
 10
3577.9838584894819178
 20
175.4127840101033087
 30
0.0
 40
0.5104423281250428
 50
269.8235008752839121
 51
282.549257550331788
  0
ARC
  5
E06A
  8
0
 10
3577.982409844889844
 20
174.8893301930426105
 30
0.0
 40
0.0038245092761545
 50
268.1455140218736801
 51
355.6008860215545724
  0
LINE
  5
E06B
  8
0
 10
3577.9862230869262021
 20
174.889036839375791
 30
0.0
 11
3577.9862230869448467
 21
174.9023471590344059
 31
0.0
  0
LINE
  5
E06C
  8
0
 10
3577.9902570057461162
 20
174.9023817870968003
 30
0.0
 11
3577.9902570057461162
 21
174.8872041699779913
 31
0.0
  0
ARC
  5
E06D
  8
0
 10
3577.9823871094022252
 20
174.8879226671423055
 30
0.0
 40
0.007902626565622
 50
269.2674877567937983
 51
354.783533990657304
  0
LINE
  5
E06E
  8
0
 10
3578.0530622788319306
 20
174.9070546300087017
 30
0.0
 11
3578.0612863119258691
 21
174.8927622891818032
 31
0.0
  0
ARC
  5
E06F
  8
0
 10
3578.0645399393861226
 20
174.8940355485063947
 30
0.0
 40
0.0034938919497583
 50
201.3721609031713058
 51
278.8522584082400044
  0
ARC
  5
E070
  8
0
 10
3578.0645766398988599
 20
174.8948402105662012
 30
0.0
 40
0.0042863121605516
 50
276.7118070732266801
 51
356.5928699793573173
  0
LINE
  5
E071
  8
0
 10
3578.0688553757809132
 20
174.8945854725157005
 30
0.0
 11
3578.0688553757809132
 21
174.9094681056519107
 31
0.0
  0
LINE
  5
E072
  8
0
 10
3578.0737596765670787
 20
174.9103209299526895
 30
0.0
 11
3578.0737705059459586
 21
174.8933013390779934
 31
0.0
  0
ARC
  5
E073
  8
0
 10
3578.0651500432832108
 20
174.89391888840089
 30
0.0
 40
0.0086425542345385
 50
276.287653915290889
 51
355.9024672948053194
  0
ARC
  5
E074
  8
0
 10
3578.0648158107210293
 20
174.8916494601631086
 30
0.0
 40
0.0064495844798972
 50
182.3945623082553027
 51
281.4540037207905243
  0
LINE
  5
E075
  8
0
 10
3578.0583718580191999
 20
174.8913799911628075
 30
0.0
 11
3578.05837185804603
 21
174.8978272454758098
 31
0.0
  0
LINE
  5
E076
  8
0
 10
3578.0610224152969749
 20
174.9082078524158135
 30
0.0
 11
3578.0688553757458976
 21
174.8945854725780009
 31
0.0
  0
LINE
  5
E077
  8
0
 10
3578.1206302193090778
 20
174.9213091699716074
 30
0.0
 11
3578.1389850882460451
 21
174.9064404003781021
 31
0.0
  0
ARC
  5
E078
  8
0
 10
3578.1414121223301663
 20
174.9086289959641931
 30
0.0
 40
0.0032680950236932
 50
222.0427899536205985
 51
284.4391246915469083
  0
ARC
  5
E079
  8
0
 10
3578.1407620225450046
 20
174.9100653160028003
 30
0.0
 40
0.0048287833276049
 50
287.661312786519602
 51
358.0853338415852249
  0
LINE
  5
E07A
  8
0
 10
3578.1455881099459475
 20
174.9099039814780099
 30
0.0
 11
3578.1455897066739453
 21
174.9299862767911975
 31
0.0
  0
LINE
  5
E07B
  8
0
 10
3578.1510446420547851
 20
174.9321793151719078
 30
0.0
 11
3578.1510494936751456
 21
174.9092559863734948
 31
0.0
  0
ARC
  5
E07C
  8
0
 10
3578.1413220216682021
 20
174.909696112228886
 30
0.0
 40
0.0097374238065805
 50
287.163487172882526
 51
357.4093816980262091
  0
ARC
  5
E07D
  8
0
 10
3578.1424452284400104
 20
174.9052970330542962
 30
0.0
 40
0.0052076550449991
 50
177.2792917980679022
 51
289.6395187202361967
  0
LINE
  5
E07E
  8
0
 10
3578.13724344354614
 20
174.9055442272779999
 30
0.0
 11
3578.13724344354614
 21
174.9078493048097869
 31
0.0
  0
LINE
  5
E07F
  8
0
 10
3578.1283907755591827
 20
174.9237745011658944
 30
0.0
 11
3578.1455881100459919
 21
174.9099039813974059
 31
0.0
  0
LINE
  5
E080
  8
0
 10
3578.1754242781112225
 20
174.9436702210687997
 30
0.0
 11
3578.2055549408460138
 21
174.9296378948779989
 31
0.0
  0
ARC
  5
E081
  8
0
 10
3578.1860263391567969
 20
174.8877054523779861
 30
0.0
 40
0.0462568483352745
 50
63.0696342449398273
 51
65.0278598107553307
  0
ARC
  5
E082
  8
0
 10
3578.206533603743992
 20
174.9335968019030929
 30
0.0
 40
0.0046717359659786
 50
275.4388025672409981
 51
4.3177520417442814
  0
ARC
  5
E083
  8
0
 10
3578.2308707248589599
 20
174.9294113234030021
 30
0.0
 40
0.0253167978790611
 50
179.4872273092285013
 51
182.382103052803302
  0
ARC
  5
E084
  8
0
 10
3578.2114209029400627
 20
174.9286022202877859
 30
0.0
 40
0.0058501540858682
 50
182.3821030528050073
 51
220.6541669628167028
  0
ARC
  5
E085
  8
0
 10
3578.2094295283168321
 20
174.9275999285017065
 30
0.0
 40
0.003725304347653
 50
228.9417159474884897
 51
299.4410221043689262
  0
ARC
  5
E086
  8
0
 10
3578.2054723549849768
 20
174.9341259140979048
 30
0.0
 40
0.0113561007931498
 50
300.6441884231064137
 51
359.2678552910892904
  0
LINE
  5
E087
  8
0
 10
3578.2168275286448988
 20
174.9339808059781092
 30
0.0
 11
3578.2168275286448988
 21
174.970815372078107
 31
0.0
  0
LINE
  5
E088
  8
0
 10
3578.2111975483080641
 20
174.968416706455713
 30
0.0
 11
3578.2111920806460148
 21
174.9339485260780123
 31
0.0
  0
LINE
  5
E089
  8
0
 10
3578.2111920808451941
 20
174.9339485234339122
 30
0.0
 11
3578.1821057087531699
 21
174.947504516904587
 31
0.0
  0
LINE
  5
E08A
  8
0
 10
3578.2143514032682106
 20
174.9714810788202897
 30
0.0
 11
3578.2582672200460365
 21
174.9596775650780103
 31
0.0
  0
ARC
  5
E08B
  8
0
 10
3578.2559278583821651
 20
174.9644414149124998
 30
0.0
 40
0.0053072477086002
 50
296.154055922584007
 51
6.9163055703716099
  0
LINE
  5
E08C
  8
0
 10
3578.2189210300080049
 20
174.9764462744427078
 30
0.0
 11
3578.2611964858651845
 21
174.965080510219309
 31
0.0
  0
LINE
  5
E08D
  8
0
 10
3578.2611964856459963
 20
174.9991804453779878
 30
0.0
 11
3578.2611964856459963
 21
174.9650805102779998
 31
0.0
  0
LINE
  5
E08E
  8
0
 10
3578.2666219574448405
 20
174.9985034886780113
 30
0.0
 11
3578.266621960845896
 21
174.9657909099780966
 31
0.0
  0
ARC
  5
E08F
  8
0
 10
3578.2513204645488258
 20
174.965790908387703
 30
0.0
 40
0.0153014962966803
 50
318.1669096679557924
 51
0.0000059550698798
  0
ARC
  5
E090
  8
0
 10
3578.2611762934061517
 20
174.9569685326015076
 30
0.0
 40
0.0020738102947037
 50
234.7771595148140875
 51
318.1669096679793256
  0
ARC
  5
E091
  8
0
 10
3578.2677704680918396
 20
174.9608413720447118
 30
0.0
 40
0.0095749300868436
 50
187.0005886562931892
 51
215.5498211225852003
  0
LINE
  5
E092
  8
0
 10
3578.2350526938880648
 20
175.0024425057675046
 30
0.0
 11
3578.290759356846138
 21
174.9954917932780063
 31
0.0
  0
ARC
  5
E093
  8
0
 10
3578.2901124820000405
 20
174.9903073982914066
 30
0.0
 40
0.0052245955291428
 50
18.3603527006032508
 51
82.8877647045914472
  0
ARC
  5
E094
  8
0
 10
3578.270292557871926
 20
175.0020351912008039
 30
0.0
 40
0.0267511747949477
 50
337.8592069989721267
 51
1.0350475906959731
  0
LINE
  5
E095
  8
0
 10
3578.2970393677460379
 20
175.0025184245779997
 30
0.0
 11
3578.2970393677460379
 21
175.0340116865781113
 31
0.0
  0
LINE
  5
E096
  8
0
 10
3578.2922007216461679
 20
175.0340116865781113
 30
0.0
 11
3578.29219360734578
 21
175.0011783407780115
 31
0.0
  0
LINE
  5
E097
  8
0
 10
3578.29219360734578
 20
175.0011783407780115
 30
0.0
 11
3578.2369610703181024
 21
175.0080699146340066
 31
0.0
  0
ARC
  5
E098
  8
0
 10
3578.2926365988469115
 20
175.0090076858907935
 30
0.0
 40
0.0078418675304503
 50
266.7616052923618781
 51
304.1557138259992144
  0
LINE
  5
E099
  8
0
 10
3578.3010682662938962
 20
175.0397820101779871
 30
0.0
 11
3578.2427477996679954
 21
175.0397980695213107
 31
0.0
  0
LINE
  5
E09A
  8
0
 10
3578.2427477996679954
 20
175.0397980695213107
 30
0.0
 11
3578.2427551471510014
 21
175.0664808943951982
 31
0.0
  0
LINE
  5
E09B
  8
0
 10
3578.2388125851462064
 20
175.0659889679203047
 30
0.0
 11
3578.238922305394226
 21
175.025722636470789
 31
0.0
  0
ARC
  5
E09C
  8
0
 10
3578.2428651367681596
 20
175.0300383066881125
 30
0.0
 40
0.0039780787406479
 50
90.3641636880172143
 51
173.9249264547040923
  0
LINE
  5
E09D
  8
0
 10
3578.2428398528450089
 20
175.034016305078012
 30
0.0
 11
3578.3020610479647985
 21
175.0340116865781113
 31
0.0
  0
ARC
  5
E09E
  8
0
 10
3578.3022000891119205
 20
175.0313509548921047
 30
0.0
 40
0.0026643621273032
 50
67.7223383182542733
 51
92.9913693556425045
  0
ARC
  5
E09F
  8
0
 10
3578.2425087894498574
 20
175.0449221950374863
 30
0.0
 40
0.0051457387484624
 50
225.1529740493569989
 51
272.6622659013146972
  0
ARC
  5
E0A0
  8
0
 10
3577.9835483710198787
 20
174.759968373600401
 30
0.0
 40
0.3448018988599939
 50
76.3697607041080602
 51
90.2097557015802494
  0
ARC
  5
E0A1
  8
0
 10
3578.0127860325092115
 20
174.8805439072768024
 30
0.0
 40
0.2207321597184051
 50
63.9879264504563707
 51
76.3697607041080602
  0
ARC
  5
E0A2
  8
0
 10
3578.0569963750199349
 20
174.9711400844535092
 30
0.0
 40
0.1199243142694517
 50
45.1988800744287929
 51
63.9879264504570813
  0
ARC
  5
E0A3
  8
0
 10
3578.1053508333648097
 20
175.019831400915308
 30
0.0
 40
0.0513021754181397
 50
17.7056217516756504
 51
45.1988800744287929
  0
ARC
  5
E0A4
  8
0
 10
3578.1181987259919879
 20
175.0239330755304934
 30
0.0
 40
0.0378154382439731
 50
1.15271763905389
 51
17.7056217516756504
  0
ARC
  5
E0A5
  8
0
 10
3578.1164427071748833
 20
175.0238977419155049
 30
0.0
 40
0.0395718125058835
 50
343.2800179089355765
 51
1.15271763905389
  0
ARC
  5
E0A6
  8
0
 10
3578.1016907269918192
 20
175.0283291565366994
 30
0.0
 40
0.054975005514688
 50
317.1414117207144159
 51
343.2800179089355765
  0
ARC
  5
E0A7
  8
0
 10
3578.0455011399831164
 20
175.0877465800120945
 30
0.0
 40
0.1366833052084968
 50
287.5350112569424255
 51
314.9043291123946915
  0
ARC
  5
E0A8
  8
0
 10
3577.9969146610069402
 20
175.2146243029100958
 30
0.0
 40
0.2724244575011671
 50
278.9992496791512053
 51
289.2392615475438902
  0
ARC
  5
E0A9
  8
0
 10
3577.9830415112369337
 20
175.2909524985940948
 30
0.0
 40
0.3499875825634598
 50
270.520856682333374
 51
279.2878687375381901
  0
ARC
  5
E0AA
  8
0
 10
3577.9822857590529566
 20
175.3090278829488966
 30
0.0
 40
0.368069565370822
 50
270.0000498118350833
 51
270.6129183032418268
  0
ARC
  5
E0AB
  8
0
 10
3577.9822730785631393
 20
174.5919830256688101
 30
0.0
 40
0.5457129741640623
 50
88.9920150081085666
 51
89.9986350465532468
  0
ARC
  5
E0AC
  8
0
 10
3577.9828332305000913
 20
174.6238198376030084
 30
0.0
 40
0.5138712348220077
 50
85.358160768036484
 51
88.9920150122259201
  0
ARC
  5
E0AD
  8
0
 10
3577.9835801120921133
 20
174.6330186692918005
 30
0.0
 40
0.5046421321271645
 50
77.0862013801927333
 51
85.358160768036484
  0
ARC
  5
E0AE
  8
0
 10
3578.0227106016900507
 20
174.8036824777769027
 30
0.0
 40
0.329549782943183
 50
68.1469905905013036
 51
77.0862013801927333
  0
ARC
  5
E0AF
  8
0
 10
3578.051456430107919
 20
174.8753597812116993
 30
0.0
 40
0.2523231134619575
 50
57.7233765315189302
 51
68.1469905905013036
  0
ARC
  5
E0B0
  8
0
 10
3578.1341699993968177
 20
175.000284713771407
 30
0.0
 40
0.1025825539640971
 50
25.1965408339837786
 51
59.5231590374280302
  0
ARC
  5
E0B1
  8
0
 10
3578.1790583703727862
 20
175.0238068261826925
 30
0.0
 40
0.0519967104743605
 50
359.2939711619384866
 51
22.8003287609911887
  0
ARC
  5
E0B2
  8
0
 10
3578.1706492534749486
 20
175.0247480143966925
 30
0.0
 40
0.0604225908853993
 50
328.282536127953108
 51
358.4997876395013918
  0
ARC
  5
E0B3
  8
0
 10
3578.118429490912149
 20
175.0612160809569957
 30
0.0
 40
0.1240670880558526
 50
298.9603098303434194
 51
326.6345383037503893
  0
ARC
  5
E0B4
  8
0
 10
3578.041416857924105
 20
175.1895923547236009
 30
0.0
 40
0.2737302124572104
 50
286.368265432996111
 51
300.0534924514111026
  0
ARC
  5
E0B5
  8
0
 10
3577.9937886678308132
 20
175.3451456243585085
 30
0.0
 40
0.4364050139077916
 50
276.172424891639821
 51
286.6126436230557033
  0
ARC
  5
E0B6
  8
0
 10
3577.9825253671110659
 20
175.4320720788909966
 30
0.0
 40
0.5240418518480081
 50
269.9738375920670137
 51
276.3748684134018276
  0
ARC
  5
E0B7
  8
0
 10
3577.9823598614930233
 20
175.2972705234894875
 30
0.0
 40
0.3506260348336371
 50
269.9879432146786939
 51
276.6253745571277136
  0
ARC
  5
E0B8
  8
0
 10
3577.9909557229871098
 20
175.223265731715486
 30
0.0
 40
0.2761236990289515
 50
276.6253745571277136
 51
293.8491153753174103
  0
ARC
  5
E0B9
  8
0
 10
3578.0635087104687955
 20
175.0591472615882935
 30
0.0
 40
0.0966834353493199
 50
293.8491153753174103
 51
322.4824198052177167
  0
ARC
  5
E0BA
  8
0
 10
3578.1099669013819948
 20
175.0234759845444898
 30
0.0
 40
0.0381103740596664
 50
322.4824198052177167
 51
14.3511287156208294
  0
ARC
  5
E0BB
  8
0
 10
3578.1017003998658765
 20
175.0193631171690072
 30
0.0
 40
0.0471780706026157
 50
16.7024447427706484
 51
42.3772038382310612
  0
ARC
  5
E0BC
  8
0
 10
3578.0673687079320189
 20
174.9880856055991103
 30
0.0
 40
0.0936210162897567
 50
42.3561399904970273
 51
60.1237251303283031
  0
ARC
  5
E0BD
  8
0
 10
3578.0258700640920324
 20
174.917486678465508
 30
0.0
 40
0.1755111289683708
 50
59.8572591181109814
 51
72.7365766254797137
  0
ARC
  5
E0BE
  8
0
 10
3577.9978409194409323
 20
174.837352319085312
 30
0.0
 40
0.2603706640388506
 50
72.0796229026269231
 51
80.4740254084408662
  0
ARC
  5
E0BF
  8
0
 10
3577.9829561039528016
 20
174.7570908285329097
 30
0.0
 40
0.3419916133970351
 50
80.2400258103490813
 51
90.1122531149594863
  0
LINE
  5
E0C0
  8
0
 10
3577.989834585960125
 20
175.099013261403087
 30
0.0
 11
3577.9898328629460593
 21
175.0800832373780054
 31
0.0
  0
ARC
  5
E0C1
  8
0
 10
3577.9826408722210545
 20
175.0804541311484002
 30
0.0
 40
0.0072015479424819
 50
267.1761093613193907
 51
357.0478495852747756
  0
ARC
  5
E0C2
  8
0
 10
3577.9822790580228684
 20
175.0825790991987958
 30
0.0
 40
0.004000346382074
 50
270.1005600789443974
 51
350.3745468235863996
  0
LINE
  5
E0C3
  8
0
 10
3577.9862230869448467
 20
175.0819102142781105
 30
0.0
 11
3577.9862255061998439
 21
175.0990668139745026
 31
0.0
  0
LINE
  5
E0C4
  8
0
 10
3578.0409308879461605
 20
175.0941326479780003
 30
0.0
 11
3578.0409308879461605
 21
175.0702272667780051
 31
0.0
  0
ARC
  5
E0C5
  8
0
 10
3578.0515734737950879
 20
175.0702272667780051
 30
0.0
 40
0.0106425858493982
 50
179.9999999999984084
 51
241.4641894167027942
  0
ARC
  5
E0C6
  8
0
 10
3578.0479556916261572
 20
175.0644952021492031
 30
0.0
 40
0.0039034982479557
 50
247.9368305474642966
 51
20.8466564060230688
  0
ARC
  5
E0C7
  8
0
 10
3578.0517401169331606
 20
175.0705540848537112
 30
0.0
 40
0.0054870194773633
 50
182.334944158151302
 51
245.074723378106313
  0
ARC
  5
E0C8
  8
0
 10
3578.0502793358227791
 20
175.0674107332179972
 30
0.0
 40
0.0020208196911304
 50
245.0747233780820125
 51
310.9451440278907057
  0
LINE
  5
E0C9
  8
0
 10
3578.0516036520320995
 20
175.0658843326145018
 30
0.0
 11
3578.0865704333550639
 21
175.0821670402667962
 31
0.0
  0
LINE
  5
E0CA
  8
0
 10
3578.0462592491280702
 20
175.0931814574614123
 30
0.0
 11
3578.0462576531449486
 21
175.0703305371818885
 31
0.0
  0
ARC
  5
E0CB
  8
0
 10
3578.0434596113400403
 20
175.0772247251869089
 30
0.0
 40
0.0074403539022239
 50
250.1312891039059991
 51
292.0900279317605168
  0
LINE
  5
E0CC
  8
0
 10
3578.0462576531449486
 20
175.0703305371818885
 30
0.0
 11
3578.0779556788461377
 21
175.085091108978105
 31
0.0
  0
LINE
  5
E0CD
  8
0
 10
3578.0727691470460741
 20
175.0757403031838066
 30
0.0
 11
3578.0727691470469836
 21
175.0414629463085987
 31
0.0
  0
ARC
  5
E0CE
  8
0
 10
3578.0761481851359349
 20
175.0439306229455099
 30
0.0
 40
0.0041841757114041
 50
216.140270049036701
 51
277.4754890508227732
  0
LINE
  5
E0CF
  8
0
 10
3578.076692532045854
 20
175.0775672751780121
 30
0.0
 11
3578.0766925549460211
 21
175.0397820101779871
 31
0.0
  0
LINE
  5
E0D0
  8
0
 10
3578.0766925549460211
 20
175.0397820101779871
 30
0.0
 11
3578.144230849593896
 21
175.0397820101779871
 31
0.0
  0
ARC
  5
E0D1
  8
0
 10
3578.144124039019971
 20
175.030007552595805
 30
0.0
 40
0.0040078776817324
 50
46.3075879508216417
 51
89.5978957795870343
  0
LINE
  5
E0D2
  8
0
 10
3578.1441521662459309
 20
175.0340153315779901
 30
0.0
 11
3578.0769494237461004
 21
175.0340116865781113
 31
0.0
  0
ARC
  5
E0D3
  8
0
 10
3578.0769395708161937
 20
175.0301421098781987
 30
0.0
 40
0.0038696187203368
 50
89.8542479731661814
 51
175.3700708421447985
  0
LINE
  5
E0D4
  8
0
 10
3578.0727691470469836
 20
175.0414629463085987
 30
0.0
 11
3578.0729221623919329
 21
175.0364161710892006
 31
0.0
  0
LINE
  5
E0D5
  8
0
 10
3578.0729221623919329
 20
175.0364161710892006
 30
0.0
 11
3578.0730825792429641
 21
175.0304544639267874
 31
0.0
  0
LINE
  5
E0D6
  8
0
 10
3578.0730825792429641
 20
175.0304544639267874
 30
0.0
 11
3578.0730832772637768
 21
175.0244096123498139
 31
0.0
  0
LINE
  5
E0D7
  8
0
 10
3578.0994217665461292
 20
175.0340116865781113
 30
0.0
 11
3578.0994217665461292
 21
174.9859957344781094
 31
0.0
  0
LINE
  5
E0D8
  8
0
 10
3578.0994217665461292
 20
174.9859957344781094
 30
0.0
 11
3578.0627119512259924
 21
175.0030901072491929
 31
0.0
  0
LINE
  5
E0D9
  8
0
 10
3578.0572423349458404
 20
174.9987014665780123
 30
0.0
 11
3578.0952307528459642
 21
174.9809732875781094
 31
0.0
  0
ARC
  5
E0DA
  8
0
 10
3578.0948317954630511
 20
174.9855660326913096
 30
0.0
 40
0.0046100406363087
 50
274.9646424516960224
 51
5.3483044305066922
  0
LINE
  5
E0DB
  8
0
 10
3578.1051217984959294
 20
175.0340132146154986
 30
0.0
 11
3578.1051216289461081
 21
174.9860603127781076
 31
0.0
  0
ARC
  5
E0DC
  8
0
 10
3578.0939046303701616
 20
174.9860603524386988
 30
0.0
 40
0.0112169985758221
 50
300.2604720163499792
 51
359.9997974157482759
  0
ARC
  5
E0DD
  8
0
 10
3578.0976827045237769
 20
174.9798804756329105
 30
0.0
 40
0.003978072040002
 50
172.8142781506221866
 51
298.113218325886578
  0
ARC
  5
E0DE
  8
0
 10
3578.1143805983851962
 20
174.9813553556442116
 30
0.0
 40
0.0206678399879831
 50
179.0985876427706103
 51
182.7102418172470948
  0
ARC
  5
E0DF
  8
0
 10
3577.9815500677668751
 20
175.1860988155235077
 30
0.0
 40
0.206472180777791
 50
270.2042425871022147
 51
274.6921083599003168
  0
ARC
  5
E0E0
  8
0
 10
3577.9854568945747815
 20
175.140025403031899
 30
0.0
 40
0.1602336412056613
 50
274.6474571981840995
 51
286.4135571231173003
  0
ARC
  5
E0E1
  8
0
 10
3578.0112559791550666
 20
175.0628639212839914
 30
0.0
 40
0.0789816016818247
 50
284.2771736708348271
 51
305.6479386267221798
  0
ARC
  5
E0E2
  8
0
 10
3578.0242791662030868
 20
175.0447054437339887
 30
0.0
 40
0.0566358256193699
 50
305.6479386267221798
 51
312.7184773117677992
  0
ARC
  5
E0E3
  8
0
 10
3578.0442027439848971
 20
175.0252919264225113
 30
0.0
 40
0.0288940076932214
 50
309.806817562418189
 51
358.2501308632387804
  0
ARC
  5
E0E4
  8
0
 10
3578.0430011653998008
 20
175.0209508008584862
 30
0.0
 40
0.0302803043432165
 50
6.5590095515521352
 51
58.6802983335023427
  0
ARC
  5
E0E5
  8
0
 10
3578.0009999181929743
 20
174.9596109282616112
 30
0.0
 40
0.1045908762905597
 50
56.4909555708372082
 51
79.297487325242983
  0
ARC
  5
E0E6
  8
0
 10
3577.982801738166927
 20
174.8833981667820012
 30
0.0
 40
0.1828954707273086
 50
78.129481275639165
 51
90.1615410723256332
  0
ARC
  5
E0E7
  8
0
 10
3577.9813705571491482
 20
174.8625325195284859
 30
0.0
 40
0.1979921977611022
 50
84.194688751537555
 51
89.7350616423377261
  0
ARC
  5
E0E8
  8
0
 10
3577.9865986036511458
 20
174.9139542661069129
 30
0.0
 40
0.1463053668329638
 50
73.8922531587685967
 51
84.194688751537555
  0
ARC
  5
E0E9
  8
0
 10
3578.0003053107329833
 20
174.9614181795708987
 30
0.0
 40
0.0969019570278628
 50
57.2034324326723009
 51
73.8922531587685967
  0
ARC
  5
E0EA
  8
0
 10
3578.035981581661872
 20
175.0167841996884874
 30
0.0
 40
0.0310370005559465
 50
34.7132160497417317
 51
57.2034324326723009
  0
ARC
  5
E0EB
  8
0
 10
3578.0443429527099397
 20
175.022576741333495
 30
0.0
 40
0.0208651735557215
 50
2.000565010473927
 51
34.7132160497417317
  0
ARC
  5
E0EC
  8
0
 10
3578.0433853980762251
 20
175.0247522744325863
 30
0.0
 40
0.0218579683963065
 50
319.854722339568923
 51
356.2038602063117878
  0
ARC
  5
E0ED
  8
0
 10
3578.0170529109877862
 20
175.0492211309214952
 30
0.0
 40
0.0577884073535628
 50
289.8930367620833977
 51
318.1421875686202156
  0
ARC
  5
E0EE
  8
0
 10
3577.9883341333629687
 20
175.1194654774760124
 30
0.0
 40
0.1336492765295697
 50
276.3457335113035924
 51
291.2235924139500867
  0
ARC
  5
E0EF
  8
0
 10
3577.9823884335769435
 20
175.1595302753287058
 30
0.0
 40
0.1741320617015362
 50
269.9663216357777742
 51
276.8330430818639911
  0
LINE
  5
E0F0
  8
0
 10
3577.9929439797460873
 20
175.0601861718187138
 30
0.0
 11
3577.9929439797460873
 21
175.0455043756676901
 31
0.0
  0
LINE
  5
E0F1
  8
0
 10
3577.9929439797460873
 20
175.0455043756676901
 30
0.0
 11
3578.0175086792451111
 21
175.0569432272779977
 31
0.0
  0
ARC
  5
E0F2
  8
0
 10
3577.9976829696120149
 20
175.0453709050740088
 30
0.0
 40
0.0047408690509369
 50
178.3867276666246084
 51
266.4543146518445838
  0
LINE
  5
E0F3
  8
0
 10
3577.9973897734457751
 20
175.0406391109781055
 30
0.0
 11
3578.0271902311460508
 21
175.0545159256780039
 31
0.0
  0
LINE
  5
E0F4
  8
0
 10
3578.0568155831078911
 20
175.039789411864291
 30
0.0
 11
3578.001295634645885
 21
175.0397820101779871
 31
0.0
  0
ARC
  5
E0F5
  8
0
 10
3578.0012947558639098
 20
175.0463737374190032
 30
0.0
 40
0.0065917272995672
 50
237.5413228815343984
 51
270.007638432508827
  0
ARC
  5
E0F6
  8
0
 10
3577.9985563825830468
 20
175.0353685522536011
 30
0.0
 40
0.0061268077563741
 50
114.6331318265142016
 51
142.1735621685797923
  0
ARC
  5
E0F7
  8
0
 10
3577.9953313606001757
 20
175.0381141668007103
 30
0.0
 40
0.0019052304186503
 50
147.9232200111264035
 51
225.893770137467186
  0
ARC
  5
E0F8
  8
0
 10
3578.0029700783970839
 20
175.0495615389666
 30
0.0
 40
0.0156397465191444
 50
235.0261554444660987
 51
263.8539415956237235
  0
LINE
  5
E0F9
  8
0
 10
3578.001295634645885
 20
175.0340116865781113
 30
0.0
 11
3578.0617956744108596
 21
175.0340116865781113
 31
0.0
  0
LINE
  5
E0FA
  8
0
 10
3578.0464748657459495
 20
175.0340116865781113
 30
0.0
 11
3578.0464748657459495
 21
175.0132910765128997
 31
0.0
  0
ARC
  5
E0FB
  8
0
 10
3578.0353744716721849
 20
175.0132910765128997
 30
0.0
 40
0.0111003940739547
 50
299.9820464444717913
 51
0.0000000000032569
  0
ARC
  5
E0FC
  8
0
 10
3578.0389616796719565
 20
175.0074200014881001
 30
0.0
 40
0.0042258959963653
 50
171.311109920845098
 51
297.6326781737200236
  0
ARC
  5
E0FD
  8
0
 10
3578.0319624530247893
 20
175.0086088679275917
 30
0.0
 40
0.0028750195623433
 50
348.9617416501052958
 51
11.0382583498755498
  0
LINE
  5
E0FE
  8
0
 10
3578.0406434419460311
 20
175.0340116865781113
 30
0.0
 11
3578.0406434419460311
 21
175.0134149753644976
 31
0.0
  0
ARC
  5
E0FF
  8
0
 10
3578.0344845661848012
 20
175.0134149753644976
 30
0.0
 40
0.0061588757610158
 50
306.3816950287744021
 51
0.0000000000032569
  0
ARC
  5
E100
  8
0
 10
3578.0371864464009377
 20
175.0122695342911072
 30
0.0
 40
0.003929853167681
 50
232.3193182403873891
 51
284.0091888128620212
  0
LINE
  5
E101
  8
0
 10
3578.0347842834448784
 20
175.0091593318772141
 30
0.0
 11
3577.9940659560461427
 21
175.0281204484780062
 31
0.0
  0
ARC
  5
E102
  8
0
 10
3577.9905458376338174
 20
175.0195728732068119
 30
0.0
 40
0.0092440312221357
 50
67.6156224432639732
 51
89.9582771592986035
  0
ARC
  5
E103
  8
0
 10
3577.9905432879550062
 20
175.0160715349254872
 30
0.0
 40
0.012745370431786
 50
89.9582771592986035
 51
110.8230977741951051
  0
ARC
  5
E104
  8
0
 10
3577.9823876253508388
 20
175.029566263222307
 30
0.0
 40
0.003955008278378
 50
268.5287479203258272
 51
336.4241769389814749
  0
LINE
  5
E105
  8
0
 10
3577.9862230869448467
 20
175.0280623785438081
 30
0.0
 11
3577.9862230869448467
 21
175.0011485006058933
 31
0.0
  0
ARC
  5
E106
  8
0
 10
3577.9823310561700964
 20
175.0016017754186919
 30
0.0
 40
0.0039183365869887
 50
269.3423086614488966
 51
353.3571279593508052
  0
ARC
  5
E107
  8
0
 10
3577.9826957268560363
 20
175.0002452513278115
 30
0.0
 40
0.0078896195714668
 50
267.0237285453209779
 51
354.7754783031180068
  0
LINE
  5
E108
  8
0
 10
3577.9905525691460753
 20
174.9995268320780042
 30
0.0
 11
3577.9905525691460753
 21
175.02881690197799
 31
0.0
  0
LINE
  5
E109
  8
0
 10
3578.0406434419460311
 20
175.0133665773780081
 30
0.0
 11
3577.9985117497508327
 21
175.0329857131760036
 31
0.0
  0
ARC
  5
E10A
  8
0
 10
3578.0011749383711503
 20
175.0229521349403967
 30
0.0
 40
0.0110602102156984
 50
89.3747384322089147
 51
103.9331747250820968
  0
LINE
  5
E10B
  8
0
 10
3577.9985117497458305
 20
175.0336869230781076
 30
0.0
 11
3577.9985117497508327
 21
175.0329857131760036
 31
0.0
  0
ARC
  5
E10C
  8
0
 10
3577.9936265879969142
 20
175.0329857131455924
 30
0.0
 40
0.0048851617531627
 50
275.1622066694105229
 51
0.0000003559697155
  0
ARC
  5
E10D
  8
0
 10
3577.99051067367418
 20
175.0509592858890926
 30
0.0
 40
0.0059730246816285
 50
224.1247969126661985
 51
294.0405168735637176
  0
LINE
  5
E10E
  8
0
 10
3577.9862230869448467
 20
175.0468007255742862
 30
0.0
 11
3577.9862230869448467
 21
175.0604652437781112
 31
0.0
  0
ARC
  5
E10F
  8
0
 10
3577.982418420373051
 20
175.0471335211830137
 30
0.0
 40
0.0038191937157271
 50
268.0142097026994179
 51
355.0010399997635773
  0
LINE
  5
E110
  8
0
 10
3577.9903515602459265
 20
174.9798143149780003
 30
0.0
 11
3577.9903515602459265
 21
174.9608116517781013
 31
0.0
  0
ARC
  5
E111
  8
0
 10
3577.9826760823361838
 20
174.96144363301471
 30
0.0
 40
0.0077014519037306
 50
267.0972870497316762
 51
355.2930148386953988
  0
ARC
  5
E112
  8
0
 10
3577.9824023667888468
 20
174.9628968819820898
 30
0.0
 40
0.0038291652798695
 50
268.2597195574289231
 51
356.1940044219601873
  0
LINE
  5
E113
  8
0
 10
3577.9862230869512132
 20
174.9626427084523073
 30
0.0
 11
3577.9862230869448467
 21
174.9796825340779947
 31
0.0
  0
LINE
  5
E114
  8
0
 10
3577.9862247002811273
 20
174.9409793947108938
 30
0.0
 11
3577.9862247002811273
 21
174.9235915088644902
 31
0.0
  0
ARC
  5
E115
  8
0
 10
3577.9823948346779616
 20
174.9243599544354879
 30
0.0
 40
0.0039061975281224
 50
268.4045752907842939
 51
348.6545060804531886
  0
LINE
  5
E116
  8
0
 10
3577.9902685305742125
 20
174.9410395406457894
 30
0.0
 11
3577.9902685305742125
 21
174.9217258715486025
 31
0.0
  0
ARC
  5
E117
  8
0
 10
3577.9826383096851714
 20
174.9228410917930034
 30
0.0
 40
0.0077112895819316
 50
267.3819744209523037
 51
351.6846234337838837
  0
LINE
  5
E118
  8
0
 10
3578.0316017110521898
 20
174.9443501112068873
 30
0.0
 11
3578.0418544204749196
 21
174.9265324859898101
 31
0.0
  0
ARC
  5
E119
  8
0
 10
3578.0453711191948969
 20
174.928556082831193
 30
0.0
 40
0.004057353086555
 50
209.9172045539806106
 51
357.1679183942183045
  0
LINE
  5
E11A
  8
0
 10
3578.0494235167448096
 20
174.9283556129780095
 30
0.0
 11
3578.0494249547068648
 21
174.9473084707931037
 31
0.0
  0
LINE
  5
E11B
  8
0
 10
3578.0543671229461324
 20
174.9483269133961016
 30
0.0
 11
3578.0543671229461324
 21
174.9270754389779938
 31
0.0
  0
ARC
  5
E11C
  8
0
 10
3578.0457113641391516
 20
174.9277107631181991
 30
0.0
 40
0.0086790435701969
 50
276.357510247632888
 51
355.8020742772133076
  0
ARC
  5
E11D
  8
0
 10
3578.0453850873568626
 20
174.9254253882631076
 30
0.0
 40
0.0064696636398583
 50
182.4568196458803016
 51
281.4772319652701071
  0
LINE
  5
E11E
  8
0
 10
3578.03892137055891
 20
174.9251480567307908
 30
0.0
 11
3578.0389246545018977
 21
174.9316239666825084
 31
0.0
  0
LINE
  5
E11F
  8
0
 10
3578.0395277116449506
 20
174.9455532844781089
 30
0.0
 11
3578.0494235171481705
 21
174.9283556123272945
 31
0.0
  0
LINE
  5
E120
  8
0
 10
3578.0790224976040008
 20
174.9548679012293917
 30
0.0
 11
3578.1022021068279173
 21
174.9361727342123061
 31
0.0
  0
ARC
  5
E121
  8
0
 10
3578.1039883570028906
 20
174.9398363924856028
 30
0.0
 40
0.0040749210975354
 50
243.9291179248496917
 51
4.8576813644739003
  0
LINE
  5
E122
  8
0
 10
3578.1080486414448387
 20
174.9401814608781081
 30
0.0
 11
3578.1080524569879344
 21
174.9662160955087131
 31
0.0
  0
LINE
  5
E123
  8
0
 10
3578.1135353297459005
 20
174.9691983832900064
 30
0.0
 11
3578.1135353297459005
 21
174.9396533007090966
 31
0.0
  0
ARC
  5
E124
  8
0
 10
3578.1046057892381214
 20
174.9396533007090966
 30
0.0
 40
0.0089295405071343
 50
317.0079420775448966
 51
0.0000000000016284
  0
ARC
  5
E125
  8
0
 10
3578.1030556092509869
 20
174.9410984652512866
 30
0.0
 40
0.0110488702471063
 50
289.0995839503431171
 51
317.0079420775460903
  0
ARC
  5
E126
  8
0
 10
3578.1049279829471743
 20
174.9356912456449038
 30
0.0
 40
0.0053266497751526
 50
237.9828792563507989
 51
289.0995839503436855
  0
ARC
  5
E127
  8
0
 10
3578.1048485321298358
 20
174.9355641822600091
 30
0.0
 40
0.0051767913877412
 50
177.2214643396521865
 51
237.9828792563517936
  0
LINE
  5
E128
  8
0
 10
3578.0996778267458467
 20
174.9358151302780016
 30
0.0
 11
3578.0996778267458467
 21
174.9382083338921916
 31
0.0
  0
LINE
  5
E129
  8
0
 10
3578.0866822511911778
 20
174.9574145348271941
 30
0.0
 11
3578.1080486414448387
 21
174.9401814608781081
 31
0.0
  0
LINE
  5
E12A
  8
0
 10
3578.1228972096600955
 20
174.9750870295015091
 30
0.0
 11
3578.1581032551448516
 21
174.9586699844780071
 31
0.0
  0
LINE
  5
E12B
  8
0
 10
3578.1581032551448516
 20
174.9586699844780071
 30
0.0
 11
3578.1581032551448516
 21
174.9866034038780072
 31
0.0
  0
LINE
  5
E12C
  8
0
 10
3578.1637446015461137
 20
174.9850867268683885
 30
0.0
 11
3578.1637518721449851
 21
174.958708758378009
 31
0.0
  0
ARC
  5
E12D
  8
0
 10
3578.1526168728300945
 20
174.958705689221091
 30
0.0
 40
0.0111349997386051
 50
300.0501456079489913
 51
0.0157925233695098
  0
ARC
  5
E12E
  8
0
 10
3578.1563243080131542
 20
174.9522971825541049
 30
0.0
 40
0.0037313497377223
 50
250.7714688950767083
 51
300.0501456079497871
  0
ARC
  5
E12F
  8
0
 10
3578.1576160161489497
 20
174.9532921853518985
 30
0.0
 40
0.0051737180717274
 50
178.3233389693779998
 51
240.844002292293311
  0
LINE
  5
E130
  8
0
 10
3578.1524445131458378
 20
174.9534435635779914
 30
0.0
 11
3578.1524445131458378
 21
174.9543694125229933
 31
0.0
  0
LINE
  5
E131
  8
0
 10
3578.1166466975878393
 20
174.9710391014351956
 30
0.0
 11
3578.1524445131458378
 21
174.9543694124780018
 31
0.0
  0
LINE
  5
E132
  8
0
 10
3578.1524445131458378
 20
174.9543694124780018
 30
0.0
 11
3578.1537163358448197
 21
174.9537788568781025
 31
0.0
  0
ARC
  5
E133
  8
0
 10
3578.1544878830618472
 20
174.9556477850765077
 30
0.0
 40
0.0020219242612522
 50
247.5677593786836894
 51
297.0989895102924265
  0
ARC
  5
E134
  8
0
 10
3578.1524640587849717
 20
174.9586570301680126
 30
0.0
 40
0.005639211238636
 50
301.4808174937899139
 51
0.1316191090881482
  0
LINE
  5
E135
  8
0
 10
3577.9862242537710699
 20
175.1376815759215049
 30
0.0
 11
3577.9861414719212007
 21
175.1204833457624943
 31
0.0
  0
ARC
  5
E136
  8
0
 10
3577.9825814681948941
 20
175.1207507560316117
 30
0.0
 40
0.0035700328817477
 50
265.2538469151032814
 51
355.7042851374574752
  0
ARC
  5
E137
  8
0
 10
3577.9826579993809901
 20
175.1192070826110978
 30
0.0
 40
0.0073409704069221
 50
267.095943576355296
 51
356.5416637270449201
  0
LINE
  5
E138
  8
0
 10
3577.9899856013448698
 20
175.1187642553780108
 30
0.0
 11
3577.9899856013448698
 21
175.1376412853468025
 31
0.0
  0
LINE
  5
E139
  8
0
 10
3578.019766895245084
 20
175.1363620801409979
 30
0.0
 11
3578.019766895245084
 21
175.116938495578097
 31
0.0
  0
ARC
  5
E13A
  8
0
 10
3578.0280291885478618
 20
175.1174299960298981
 30
0.0
 40
0.0082768993779768
 50
183.4043519106238875
 51
264.3246932143273966
  0
ARC
  5
E13B
  8
0
 10
3578.0284447863350579
 20
175.1156007920280047
 30
0.0
 40
0.0065248957398324
 50
259.0974986826594204
 51
306.9473659592978265
  0
ARC
  5
E13C
  8
0
 10
3578.0288228449931012
 20
175.1150014446056957
 30
0.0
 40
0.0058189507645357
 50
307.5196140556038813
 51
0.7988028788113939
  0
LINE
  5
E13D
  8
0
 10
3578.0346412302460521
 20
175.1150825682780123
 30
0.0
 11
3578.0346412302460521
 21
175.1210415171350974
 31
0.0
  0
LINE
  5
E13E
  8
0
 10
3578.0422360367351757
 20
175.1342403408324913
 30
0.0
 11
3578.0319871712172244
 21
175.1164290945218056
 31
0.0
  0
ARC
  5
E13F
  8
0
 10
3578.0288678170300045
 20
175.1176812581358888
 30
0.0
 40
0.0033612920531586
 50
259.707066441451218
 51
338.1286062771628735
  0
ARC
  5
E140
  8
0
 10
3578.0284243647638505
 20
175.1183780793793971
 30
0.0
 40
0.0040071028860028
 50
181.7724324246298977
 51
267.7524584157147842
  0
LINE
  5
E141
  8
0
 10
3578.0244191790447985
 20
175.1182541402965001
 30
0.0
 11
3578.0244191764459174
 21
175.1360055998779899
 31
0.0
  0
LINE
  5
E142
  8
0
 10
3578.0341258122421095
 20
175.1351230545685951
 30
0.0
 11
3578.0244191762221817
 21
175.1182541353888098
 31
0.0
  0
LINE
  5
E143
  8
0
 10
3578.0623929781459083
 20
175.1314684798668111
 30
0.0
 11
3578.0625090499911494
 21
175.1098717428444047
 31
0.0
  0
ARC
  5
E144
  8
0
 10
3578.07177295847805
 20
175.1099215317987898
 30
0.0
 40
0.0092640422816504
 50
180.3079336863262085
 51
253.5289402244629002
  0
ARC
  5
E145
  8
0
 10
3578.0706976331480291
 20
175.1062845494010958
 30
0.0
 40
0.0054714224050336
 50
253.5289402244634971
 51
304.8566972253781273
  0
ARC
  5
E146
  8
0
 10
3578.070333889973881
 20
175.1059146927426866
 30
0.0
 40
0.0053999372641549
 50
310.2746611844170275
 51
2.4373442085416208
  0
LINE
  5
E147
  8
0
 10
3578.0757289420462257
 20
175.1061443350779996
 30
0.0
 11
3578.0757289420462257
 21
175.1082571069781011
 31
0.0
  0
LINE
  5
E148
  8
0
 10
3578.0963599896458618
 20
175.124897089977992
 30
0.0
 11
3578.0741879361457904
 21
175.107013841478107
 31
0.0
  0
ARC
  5
E149
  8
0
 10
3578.0719650675669072
 20
175.10889377123749
 30
0.0
 40
0.0029112335220246
 50
253.0189119615851041
 51
319.7780504255105143
  0
ARC
  5
E14A
  8
0
 10
3578.0724303362330829
 20
175.1107458588903967
 30
0.0
 40
0.0048194117456213
 50
183.6164091263528064
 51
254.1594534877378919
  0
LINE
  5
E14B
  8
0
 10
3578.0676205213599133
 20
175.1104418680118897
 30
0.0
 11
3578.0676179807460358
 21
175.1306142059981141
 31
0.0
  0
LINE
  5
E14C
  8
0
 10
3578.0878629148628534
 20
175.1267683817617069
 30
0.0
 11
3578.0676179799720558
 21
175.1104398182538091
 31
0.0
  0
LINE
  5
E14D
  8
0
 10
3578.0995646607220806
 20
175.1241454445111003
 30
0.0
 11
3578.0994873985960112
 21
175.097624810815006
 31
0.0
  0
ARC
  5
E14E
  8
0
 10
3578.1101624385469222
 20
175.097593711396712
 30
0.0
 40
0.0106750852517906
 50
179.8330816201327025
 51
241.8431355259216957
  0
ARC
  5
E14F
  8
0
 10
3578.1068133408580252
 20
175.0913363634404902
 30
0.0
 40
0.0035778422114059
 50
241.8431355259216957
 51
310.0218753904816253
  0
ARC
  5
E150
  8
0
 10
3578.1022636974080342
 20
175.0931095776695088
 30
0.0
 40
0.0082034980158826
 50
326.6229660722034964
 51
356.1494734132421058
  0
LINE
  5
E151
  8
0
 10
3578.110448677145996
 20
175.0925586816780992
 30
0.0
 11
3578.110448677145996
 21
175.0932862353330961
 31
0.0
  0
LINE
  5
E152
  8
0
 10
3578.137231581440119
 20
175.1126938119294891
 30
0.0
 11
3578.1050015570458527
 21
175.0976853516781091
 31
0.0
  0
LINE
  5
E153
  8
0
 10
3578.1050015570458527
 20
175.0976853516781091
 30
0.0
 11
3578.1050044577768858
 21
175.1227918331522915
 31
0.0
  0
LINE
  5
E154
  8
0
 10
3578.1453778302461615
 20
175.1095514210780095
 30
0.0
 11
3578.1095251778460806
 21
175.0928586246780014
 31
0.0
  0
ARC
  5
E155
  8
0
 10
3578.1088369957719806
 20
175.0947399846716053
 30
0.0
 40
0.0020053010557874
 50
242.4305442296692945
 51
290.1475443704966892
  0
ARC
  5
E156
  8
0
 10
3578.110414282633883
 20
175.0977609625223863
 30
0.0
 40
0.0054132536697879
 50
180.8003177773385914
 51
242.4304704301399909
  0
LINE
  5
E157
  8
0
 10
3578.1287348206460592
 20
175.1018014008780028
 30
0.0
 11
3578.1288686889420205
 21
175.081369079613296
 31
0.0
  0
ARC
  5
E158
  8
0
 10
3578.1438417350150303
 20
175.0814671798806899
 30
0.0
 40
0.0149733674350104
 50
180.3753845972904912
 51
222.1032145538580949
  0
ARC
  5
E159
  8
0
 10
3578.1341099175419913
 20
175.0726728161911865
 30
0.0
 40
0.0018566184459182
 50
222.1032145538557074
 51
283.4128087167346735
  0
ARC
  5
E15A
  8
0
 10
3578.1340973195551669
 20
175.0727256446099034
 30
0.0
 40
0.0019109282153982
 50
283.4128087167342755
 51
337.1910295781153195
  0
ARC
  5
E15B
  8
0
 10
3578.1031948699010172
 20
175.0857215317998907
 30
0.0
 40
0.0354348671032329
 50
337.1910295781153195
 51
343.2341538067879014
  0
ARC
  5
E15C
  8
0
 10
3578.1399873512509657
 20
175.080734031943507
 30
0.0
 40
0.005966394801418
 50
178.7908786241555958
 51
241.3139641746973041
  0
LINE
  5
E15D
  8
0
 10
3578.1371234238458783
 20
175.0754999334779995
 30
0.0
 11
3578.1861988500450025
 21
175.0886938709780054
 31
0.0
  0
LINE
  5
E15E
  8
0
 10
3578.179142733145909
 20
175.0929905731591134
 30
0.0
 11
3578.1340222754320166
 21
175.0808599297592991
 31
0.0
  0
LINE
  5
E15F
  8
0
 10
3578.1340222754320166
 20
175.0808599297592991
 30
0.0
 11
3578.1340222762460144
 21
175.1042635689931046
 31
0.0
  0
LINE
  5
E160
  8
0
 10
3578.1527024243459891
 20
175.0796883506779977
 30
0.0
 11
3578.1527024341430661
 21
175.0611101797005063
 31
0.0
  0
LINE
  5
E161
  8
0
 10
3578.1527024341430661
 20
175.0611101797005063
 30
0.0
 11
3578.2108951181398879
 21
175.0683760974530117
 31
0.0
  0
LINE
  5
E162
  8
0
 10
3578.2153054540558514
 20
175.0630558725553954
 30
0.0
 11
3578.1543390333449679
 21
175.0554488802781066
 31
0.0
  0
ARC
  5
E163
  8
0
 10
3578.1623441584761167
 20
175.0608302701855905
 30
0.0
 40
0.009645796269701
 50
178.337118570522307
 51
213.9106940110056883
  0
LINE
  5
E164
  8
0
 10
3578.1479294933460551
 20
175.078405147278005
 30
0.0
 11
3578.1479294933460551
 21
175.0623285083781013
 31
0.0
  0
ARC
  5
E165
  8
0
 10
3578.1741246158458125
 20
175.0623285083781013
 30
0.0
 40
0.0261951225003383
 50
179.9999999999967031
 51
203.4178869227372957
  0
ARC
  5
E166
  8
0
 10
3578.1564119788708922
 20
175.048641223462397
 30
0.0
 40
0.0071230810859897
 50
106.9523021920475969
 51
152.6144749509037979
  0
LINE
  5
E167
  8
0
 10
3578.1558358411448353
 20
175.0556356421913051
 30
0.0
 11
3578.1560045673131754
 21
175.0247849743545032
 31
0.0
  0
ARC
  5
E168
  8
0
 10
3578.1599414254142175
 20
175.0300142145970028
 30
0.0
 40
0.0040024290178931
 50
90.5356955251340736
 51
172.5133820998636907
  0
LINE
  5
E169
  8
0
 10
3578.1599040046448863
 20
175.0340164686780042
 30
0.0
 11
3578.22706914229002
 21
175.0340123811805029
 31
0.0
  0
ARC
  5
E16A
  8
0
 10
3578.2270868284608696
 20
175.0300624658171103
 30
0.0
 40
0.003949954959125
 50
33.9995481167773832
 51
90.2565463031938435
  0
LINE
  5
E16B
  8
0
 10
3578.2285006943911867
 20
175.0399038599439052
 30
0.0
 11
3578.1597689801460547
 21
175.0397820101779871
 31
0.0
  0
LINE
  5
E16C
  8
0
 10
3578.1597689801460547
 20
175.0397820101779871
 30
0.0
 11
3578.1597689801460547
 21
175.0561263752780121
 31
0.0
  0
LINE
  5
E16D
  8
0
 10
3578.2196796565458499
 20
175.0340116865781113
 30
0.0
 11
3578.2196729230449819
 21
175.0102270210605013
 31
0.0
  0
LINE
  5
E16E
  8
0
 10
3578.2196729230449819
 20
175.0102270210605013
 30
0.0
 11
3578.155612306229159
 21
175.0182201095327059
 31
0.0
  0
LINE
  5
E16F
  8
0
 10
3578.1543415112460025
 20
175.012513147278014
 30
0.0
 11
3578.2182608188459199
 21
175.0045377108781111
 31
0.0
  0
ARC
  5
E170
  8
0
 10
3578.2176126450290212
 20
174.9993429078000133
 30
0.0
 40
0.005235084365724
 50
18.4328542994095912
 51
82.8877612532221235
  0
ARC
  5
E171
  8
0
 10
3578.1988807754878508
 20
175.0106635010247089
 30
0.0
 40
0.0255935645770564
 50
337.8120814070173878
 51
1.8497325100296971
  0
LINE
  5
E172
  8
0
 10
3578.2244610037569146
 20
175.0114896181609936
 30
0.0
 11
3578.2245255546458793
 21
175.0340116865781113
 31
0.0
  0
ARC
  5
E173
  8
0
 10
3578.2208239133187817
 20
175.0156410444787127
 30
0.0
 40
0.0055350183543312
 50
257.9979337184288966
 51
311.0883780843400928
  0
LINE
  5
E174
  8
0
 10
3578.2016158116462066
 20
175.0066145668592128
 30
0.0
 11
3578.2016120497951306
 21
174.9832805277011119
 31
0.0
  0
ARC
  5
E175
  8
0
 10
3578.1862878681240545
 20
174.9832766968158069
 30
0.0
 40
0.0153279501661352
 50
318.6732096985377893
 51
0.0265407357719116
  0
ARC
  5
E176
  8
0
 10
3578.1960873890729999
 20
174.9746594854929072
 30
0.0
 40
0.0022785462793763
 50
251.9008250583401036
 51
318.6732096985354019
  0
ARC
  5
E177
  8
0
 10
3578.1967466083951876
 20
174.9750096021618901
 30
0.0
 40
0.0028633481342328
 50
194.3954862764753102
 51
241.4816210128228988
  0
ARC
  5
E178
  8
0
 10
3578.2024922768491706
 20
174.9779243645429005
 30
0.0
 40
0.0092589291171172
 50
184.7979660751786923
 51
203.0596948700334963
  0
LINE
  5
E179
  8
0
 10
3578.1932657926017782
 20
174.9771499248504085
 30
0.0
 11
3578.1419893150368807
 21
174.9909356406436984
 31
0.0
  0
LINE
  5
E17A
  8
0
 10
3578.1461607872811328
 20
174.9960078791910121
 30
0.0
 11
3578.1961762189448564
 21
174.9825612210779866
 31
0.0
  0
ARC
  5
E17B
  8
0
 10
3578.1980295330240551
 20
174.9894547036685992
 30
0.0
 40
0.0071382683682513
 50
254.9518458154049085
 51
300.1241112688171029
  0
LINE
  5
E17C
  8
0
 10
3578.1961762189448564
 20
175.007293283936292
 30
0.0
 11
3578.1961762183459541
 21
174.9825612212393082
 31
0.0
  0
ARC
  5
E17D
  8
0
 10
3578.1896904475938754
 20
174.9825612213967077
 30
0.0
 40
0.0064857707511274
 50
303.4534869027392006
 51
359.9999986100156093
  0
ARC
  5
E17E
  8
0
 10
3577.9845136405529047
 20
174.4275257389936087
 30
0.0
 40
1.132616405203301
 50
77.7808089316487923
 51
90.1126859497200741
  0
ARC
  5
E17F
  8
0
 10
3578.0660857200041391
 20
174.8042006844335106
 30
0.0
 40
0.7472101018453521
 50
62.6431792127114093
 51
77.7808089316487923
  0
ARC
  5
E180
  8
0
 10
3578.264376134901795
 20
175.1874483054182861
 30
0.0
 40
0.3157036388217249
 50
35.6762032098043775
 51
62.6431792127114093
  0
ARC
  5
E181
  8
0
 10
3578.4195581584749561
 20
175.2988601988205914
 30
0.0
 40
0.1246694260965056
 50
352.4479785929797231
 51
35.6762032098043775
  0
ARC
  5
E182
  8
0
 10
3578.3937376782441788
 20
175.3022833822942061
 30
0.0
 40
0.1507158343793675
 50
322.1119041300449908
 51
352.4479785929797231
  0
ARC
  5
E183
  8
0
 10
3578.2867586111360652
 20
175.3855286229679962
 30
0.0
 40
0.2862676358953799
 50
305.6947024510627102
 51
322.1119041300449908
  0
CIRCLE
  5
E184
  8
0
 10
3581.982286079045025
 20
174.1208453155780091
 30
0.0
 40
0.0422124307000003
  0
ARC
  5
E185
  8
0
 10
3581.982286079045025
 20
174.1208453155780091
 30
0.0
 40
0.2275
 50
90.0
 51
270.0
  0
ARC
  5
E186
  8
0
 10
3580.9122860790448613
 20
170.6078453155780039
 30
0.0
 40
0.0399999999999992
 50
96.4133479258004655
 51
270.0
  0
ARC
  5
E187
  8
0
 10
3580.9033500436421491
 20
170.6873446694648067
 30
0.0
 40
0.0399999999821941
 50
276.4133479258003945
 51
357.8861791664314183
  0
ARC
  5
E188
  8
0
 10
3580.9972860791831408
 20
170.6838775015791896
 30
0.0
 40
0.0540000001576987
 50
91.4994109759345946
 51
177.8861791664297982
  0
ARC
  5
E189
  8
0
 10
3580.9948264120648673
 20
170.7778453155999898
 30
0.0
 40
0.0400000000240729
 50
271.4994109759346088
 51
345.5224877904973937
  0
ARC
  5
E18A
  8
0
 10
3581.0722860790237974
 20
170.757845315556807
 30
0.0
 40
0.0400000000212474
 50
89.9999999692549721
 51
165.5224877904989
  0
ARC
  5
E18B
  8
0
 10
3581.0072860801578827
 20
170.8428453155144098
 30
0.0
 40
0.04500000094676
 50
147.6006965653402858
 51
269.9999985843741115
  0
ARC
  5
E18C
  8
0
 10
3577.1697860974659307
 20
173.2781314843267069
 30
0.0
 40
4.4999999815800384
 50
327.6006958312698885
 51
0.0000000681357253
  0
LINE
  5
E18D
  8
0
 10
3581.6697860790459345
 20
173.2781314896780032
 30
0.0
 11
3581.6699855735960227
 21
173.6128453155781131
 31
0.0
  0
ARC
  5
E18E
  8
0
 10
3581.7146457668959556
 20
173.6131840580437995
 30
0.0
 40
0.0446614779428262
 50
89.8199945992662094
 51
180.4345736105391893
  0
LINE
  5
E18F
  8
0
 10
3581.6672869620460915
 20
173.6578453155781006
 30
0.0
 11
3581.6672869620460915
 21
173.6758453155779875
 31
0.0
  0
ARC
  5
E190
  8
0
 10
3581.7146457676221871
 20
173.7205065738349106
 30
0.0
 40
0.0446614786631659
 50
179.5654273235354026
 51
270.180004466627679
  0
LINE
  5
E191
  8
0
 10
3581.6699855735960227
 20
173.7208453155780035
 30
0.0
 11
3581.6699855735960227
 21
174.0200953149688132
 31
0.0
  0
ARC
  5
E192
  8
0
 10
3581.3703971174199978
 20
174.1208453152233915
 30
0.0
 40
0.3160756327608274
 50
341.4124823260106041
 51
18.5875176739894705
  0
LINE
  5
E193
  8
0
 10
3581.6699855735960227
 20
174.2215953154781118
 30
0.0
 11
3581.6699855735960227
 21
174.2383453155779875
 31
0.0
  0
ARC
  5
E194
  8
0
 10
3581.9821451237498877
 20
174.2386856117628895
 30
0.0
 40
0.3121597356392789
 50
89.9741281694811761
 51
180.0624601343793927
  0
ARC
  5
E195
  8
0
 10
3581.6702420589567737
 20
175.3114380870736113
 30
0.0
 40
1.099424317282516
 50
241.6844896999504897
 51
270.1457059106357974
  0
ARC
  5
E196
  8
0
 10
3581.1297838973928265
 20
174.3083489688063139
 30
0.0
 40
0.0399978185330488
 50
61.6844896999504897
 51
180.0055180682084028
  0
LINE
  5
E197
  8
0
 10
3581.0897860790460072
 20
174.308345116677998
 30
0.0
 11
3581.0897860790460072
 21
173.9383819697781064
 31
0.0
  0
ARC
  5
E198
  8
0
 10
3581.1297757761290086
 20
173.9333273753906042
 30
0.0
 40
0.0399890955891149
 50
181.9276410685326084
 51
298.3354635877973919
  0
ARC
  5
E199
  8
0
 10
3581.670257156074058
 20
172.9301351095060966
 30
0.0
 40
1.0995348624640531
 50
89.8552028939716507
 51
118.3133002695381037
  0
ARC
  5
E19A
  8
0
 10
3580.6497860790941559
 20
174.1208453155780091
 30
0.0
 40
0.0600000000477209
 50
135.2883010838077098
 51
224.7116989161922902
  0
ARC
  5
E19B
  8
0
 10
3581.051306625738107
 20
173.7233453169613995
 30
0.0
 40
0.6249999985240856
 50
90.6441808998080347
 51
135.2883010838077098
  0
ARC
  5
E19C
  8
0
 10
3581.0447857909912273
 20
174.3033075098236964
 30
0.0
 40
0.045001148149831
 50
0.2394677932532372
 51
90.6441808998080347
  0
ARC
  5
E19D
  8
0
 10
3581.0513066264970803
 20
174.5183453156496967
 30
0.0
 40
0.625000000087532
 50
224.7116989619987919
 51
269.3558190321577968
  0
ARC
  5
E19E
  8
0
 10
3581.0447876526081927
 20
173.9383909614406036
 30
0.0
 40
0.0450090088273557
 50
269.3535616480185126
 51
358.6189320779625973
  0
ARC
  5
E19F
  8
0
 10
3581.5374247390609526
 20
173.9368070058870899
 30
0.0
 40
0.4476414306694995
 50
179.7984123813623967
 51
180.6175558317657135
  0
LINE
  5
E1A0
  8
0
 10
3581.1487559243460055
 20
174.3435610076668922
 30
0.0
 11
3581.1487559243460055
 21
173.8981296234777005
 31
0.0
  0
ARC
  5
E1A1
  8
0
 10
3578.3797860790491541
 20
176.5484453656752066
 30
0.0
 40
0.625000000004088
 50
134.7117207456915082
 51
139.2102851467863047
  0
ARC
  5
E1A2
  8
0
 10
3577.98228607903593
 20
176.9499656077587133
 30
0.0
 40
0.0600002169840128
 50
45.2885061550755381
 51
134.7117207456925883
  0
ARC
  5
E1A3
  8
0
 10
3577.5848277324707851
 20
176.5484842603842139
 30
0.0
 40
0.624943054396672
 50
40.7886971206530973
 51
45.2885061550755381
  0
ARC
  5
E1A4
  8
0
 10
3579.0511115832800897
 20
170.606788920926391
 30
0.0
 40
0.041194337450324
 50
1.7783841493497929
 51
82.1272734838181293
  0
ARC
  5
E1A5
  8
0
 10
3579.0511660583338198
 20
170.608959766755504
 30
0.0
 40
0.0411297038892642
 50
271.5604389896907946
 51
358.7566960636391968
  0
ARC
  5
E1A6
  8
0
 10
3576.9122862617127794
 20
170.6078448966495102
 30
0.0
 40
0.0400004367110211
 50
96.4135409090850715
 51
179.7957979503894137
  0
ARC
  5
E1A7
  8
0
 10
3576.9122854091219779
 20
170.6078448996881889
 30
0.0
 40
0.0399995841157408
 50
179.7957979503894137
 51
270.0009596039809026
  0
LINE
  5
E1A8
  8
0
 10
3575.0522860790460982
 20
170.5678453155780119
 30
0.0
 11
3572.9122860790448613
 21
170.5678453155780119
 31
0.0
  0
LINE
  5
E1A9
  8
0
 10
3574.957295614216946
 20
170.7978453155780869
 30
0.0
 11
3573.0072860801801653
 21
170.7978453145676099
 31
0.0
  0
LINE
  5
E1AA
  8
0
 10
3574.2972851960448679
 20
173.6578453155781006
 30
0.0
 11
3573.6672869620460915
 21
173.6578453155781006
 31
0.0
  0
LINE
  5
E1AB
  8
0
 10
3574.2972851960448679
 20
173.6758453155779875
 30
0.0
 11
3573.6672869620460915
 21
173.6758453155779875
 31
0.0
  0
LINE
  5
E1AC
  8
0
 10
3575.0567540972128882
 20
170.6475949924779911
 30
0.0
 11
3572.9078180608780713
 21
170.6475949924779911
 31
0.0
  0
LINE
  5
E1AD
  8
0
 10
3574.9686990805671485
 20
170.7378590117779993
 30
0.0
 11
3572.9958730775238109
 21
170.7378590117779993
 31
0.0
  0
CIRCLE
  5
E1AE
  8
0
 10
3573.9822860790459345
 20
174.1208453155780091
 30
0.0
 40
0.0422124307000003
  0
ARC
  5
E1AF
  8
0
 10
3573.9822790433831869
 20
174.1208453155780091
 30
0.0
 40
0.2275000001087924
 50
89.9982280714572767
 51
270.0017719285427233
  0
ARC
  5
E1B0
  8
0
 10
3572.9122860790448613
 20
170.6078453155780039
 30
0.0
 40
0.0399999999999992
 50
96.4133479258004655
 51
270.0
  0
ARC
  5
E1B1
  8
0
 10
3572.9033500436421491
 20
170.6873446694648067
 30
0.0
 40
0.0399999999821941
 50
276.4133479258003945
 51
357.8861791664314183
  0
ARC
  5
E1B2
  8
0
 10
3572.9972860791817766
 20
170.6838775015791896
 30
0.0
 40
0.0540000001576987
 50
91.4994109759345946
 51
177.8861791664297982
  0
ARC
  5
E1B3
  8
0
 10
3572.9948264120648673
 20
170.7778453155999898
 30
0.0
 40
0.0400000000240729
 50
271.4994109759346088
 51
345.5224877904973937
  0
ARC
  5
E1B4
  8
0
 10
3573.0722860790237974
 20
170.757845315556807
 30
0.0
 40
0.0400000000212474
 50
89.9999999692549721
 51
165.5224877904989
  0
ARC
  5
E1B5
  8
0
 10
3573.0072860801578827
 20
170.8428453155144098
 30
0.0
 40
0.04500000094676
 50
147.6006965653402858
 51
269.9999985843741115
  0
ARC
  5
E1B6
  8
0
 10
3569.1697860974659307
 20
173.2781314843267069
 30
0.0
 40
4.4999999815800384
 50
327.6006958312698885
 51
0.0000000681357253
  0
LINE
  5
E1B7
  8
0
 10
3573.6697860790459345
 20
173.2781314896780032
 30
0.0
 11
3573.6699855735960227
 21
173.6128453155781131
 31
0.0
  0
ARC
  5
E1B8
  8
0
 10
3573.7146457668959556
 20
173.6131840580437995
 30
0.0
 40
0.0446614779428262
 50
89.8199945992662094
 51
180.4345736105391893
  0
LINE
  5
E1B9
  8
0
 10
3573.6672869620460915
 20
173.6578453155781006
 30
0.0
 11
3573.6672869620460915
 21
173.6758453155779875
 31
0.0
  0
ARC
  5
E1BA
  8
0
 10
3573.7146457676208229
 20
173.7205065738349106
 30
0.0
 40
0.0446614786631659
 50
179.5654273235354026
 51
270.180004466627679
  0
LINE
  5
E1BB
  8
0
 10
3573.6699855735960227
 20
173.7208453155780035
 30
0.0
 11
3573.6699855735960227
 21
174.0200953149688132
 31
0.0
  0
ARC
  5
E1BC
  8
0
 10
3573.3703971174190883
 20
174.1208453152233915
 30
0.0
 40
0.3160756327608274
 50
341.4124823260106041
 51
18.5875176739894705
  0
LINE
  5
E1BD
  8
0
 10
3573.6699855735960227
 20
174.2215953154781118
 30
0.0
 11
3573.6699855735960227
 21
174.2383453155779875
 31
0.0
  0
ARC
  5
E1BE
  8
0
 10
3573.9821451237498877
 20
174.2386856117628895
 30
0.0
 40
0.3121597356392789
 50
89.9741281694811761
 51
180.0624601343793927
  0
ARC
  5
E1BF
  8
0
 10
3573.6702420589567737
 20
175.3114380870736113
 30
0.0
 40
1.099424317282516
 50
241.6844896999504897
 51
270.1457059106357974
  0
ARC
  5
E1C0
  8
0
 10
3573.1297838973928265
 20
174.3083489688063139
 30
0.0
 40
0.0399978185330488
 50
61.6844896999504897
 51
180.0055180682084028
  0
LINE
  5
E1C1
  8
0
 10
3573.0897860790460072
 20
174.308345116677998
 30
0.0
 11
3573.0897860790460072
 21
173.9383819697781064
 31
0.0
  0
ARC
  5
E1C2
  8
0
 10
3573.1297757761290086
 20
173.9333273753906042
 30
0.0
 40
0.0399890955891149
 50
181.9276410685326084
 51
298.3354635877973919
  0
ARC
  5
E1C3
  8
0
 10
3573.670257156074058
 20
172.9301351095060966
 30
0.0
 40
1.0995348624640531
 50
89.8552028939716507
 51
118.3133002695381037
  0
ARC
  5
E1C4
  8
0
 10
3572.6497860790941559
 20
174.1208453155780091
 30
0.0
 40
0.0600000000477209
 50
135.2883010838077098
 51
224.7116989161922902
  0
ARC
  5
E1C5
  8
0
 10
3573.051306625738107
 20
173.7233453169613995
 30
0.0
 40
0.6249999985240856
 50
90.6441808998080347
 51
135.2883010838077098
  0
ARC
  5
E1C6
  8
0
 10
3573.0447857909912273
 20
174.3033075098236964
 30
0.0
 40
0.045001148149831
 50
0.2394677932532372
 51
90.6441808998080347
  0
ARC
  5
E1C7
  8
0
 10
3573.0513066264979898
 20
174.5183453156496967
 30
0.0
 40
0.625000000087532
 50
224.7116989619987919
 51
269.3558190321577968
  0
ARC
  5
E1C8
  8
0
 10
3573.0447876526091022
 20
173.9383909614406036
 30
0.0
 40
0.0450090088273557
 50
269.3535616480185126
 51
358.6189320779625973
  0
ARC
  5
E1C9
  8
0
 10
3573.5374247390609526
 20
173.9368070058870899
 30
0.0
 40
0.4476414306694995
 50
179.7984123813623967
 51
180.6175558317657135
  0
LINE
  5
E1CA
  8
0
 10
3573.148755924345096
 20
174.3435610076668922
 30
0.0
 11
3573.148755924345096
 21
173.8981296234777005
 31
0.0
  0
CIRCLE
  5
E1CB
  8
0
 10
3573.9822860790459345
 20
174.1208453155780091
 30
0.0
 40
0.0422124307000003
  0
ARC
  5
E1CC
  8
0
 10
3573.9822860790459345
 20
174.1208453155780091
 30
0.0
 40
0.2275
 50
270.0
 51
90.0
  0
ARC
  5
E1CD
  8
0
 10
3575.0522860790460982
 20
170.6078453155780039
 30
0.0
 40
0.0399999999999992
 50
270.0
 51
83.5866520741995629
  0
ARC
  5
E1CE
  8
0
 10
3575.0612221144488103
 20
170.6873446694648067
 30
0.0
 40
0.0399999999821941
 50
182.1138208335684965
 51
263.5866520741994918
  0
ARC
  5
E1CF
  8
0
 10
3574.9672860789091828
 20
170.6838775015791896
 30
0.0
 40
0.0540000001576987
 50
2.1138208335702058
 51
88.5005890240654054
  0
ARC
  5
E1D0
  8
0
 10
3574.9697457460260921
 20
170.7778453155999898
 30
0.0
 40
0.0400000000240729
 50
194.4775122095026063
 51
268.5005890240653912
  0
ARC
  5
E1D1
  8
0
 10
3574.8922860790671621
 20
170.757845315556807
 30
0.0
 40
0.0400000000212474
 50
14.4775122095010698
 51
90.0000000307450136
  0
ARC
  5
E1D2
  8
0
 10
3574.9572860779339862
 20
170.8428453155144098
 30
0.0
 40
0.04500000094676
 50
270.0000014156258885
 51
32.3993034346596787
  0
ARC
  5
E1D3
  8
0
 10
3578.7947860606259383
 20
173.2781314843267069
 30
0.0
 40
4.4999999815800384
 50
179.9999999318642097
 51
212.3993041687301115
  0
LINE
  5
E1D4
  8
0
 10
3574.2947860790459345
 20
173.2781314896780032
 30
0.0
 11
3574.2945865844949367
 21
173.6128453155781131
 31
0.0
  0
ARC
  5
E1D5
  8
0
 10
3574.2499263911950038
 20
173.6131840580437995
 30
0.0
 40
0.0446614779428262
 50
359.5654263894608107
 51
90.1800054007338048
  0
LINE
  5
E1D6
  8
0
 10
3574.2972851960448679
 20
173.6578453155781006
 30
0.0
 11
3574.2972851960448679
 21
173.6758453155779875
 31
0.0
  0
ARC
  5
E1D7
  8
0
 10
3574.2499263904701365
 20
173.7205065738349106
 30
0.0
 40
0.0446614786631659
 50
269.819995533372321
 51
0.4345726764645539
  0
LINE
  5
E1D8
  8
0
 10
3574.2945865844949367
 20
173.7208453155780035
 30
0.0
 11
3574.2945865844949367
 21
174.0200953149688132
 31
0.0
  0
ARC
  5
E1D9
  8
0
 10
3574.5941750406718711
 20
174.1208453152233915
 30
0.0
 40
0.3160756327608274
 50
161.4124823260104904
 51
198.5875176739893959
  0
LINE
  5
E1DA
  8
0
 10
3574.2945865844949367
 20
174.2215953154781118
 30
0.0
 11
3574.2945865844949367
 21
174.2383453155779875
 31
0.0
  0
ARC
  5
E1DB
  8
0
 10
3573.9824270343410717
 20
174.2386856117628895
 30
0.0
 40
0.3121597356392789
 50
359.9375398656205221
 51
90.0258718305188239
  0
ARC
  5
E1DC
  8
0
 10
3574.2943300991350952
 20
175.3114380870736113
 30
0.0
 40
1.099424317282516
 50
269.8542940893642026
 51
298.3155103000494819
  0
ARC
  5
E1DD
  8
0
 10
3574.8347882606990424
 20
174.3083489688063139
 30
0.0
 40
0.0399978185330488
 50
359.9944819317914835
 51
118.3155103000494961
  0
LINE
  5
E1DE
  8
0
 10
3574.8747860790449522
 20
174.308345116677998
 30
0.0
 11
3574.8747860790449522
 21
173.9383819697781064
 31
0.0
  0
ARC
  5
E1DF
  8
0
 10
3574.8347963819619508
 20
173.9333273753906042
 30
0.0
 40
0.0399890955891149
 50
241.6645364122018123
 51
358.07235893146742
  0
ARC
  5
E1E0
  8
0
 10
3574.2943150020169014
 20
172.9301351095060966
 30
0.0
 40
1.0995348624640531
 50
61.686699730461882
 51
90.1447971060283777
  0
ARC
  5
E1E1
  8
0
 10
3575.3147860789981678
 20
174.1208453155780091
 30
0.0
 40
0.0600000000477209
 50
315.2883010838077098
 51
44.7116989161922476
  0
ARC
  5
E1E2
  8
0
 10
3574.9132655323528525
 20
173.7233453169613995
 30
0.0
 40
0.6249999985240856
 50
44.7116989161922476
 51
89.3558191001919937
  0
ARC
  5
E1E3
  8
0
 10
3574.9197863671001869
 20
174.3033075098236964
 30
0.0
 40
0.045001148149831
 50
89.3558191001919937
 51
179.7605322067466886
  0
ARC
  5
E1E4
  8
0
 10
3574.9132655315938791
 20
174.5183453156496967
 30
0.0
 40
0.625000000087532
 50
270.6441809678422032
 51
315.2883010380011797
  0
ARC
  5
E1E5
  8
0
 10
3574.9197845054832214
 20
173.9383909614406036
 30
0.0
 40
0.0450090088273557
 50
181.3810679220374027
 51
270.6464383519814874
  0
ARC
  5
E1E6
  8
0
 10
3574.4271474190300069
 20
173.9368070058870899
 30
0.0
 40
0.4476414306694995
 50
359.3824441682343149
 51
0.2015876186376359
  0
LINE
  5
E1E7
  8
0
 10
3574.8158162337458634
 20
174.3435610076668922
 30
0.0
 11
3574.8158162337458634
 21
173.8981296234777005
 31
0.0
  0
ENDSEC
  0
EOF
