  0
SECTION
  2
HEADER
  9
$ACADVER
  1
AC1009
  9
$INSBASE
 10
3593.1683729861338179
 20
170.5739514213273083
 30
0.0
  9
$EXTMIN
 10
3587.6497502199172231
 20
170.5711686438451125
 30
-0.0000000349181948
  9
$EXTMAX
 10
3594.780287657610188
 20
177.0268771232929907
 30
0.0000000814935746
  9
$LIMMIN
 10
0.0
 20
0.0
  9
$LIMMAX
 10
11.6929133858000007
 20
8.2677165353999982
  9
$ORTHOMODE
 70
     0
  9
$REGENMODE
 70
     1
  9
$FILLMODE
 70
     1
  9
$QTEXTMODE
 70
     0
  9
$MIRRTEXT
 70
     0
  9
$DRAGMODE
 70
     2
  9
$LTSCALE
 40
0.6431102362
  9
$OSMODE
 70
  4095
  9
$ATTMODE
 70
     1
  9
$TEXTSIZE
 40
0.2
  9
$TRACEWID
 40
0.05
  9
$TEXTSTYLE
  7
STANDARD
  9
$CLAYER
  8
0
  9
$CELTYPE
  6
BYLAYER
  9
$CECOLOR
 62
   256
  9
$DIMSCALE
 40
1.0
  9
$DIMASZ
 40
0.1875
  9
$DIMEXO
 40
0.0625
  9
$DIMDLI
 40
0.4443307087
  9
$DIMRND
 40
0.0
  9
$DIMDLE
 40
0.0
  9
$DIMEXE
 40
0.125
  9
$DIMTP
 40
0.01
  9
$DIMTM
 40
0.01
  9
$DIMTXT
 40
2.0
  9
$DIMCEN
 40
0.1052362205
  9
$DIMTSZ
 40
0.0
  9
$DIMTOL
 70
     1
  9
$DIMLIM
 70
     0
  9
$DIMTIH
 70
     1
  9
$DIMTOH
 70
     1
  9
$DIMSE1
 70
     0
  9
$DIMSE2
 70
     0
  9
$DIMTAD
 70
     0
  9
$DIMZIN
 70
     0
  9
$DIMBLK
  1

  9
$DIMASO
 70
     1
  9
$DIMSHO
 70
     1
  9
$DIMPOST
  1
\X
  9
$DIMAPOST
  1

  9
$DIMALT
 70
     1
  9
$DIMALTD
 70
     2
  9
$DIMALTF
 40
25.3999999999999986
  9
$DIMLFAC
 40
1.0
  9
$DIMTOFL
 70
     0
  9
$DIMTVP
 40
0.0
  9
$DIMTIX
 70
     0
  9
$DIMSOXD
 70
     0
  9
$DIMSAH
 70
     0
  9
$DIMBLK1
  1

  9
$DIMBLK2
  1

  9
$DIMSTYLE
  2
STANDARD
  9
$DIMCLRD
 70
     0
  9
$DIMCLRE
 70
     0
  9
$DIMCLRT
 70
     0
  9
$DIMTFAC
 40
1.0
  9
$DIMGAP
 40
0.09
  9
$LUNITS
 70
     2
  9
$LUPREC
 70
     4
  9
$SKETCHINC
 40
0.1
  9
$FILLETRAD
 40
0.0
  9
$AUNITS
 70
     0
  9
$AUPREC
 70
     0
  9
$MENU
  1
.
  9
$ELEVATION
 40
0.0
  9
$PELEVATION
 40
0.0
  9
$THICKNESS
 40
0.0
  9
$LIMCHECK
 70
     0
  9
$BLIPMODE
 70
     0
  9
$CHAMFERA
 40
0.0
  9
$CHAMFERB
 40
0.0
  9
$SKPOLY
 70
     0
  9
$TDCREATE
 40
2458060.468368056230247
  9
$TDUPDATE
 40
2459088.3927662041969597
  9
$TDINDWG
 40
0.548733912
  9
$TDUSRTIMER
 40
0.548733912
  9
$USRTIMER
 70
     1
  9
$ANGBASE
 50
0.0
  9
$ANGDIR
 70
     0
  9
$PDMODE
 70
     0
  9
$PDSIZE
 40
0.3125
  9
$PLINEWID
 40
0.0
  9
$COORDS
 70
     1
  9
$SPLFRAME
 70
     0
  9
$SPLINETYPE
 70
     6
  9
$SPLINESEGS
 70
     8
  9
$ATTDIA
 70
     1
  9
$ATTREQ
 70
     1
  9
$HANDLING
 70
     1
  9
$HANDSEED
  5
DE08
  9
$SURFTAB1
 70
     6
  9
$SURFTAB2
 70
     6
  9
$SURFTYPE
 70
     6
  9
$SURFU
 70
     6
  9
$SURFV
 70
     6
  9
$UCSNAME
  2

  9
$UCSORG
 10
0.0
 20
0.0
 30
0.0
  9
$UCSXDIR
 10
1.0
 20
0.0
 30
0.0
  9
$UCSYDIR
 10
0.0
 20
1.0
 30
0.0
  9
$PUCSNAME
  2

  9
$PUCSORG
 10
0.0
 20
0.0
 30
0.0
  9
$PUCSXDIR
 10
1.0
 20
0.0
 30
0.0
  9
$PUCSYDIR
 10
0.0
 20
1.0
 30
0.0
  9
$USERI1
 70
     0
  9
$USERI2
 70
     0
  9
$USERI3
 70
     0
  9
$USERI4
 70
     0
  9
$USERI5
 70
     0
  9
$USERR1
 40
0.0
  9
$USERR2
 40
0.0
  9
$USERR3
 40
0.0
  9
$USERR4
 40
0.0
  9
$USERR5
 40
0.0
  9
$WORLDVIEW
 70
     1
  9
$SHADEDGE
 70
     3
  9
$SHADEDIF
 70
    70
  9
$TILEMODE
 70
     1
  9
$MAXACTVP
 70
    64
  9
$PLIMCHECK
 70
     0
  9
$PEXTMIN
 10
1.0000000000000000E+20
 20
1.0000000000000000E+20
 30
1.0000000000000000E+20
  9
$PEXTMAX
 10
-1.0000000000000000E+20
 20
-1.0000000000000000E+20
 30
-1.0000000000000000E+20
  9
$PLIMMIN
 10
0.0
 20
0.0
  9
$PLIMMAX
 10
12.0
 20
9.0
  9
$UNITMODE
 70
     0
  9
$VISRETAIN
 70
     1
  9
$PLINEGEN
 70
     0
  9
$PSLTSCALE
 70
     1
  0
ENDSEC
  0
SECTION
  2
TABLES
  0
TABLE
  2
VPORT
 70
     1
  0
VPORT
  2
*ACTIVE
 70
     0
 10
0.0
 20
0.0
 11
1.0
 21
1.0
 12
287.5219037043880235
 22
-21.4624886923186899
 13
0.0
 23
0.0
 14
1.0
 24
1.0
 15
0.0
 25
0.0
 16
0.0
 26
0.0
 36
96.5995694866707311
 17
3303.693115234375
 27
195.2615115758877096
 37
0.0
 40
6.509431434894104
 41
2.6486111111111108
 42
50.0
 43
0.0
 44
0.0
 50
0.0
 51
0.0
 71
     0
 72
   100
 73
     1
 74
     1
 75
     0
 76
     0
 77
     0
 78
     0
  0
ENDTAB
  0
TABLE
  2
LTYPE
 70
     2
  0
LTYPE
  2
CONTINUOUS
 70
     0
  3
Solid line
 72
    65
 73
     0
 40
0.0
  0
LTYPE
  2
PHANTOM2
 70
     0
  3
___ _ _ ___ _ _ ___ _ _ ___ _ _
 72
    65
 73
     6
 40
1.25
 49
0.625
 49
-0.125
 49
0.125
 49
-0.125
 49
0.125
 49
-0.125
  0
ENDTAB
  0
TABLE
  2
LAYER
 70
     2
  0
LAYER
  2
0
 70
     0
 62
   255
  6
CONTINUOUS
  0
LAYER
  2
DEFPOINTS
 70
     0
 62
     7
  6
CONTINUOUS
  0
ENDTAB
  0
TABLE
  2
STYLE
 70
     1
  0
STYLE
  2
STANDARD
 70
     0
 40
0.0
 41
0.8
 50
0.0
 71
     0
 42
0.2
  3
txt
  4

  0
ENDTAB
  0
TABLE
  2
VIEW
 70
     0
  0
ENDTAB
  0
TABLE
  2
UCS
 70
     0
  0
ENDTAB
  0
TABLE
  2
APPID
 70
     9
  0
APPID
  2
ACAD
 70
     0
  0
APPID
  2
ACAD_MLEADERVER
 70
     0
  0
APPID
  2
ACAD_EXEMPT_FROM_CAD_STANDARDS
 70
     0
  0
APPID
  2
ACAD_NAV_VCDISPLAY
 70
     0
  0
APPID
  2
ACAECLAYERSTANDARD
 70
     0
  0
APPID
  2
ACCMTRANSPARENCY
 70
     0
  0
APPID
  2
ACAD_DSTYLE_DIMJAG
 70
     0
  0
APPID
  2
ACAD_DSTYLE_DIMTALN
 70
     0
  0
APPID
  2
ACDBATTR
 70
     0
  0
ENDTAB
  0
TABLE
  2
DIMSTYLE
 70
     1
  0
DIMSTYLE
  2
STANDARD
 70
     0
  3

  4

  5

  6

  7

 40
1.0
 41
0.1875
 42
0.0625
 43
0.38
 44
0.125
 45
0.0
 46
0.0
 47
0.01
 48
0.01
140
0.15625
141
0.09
142
0.0
143
25.3999999999999986
144
1.0
145
0.0
146
1.0
147
0.09
 71
     1
 72
     0
 73
     1
 74
     1
 75
     0
 76
     0
 77
     0
 78
     4
170
     0
171
     2
172
     0
173
     0
174
     0
175
     0
176
     0
177
     0
178
     0
  0
ENDTAB
  0
ENDSEC
  0
SECTION
  2
BLOCKS
  0
BLOCK
  8
0
  2
$MODEL_SPACE
 70
     0
 10
0.0
 20
0.0
 30
0.0
  3
$MODEL_SPACE
  1

  0
ENDBLK
  5
21
  8
0
  0
BLOCK
 67
     1
  8
0
  2
$PAPER_SPACE
 70
     0
 10
0.0
 20
0.0
 30
0.0
  3
$PAPER_SPACE
  1

  0
ENDBLK
  5
1D
 67
     1
  8
0
  0
BLOCK
  8
0
  2
_FILLED
 70
     0
 10
0.0
 20
0.0
 30
0.0
  3
_FILLED
  1

  0
SOLID
  5
9E2C
  8
0
  6
BYBLOCK
 62
     0
 10
0.0
 20
0.0
 30
0.0
 11
-1.0
 21
0.1666666667
 31
0.0
 12
-1.0
 22
-0.1666666667
 32
0.0
 13
-1.0
 23
-0.1666666667
 33
0.0
  0
ENDBLK
  5
9E2D
  8
0
  6
BYBLOCK
 62
     0
  0
BLOCK
  8
0
  2
A$C6B0F1CD5
 70
     2
 10
0.0
 20
0.0
 30
0.0
  3
A$C6B0F1CD5
  1

  0
ATTDEF
  5
B779
  8
DEFPOINTS
 10
0.0005209962714616
 20
0.000347009907216
 30
0.0
 40
0.001
  1
BATH FAUCET
  3

  2
PRODUCT
 70
     0
1001
ACDBATTR
1070
     0
1070
     1
  0
ATTDEF
  5
B77A
  8
DEFPOINTS
 10
0.0005209962714616
 20
0.0020136765738812
 30
0.0
 40
0.001
  1
SINGULIER
  3

  2
TRADENAME
 70
     0
1001
ACDBATTR
1070
     0
1070
     1
  0
ATTDEF
  5
B77B
  8
DEFPOINTS
 10
0.0005209962714616
 20
0.0036803432405463
 30
0.0
 40
0.001
  1
K-10873W
  3

  2
MODELNUMBER
 70
     0
1001
ACDBATTR
1070
     0
1070
     1
  0
ENDBLK
  5
B77F
  8
0
  0
ENDSEC
  0
SECTION
  2
ENTITIES
  0
ATTDEF
  5
B784
  8
DEFPOINTS
 10
3593.1691283833588386
 20
170.5775230990871023
 30
0.0
 40
0.001
  1
K-8670T-3
  3

  2
MODELNUMBER
 70
     0
1001
ACDBATTR
1070
     0
1070
     1
  0
ATTDEF
  5
B785
  8
DEFPOINTS
 10
3593.1691283833588386
 20
170.575856432420494
 30
0.0
 40
0.001
  1
FINIAL
  3

  2
TRADENAME
 70
     0
1001
ACDBATTR
1070
     0
1070
     1
  0
ATTDEF
  5
B786
  8
DEFPOINTS
 10
3593.1691283833588386
 20
170.5741897657538004
 30
0.0
 40
0.001
  1
BATHROOM SINK FAUCET
  3

  2
PRODUCT
 70
     0
1001
ACDBATTR
1070
     0
1070
     1
  0
LINE
  5
DAC0
  8
0
 10
3592.0983729861341089
 20
170.5739514213273083
 30
0.0
 11
3594.2383729861348911
 21
170.5739514213273083
 31
0.0
  0
LINE
  5
DAC1
  8
0
 10
3592.8533738691348844
 20
173.6639514213273117
 30
0.0
 11
3593.4833721031341156
 21
173.6639514213273117
 31
0.0
  0
LINE
  5
DAC2
  8
0
 10
3592.8533738691348844
 20
173.6819514213273123
 30
0.0
 11
3593.4833721031341156
 21
173.6819514213273123
 31
0.0
  0
LINE
  5
DAC3
  8
0
 10
3592.0939049679668642
 20
170.6537010982272875
 30
0.0
 11
3594.2428410043021358
 21
170.6537010982272875
 31
0.0
  0
LINE
  5
DAC4
  8
0
 10
3592.1819599846130586
 20
170.7439651175272104
 30
0.0
 11
3594.1547859876559414
 21
170.7439651175272104
 31
0.0
  0
CIRCLE
  5
DAC5
  8
0
 10
3593.1683729861338179
 20
174.1269514213271918
 30
0.0
 40
0.0422124307000003
  0
ARC
  5
DAC6
  8
0
 10
3593.1683729861338179
 20
174.1269514213271918
 30
0.0
 40
0.2275
 50
270.0
 51
90.0
  0
ARC
  5
DAC7
  8
0
 10
3594.2383729861348911
 20
170.6139514213271866
 30
0.0
 40
0.0399999999999992
 50
270.0
 51
83.5866520741995629
  0
ARC
  5
DAC8
  8
0
 10
3594.247309021538058
 20
170.6934507752139893
 30
0.0
 40
0.0399999999821941
 50
182.1138208335684965
 51
263.5866520741994918
  0
ARC
  5
DAC9
  8
0
 10
3594.1533729859970663
 20
170.6899836073284007
 30
0.0
 40
0.0540000001576987
 50
2.1138208335702058
 51
88.5005890240654054
  0
ARC
  5
DACA
  8
0
 10
3594.155832653114885
 20
170.7839514213492009
 30
0.0
 40
0.0400000000240729
 50
194.4775122095026063
 51
268.5005890240653912
  0
ARC
  5
DACB
  8
0
 10
3594.0783729862550899
 20
170.7639514213715017
 30
0.0
 40
0.0399999999084832
 50
14.4775121542593705
 51
90.0000001425735263
  0
ARC
  5
DACC
  8
0
 10
3594.1433729861018946
 20
170.8489514212974996
 30
0.0
 40
0.0450000000174546
 50
270.0000000416359853
 51
32.3993041344218824
  0
ARC
  5
DACD
  8
0
 10
3597.980872967715186
 20
173.2842375900758896
 30
0.0
 40
4.4999999815800384
 50
179.9999999318642097
 51
212.3993041687301115
  0
LINE
  5
DACE
  8
0
 10
3593.4808729861338179
 20
173.2842375954271859
 30
0.0
 11
3593.4806734915850939
 21
173.6189514213272957
 31
0.0
  0
ARC
  5
DACF
  8
0
 10
3593.436013298285161
 20
173.6192901637930106
 30
0.0
 40
0.0446614779428262
 50
359.5654263894608107
 51
90.1800054007338048
  0
LINE
  5
DAD0
  8
0
 10
3593.4833721031341156
 20
173.6639514213273117
 30
0.0
 11
3593.4833721031341156
 21
173.6819514213273123
 31
0.0
  0
ARC
  5
DAD1
  8
0
 10
3593.4360132975589295
 20
173.7266126795840933
 30
0.0
 40
0.0446614786631659
 50
269.819995533372321
 51
0.4345726764645539
  0
LINE
  5
DAD2
  8
0
 10
3593.4806734915850939
 20
173.7269514213272998
 30
0.0
 11
3593.4806734915850939
 21
174.0262014207179959
 31
0.0
  0
ARC
  5
DAD3
  8
0
 10
3593.7802619477602093
 20
174.1269514209726879
 30
0.0
 40
0.3160756327608274
 50
161.4124823260104904
 51
198.5875176739893959
  0
LINE
  5
DAD4
  8
0
 10
3593.4806734915850939
 20
174.2277014212272945
 30
0.0
 11
3593.4806734915850939
 21
174.2444514213273123
 31
0.0
  0
ARC
  5
DAD5
  8
0
 10
3593.1685139414289551
 20
174.2447917175121006
 30
0.0
 40
0.3121597356392789
 50
359.9375398656205221
 51
90.0258718305188239
  0
ARC
  5
DAD6
  8
0
 10
3593.4804170062238882
 20
175.317544192822794
 30
0.0
 40
1.099424317282516
 50
269.8626723651547081
 51
298.3155103000494819
  0
ARC
  5
DAD7
  8
0
 10
3594.0208751677878354
 20
174.3144550745554966
 30
0.0
 40
0.0399978185330488
 50
359.9944819317914835
 51
118.3155103000494961
  0
LINE
  5
DAD8
  8
0
 10
3594.0608729861351094
 20
174.3144512224272091
 30
0.0
 11
3594.0608729861351094
 21
173.9444880755272891
 31
0.0
  0
ARC
  5
DAD9
  8
0
 10
3594.0208832890511985
 20
173.9394334811397869
 30
0.0
 40
0.0399890955891149
 50
241.6645364122018123
 51
358.07235893146742
  0
ARC
  5
DADA
  8
0
 10
3593.4804019091061491
 20
172.9362412152553077
 30
0.0
 40
1.0995348624640531
 50
61.686699730461882
 51
90.1364182796803135
  0
ARC
  5
DADB
  8
0
 10
3594.5008729860869607
 20
174.1269514213271918
 30
0.0
 40
0.0600000000477209
 50
315.2883010838077098
 51
44.7116989161922476
  0
ARC
  5
DADC
  8
0
 10
3594.0993524394421001
 20
173.7294514227106959
 30
0.0
 40
0.6249999985240856
 50
44.7116989161922476
 51
89.3558191001919937
  0
ARC
  5
DADD
  8
0
 10
3594.1058732741898893
 20
174.3094136155729075
 30
0.0
 40
0.045001148149831
 50
89.3558191001919937
 51
179.7605322067466886
  0
ARC
  5
DADE
  8
0
 10
3594.0993524386831268
 20
174.5244514213989078
 30
0.0
 40
0.625000000087532
 50
270.6441809678422032
 51
315.2883010380011797
  0
ARC
  5
DADF
  8
0
 10
3594.1058714125720144
 20
173.9444970671897863
 30
0.0
 40
0.0450090088273557
 50
181.3810679220374027
 51
270.6464383519814874
  0
ARC
  5
DAE0
  8
0
 10
3593.6132343261187998
 20
173.942913111636301
 30
0.0
 40
0.4476414306694995
 50
359.3824441682343149
 51
0.2015876186376359
  0
LINE
  5
DAE1
  8
0
 10
3594.0019031408342016
 20
174.3496671134161033
 30
0.0
 11
3594.0019031408342016
 21
173.9042357292269116
 31
0.0
  0
CIRCLE
  5
DAE2
  8
0
 10
3593.1683729861338179
 20
174.1269514213271918
 30
0.0
 40
0.0422124307000003
  0
ARC
  5
DAE3
  8
0
 10
3593.1683729861338179
 20
174.1269514213271918
 30
0.0
 40
0.2275
 50
90.0
 51
270.0
  0
ARC
  5
DAE4
  8
0
 10
3592.0983729861341089
 20
170.6139514213271866
 30
0.0
 40
0.0399999999999992
 50
96.4133479258004655
 51
270.0
  0
ARC
  5
DAE5
  8
0
 10
3592.089436950730942
 20
170.6934507752139893
 30
0.0
 40
0.0399999999821941
 50
276.4133479258003945
 51
357.8861791664314183
  0
ARC
  5
DAE6
  8
0
 10
3592.1833729862719338
 20
170.6899836073284007
 30
0.0
 40
0.0540000001576987
 50
91.4994109759345946
 51
177.8861791664297982
  0
ARC
  5
DAE7
  8
0
 10
3592.1809133191532055
 20
170.7839514213492009
 30
0.0
 40
0.0400000000240729
 50
271.4994109759346088
 51
345.5224877904973937
  0
ARC
  5
DAE8
  8
0
 10
3592.2583729860139101
 20
170.7639514213715017
 30
0.0
 40
0.0399999999084824
 50
89.9999998266553973
 51
165.5224878457389934
  0
ARC
  5
DAE9
  8
0
 10
3592.1933729861671054
 20
170.8489514212974996
 30
0.0
 40
0.0450000000174538
 50
147.6006958655767107
 51
269.999999958363901
  0
ARC
  5
DAEA
  8
0
 10
3588.3558730045538141
 20
173.2842375900758896
 30
0.0
 40
4.4999999815800384
 50
327.6006958312698885
 51
0.0000000681357253
  0
LINE
  5
DAEB
  8
0
 10
3592.8558729861351821
 20
173.2842375954271859
 30
0.0
 11
3592.8560724806839062
 21
173.6189514213272957
 31
0.0
  0
ARC
  5
DAEC
  8
0
 10
3592.900732673983839
 20
173.6192901637930106
 30
0.0
 40
0.0446614779428262
 50
89.8199945992662094
 51
180.4345736105391893
  0
LINE
  5
DAED
  8
0
 10
3592.8533738691348844
 20
173.6639514213273117
 30
0.0
 11
3592.8533738691348844
 21
173.6819514213273123
 31
0.0
  0
ARC
  5
DAEE
  8
0
 10
3592.9007326747100706
 20
173.7266126795840933
 30
0.0
 40
0.0446614786631659
 50
179.5654273235354026
 51
270.180004466627679
  0
LINE
  5
DAEF
  8
0
 10
3592.8560724806839062
 20
173.7269514213272998
 30
0.0
 11
3592.8560724806839062
 21
174.0262014207179959
 31
0.0
  0
ARC
  5
DAF0
  8
0
 10
3592.5564840245087908
 20
174.1269514209726879
 30
0.0
 40
0.3160756327608274
 50
341.4124823260106041
 51
18.5875176739894705
  0
LINE
  5
DAF1
  8
0
 10
3592.8560724806839062
 20
174.2277014212272945
 30
0.0
 11
3592.8560724806839062
 21
174.2444514213273123
 31
0.0
  0
ARC
  5
DAF2
  8
0
 10
3593.1682320308391354
 20
174.2447917175121006
 30
0.0
 40
0.3121597356392789
 50
89.9741281694811761
 51
180.0624601343793927
  0
ARC
  5
DAF3
  8
0
 10
3592.8563289660451119
 20
175.317544192822794
 30
0.0
 40
1.099424317282516
 50
241.6844896999504897
 51
270.1373276348451782
  0
ARC
  5
DAF4
  8
0
 10
3592.3158708044820742
 20
174.3144550745554966
 30
0.0
 40
0.0399978185330488
 50
61.6844896999504897
 51
180.0055180682084028
  0
LINE
  5
DAF5
  8
0
 10
3592.2758729861338907
 20
174.3144512224272091
 30
0.0
 11
3592.2758729861338907
 21
173.9444880755272891
 31
0.0
  0
ARC
  5
DAF6
  8
0
 10
3592.3158626832178015
 20
173.9394334811397869
 30
0.0
 40
0.0399890955891149
 50
181.9276410685326084
 51
298.3354635877973919
  0
ARC
  5
DAF7
  8
0
 10
3592.8563440631628509
 20
172.9362412152553077
 30
0.0
 40
1.0995348624640531
 50
89.8635817203196865
 51
118.3133002695381037
  0
ARC
  5
DAF8
  8
0
 10
3591.8358729861829488
 20
174.1269514213271918
 30
0.0
 40
0.0600000000477209
 50
135.2883010838077098
 51
224.7116989161922902
  0
ARC
  5
DAF9
  8
0
 10
3592.2373935328268999
 20
173.7294514227106959
 30
0.0
 40
0.6249999985240856
 50
90.6441808998080347
 51
135.2883010838077098
  0
ARC
  5
DAFA
  8
0
 10
3592.2308726980800202
 20
174.3094136155729075
 30
0.0
 40
0.045001148149831
 50
0.2394677932532372
 51
90.6441808998080347
  0
ARC
  5
DAFB
  8
0
 10
3592.2373935335858732
 20
174.5244514213989078
 30
0.0
 40
0.625000000087532
 50
224.7116989619987919
 51
269.3558190321577968
  0
ARC
  5
DAFC
  8
0
 10
3592.2308745596969857
 20
173.9444970671897863
 30
0.0
 40
0.0450090088273557
 50
269.3535616480185126
 51
358.6189320779625973
  0
ARC
  5
DAFD
  8
0
 10
3592.7235116461502002
 20
173.942913111636301
 30
0.0
 40
0.4476414306694995
 50
179.7984123813623967
 51
180.6175558317657135
  0
LINE
  5
DAFE
  8
0
 10
3592.3348428314338889
 20
174.3496671134161033
 30
0.0
 11
3592.3348428314338889
 21
173.9042357292269116
 31
0.0
  0
LINE
  5
DAFF
  8
0
 10
3587.8960651835350291
 20
175.1691551398268984
 30
0.0
 11
3588.4774975551349598
 21
174.8632087875272987
 31
0.0
  0
LINE
  5
DB00
  8
0
 10
3588.4827344631348751
 20
174.8638007603273081
 30
0.0
 11
3588.5188664635370515
 21
174.8948261234735924
 31
0.0
  0
LINE
  5
DB01
  8
0
 10
3588.5345449343349173
 20
174.8865762025272943
 30
0.0
 11
3587.8830173806341008
 21
175.2294062344273016
 31
0.0
  0
LINE
  5
DB02
  8
0
 10
3587.8830173806341008
 20
175.2294062344273016
 30
0.0
 11
3587.9096481241349466
 21
175.2800163373273108
 31
0.0
  0
LINE
  5
DB03
  8
0
 10
3587.8522231127349187
 20
175.310233046327312
 30
0.0
 11
3588.6186006893349258
 21
174.9069695964273023
 31
0.0
  0
LINE
  5
DB04
  8
0
 10
3588.6186006893349258
 20
174.9069695964273023
 30
0.0
 11
3588.6903126654378866
 21
175.0432538306251047
 31
0.0
  0
LINE
  5
DB05
  8
0
 10
3588.6903126654378866
 20
175.0432538306251047
 30
0.0
 11
3588.7243837239170716
 21
175.0253258365939928
 31
0.0
  0
LINE
  5
DB06
  8
0
 10
3588.7243837239170716
 20
175.0253258365939928
 30
0.0
 11
3588.7524297872341776
 21
175.0786256682272892
 31
0.0
  0
LINE
  5
DB07
  8
0
 10
3588.8294011896050506
 20
175.038123761295509
 30
0.0
 11
3587.8257367605037871
 21
175.5662461810962895
 31
0.0
  0
LINE
  5
DB08
  8
0
 10
3587.917910093447972
 20
175.5177451062531873
 30
0.0
 11
3587.8898640301667911
 21
175.4644452745627916
 31
0.0
  0
LINE
  5
DB09
  8
0
 10
3587.8898640301667911
 20
175.4644452745627916
 30
0.0
 11
3587.923935088745111
 21
175.4465172805477948
 31
0.0
  0
LINE
  5
DB0A
  8
0
 10
3587.923935088745111
 20
175.4465172805477948
 30
0.0
 11
3587.8522231127349187
 21
175.310233046327312
 31
0.0
  0
LINE
  5
DB0B
  8
0
 10
3587.8986958511409284
 20
175.221156313892692
 30
0.0
 11
3587.893587327439036
 21
175.1738065768676904
 31
0.0
  0
ARC
  5
DB0C
  8
0
 10
3587.8982481451130298
 20
175.1733037251295002
 30
0.0
 40
0.0046878653206809
 50
173.8422246582603066
 51
242.2469144610801948
  0
ARC
  5
DB0D
  8
0
 10
3587.8404032859339168
 20
175.5941190176272926
 30
0.0
 40
0.0314960629999998
 50
147.4148355704400899
 51
242.2469142281960899
  0
ARC
  5
DB0E
  8
0
 10
3590.2103594065119978
 20
174.0162151324794024
 30
0.0
 40
2.9519361314096022
 50
83.7819301756809836
 51
90.3418420296002722
  0
ARC
  5
DB0F
  8
0
 10
3590.2337553827028387
 20
174.1325845384849913
 30
0.0
 40
2.8358107043392939
 50
90.828568154101049
 51
148.5760401295106021
  0
ARC
  5
DB10
  8
0
 10
3590.0077796675800528
 20
173.2856443171947092
 30
0.0
 40
3.702170111717503
 50
59.1931660067251215
 51
81.8894930725703034
  0
ARC
  5
DB11
  8
0
 10
3589.683875234694824
 20
173.2957558139707999
 30
0.0
 40
3.8697612843557478
 50
28.8213341996139505
 51
54.9936804168268409
  0
ARC
  5
DB12
  8
0
 10
3588.0890329013468545
 20
172.4188543333052905
 30
0.0
 40
5.6897827288782343
 50
20.9112467721522002
 51
28.8156525659636387
  0
ARC
  5
DB13
  8
0
 10
3590.9247076398278296
 20
175.8955184863345096
 30
0.0
 40
2.0978875161679542
 50
356.4077928643533255
 51
15.5651345070919405
  0
ARC
  5
DB14
  8
0
 10
3592.9808693329500784
 20
176.4774243685797046
 30
0.0
 40
0.0399978185330488
 50
89.9944819317866518
 51
208.3155103000557062
  0
LINE
  5
DB15
  8
0
 10
3592.9808731850789627
 20
176.5174221869272912
 30
0.0
 11
3593.3508363319779164
 21
176.5174221869272912
 31
0.0
  0
ARC
  5
DB16
  8
0
 10
3593.3558909263661008
 20
176.4774324898436078
 30
0.0
 40
0.0399890955891149
 50
331.6645364122072124
 51
88.0723589314788313
  0
ARC
  5
DB17
  8
0
 10
3595.411900170834997
 20
175.8955329747140013
 30
0.0
 40
2.0977505338079032
 50
164.4342341154471114
 51
183.5928385131072105
  0
ARC
  5
DB18
  8
0
 10
3593.1683729861779284
 20
176.9560719304440966
 30
0.0
 40
0.0600000000477209
 50
45.288301083810083
 51
134.7116989161899028
  0
ARC
  5
DB19
  8
0
 10
3593.5627266100241286
 20
176.5558650206517086
 30
0.0
 40
0.6218542384868828
 50
134.5908340944608028
 51
179.3491860236167952
  0
ARC
  5
DB1A
  8
0
 10
3592.985910791932838
 20
176.5624224749820996
 30
0.0
 40
0.045001148149831
 50
179.3558191001837088
 51
269.7605322067403222
  0
ARC
  5
DB1B
  8
0
 10
3592.7740193608869959
 20
176.5558650198939006
 30
0.0
 40
0.6218542400423619
 50
0.6508140445800829
 51
45.409165859599419
  0
ARC
  5
DB1C
  8
0
 10
3593.3508273403158455
 20
176.5624206133645089
 30
0.0
 40
0.0450090088273557
 50
271.3810679220438828
 51
0.6464383519848882
  0
ARC
  5
DB1D
  8
0
 10
3593.3524112958698424
 20
176.0697835269116069
 30
0.0
 40
0.4476414306694995
 50
89.3824441682359776
 51
90.2015876186473804
  0
LINE
  5
DB1E
  8
0
 10
3592.9456572940898695
 20
176.458452341627293
 30
0.0
 11
3593.3910886782791749
 21
176.458452341627293
 31
0.0
  0
ARC
  5
DB1F
  8
0
 10
3593.0633729861378924
 20
175.761072018833886
 30
0.0
 40
0.0450000000066073
 50
176.1726039759824118
 51
269.9999999956227157
  0
LINE
  5
DB20
  8
0
 10
3593.0633729861337997
 20
175.7160720188273046
 30
0.0
 11
3593.2733729861352003
 21
175.7160720188111895
 31
0.0
  0
ARC
  5
DB21
  8
0
 10
3593.2733729861379288
 20
175.7610720188687026
 30
0.0
 40
0.0450000000574971
 50
269.9999999956227157
 51
3.8273960200338748
  0
LINE
  5
DB22
  8
0
 10
3593.0742784979352109
 20
175.7160720188263952
 30
0.0
 11
3593.0742784979352109
 21
175.1612900834271898
 31
0.0
  0
LINE
  5
DB23
  8
0
 10
3593.2624674743337891
 20
175.7160720188120138
 30
0.0
 11
3593.2624674743337891
 21
174.7872297724744897
 31
0.0
  0
ARC
  5
DB24
  8
0
 10
3588.8440677150338161
 20
175.0659965978273078
 30
0.0
 40
0.0314960629999991
 50
242.2469142316085993
 51
345.8140257844036114
  0
ARC
  5
DB25
  8
0
 10
3590.2685522766669237
 20
174.7059176025665863
 30
0.0
 40
1.437793952332759
 50
153.5745120551424066
 51
165.8140257844034977
  0
ARC
  5
DB26
  8
0
 10
3590.1585660363721217
 20
174.7119059583052092
 30
0.0
 40
1.337345147029938
 50
125.610805562590798
 51
151.7068760021105049
  0
ARC
  5
DB27
  8
0
 10
3590.2086964101690683
 20
174.5471173624372909
 30
0.0
 40
1.501521396867266
 50
89.9327354644102428
 51
123.5040988451282971
  0
ARC
  5
DB28
  8
0
 10
3590.2253718324209331
 20
174.2241945172011981
 30
0.0
 40
1.8245041529689461
 50
62.1167736702268698
 51
90.4683144803170762
  0
ARC
  5
DB29
  8
0
 10
3590.1333248591631673
 20
174.0688234555892109
 30
0.0
 40
2.0049036092309822
 50
34.8703103740065998
 51
61.8682027859302224
  0
ARC
  5
DB2A
  8
0
 10
3589.7589395886980128
 20
173.7986681328856946
 30
0.0
 40
2.4665324885626418
 50
12.9166018161608793
 51
35.0469602795534811
  0
ARC
  5
DB2B
  8
0
 10
3585.2510192589079452
 20
173.0407227345988872
 30
0.0
 40
7.0453790896132471
 50
2.1778109551949831
 51
7.0140108402502417
  0
ARC
  5
DB2C
  8
0
 10
3573.78336791003494
 20
172.6046275943510864
 30
0.0
 40
18.5213194184343486
 50
359.7863927382397833
 51
2.1778109551949831
  0
ARC
  5
DB2D
  8
0
 10
3581.523242335184932
 20
172.5757720476393047
 30
0.0
 40
10.7813912043184406
 50
356.4226512437106749
 51
359.7863927382397833
  0
ARC
  5
DB2E
  8
0
 10
3944.5297537721048684
 20
155.0537731976463931
 30
0.0
 40
352.6488807415171891
 50
177.2614104873655094
 51
177.4056075921589866
  0
ARC
  5
DB2F
  8
0
 10
3584.3283201463691512
 20
171.0864441183763063
 30
0.0
 40
9.6791779322608935
 50
11.9327477219157601
 51
17.7284550358255899
  0
ARC
  5
DB30
  8
0
 10
3576.8280575551348193
 20
169.5014131600248106
 30
0.0
 40
17.3450935381359983
 50
7.6304492098705943
 51
11.9327477219157601
  0
ARC
  5
DB31
  8
0
 10
3584.0678778344440616
 20
170.4713277279340957
 30
0.0
 40
10.0405927375522506
 50
3.1167703863548311
 51
7.6304492098705943
  0
LINE
  5
DB33
  8
0
 10
3588.5611756778348536
 20
174.9371863054271898
 30
0.0
 11
3588.5345449343039945
 21
174.8865762025436084
 31
0.0
  0
ARC
  5
DB34
  8
0
 10
3588.4796805898768071
 20
174.8673575655668913
 30
0.0
 40
0.0046880699555337
 50
242.2472200550234049
 51
269.9991060848964821
  0
ARC
  5
DB35
  8
0
 10
3588.4796804674811028
 20
174.867357456413913
 30
0.0
 40
0.0046879608022191
 50
270.0006019647454991
 51
310.6513949581218981
  0
LINE
  5
DB36
  8
0
 10
3592.1933729861671054
 20
170.8039514212800043
 30
0.0
 11
3594.1433729861018946
 21
170.8039514212800043
 31
0.0
  0
ENDSEC
  0
EOF
