  0
SECTION
  2
HEADER
  9
$ACADVER
  1
AC1009
  9
$INSBASE
 10
442.9591605368257206
 20
42.7024037008808506
 30
0.0
  9
$EXTMIN
 10
435.7233179385565904
 20
37.2570228859245987
 30
-0.0000000349181948
  9
$EXTMAX
 10
450.2181177965935035
 20
43.8155103727837911
 30
0.0000000814935746
  9
$LIMMIN
 10
0.0
 20
0.0
  9
$LIMMAX
 10
11.6929133858000007
 20
8.2677165353999982
  9
$ORTHOMODE
 70
     0
  9
$REGENMODE
 70
     1
  9
$FILLMODE
 70
     1
  9
$QTEXTMODE
 70
     0
  9
$MIRRTEXT
 70
     0
  9
$DRAGMODE
 70
     2
  9
$LTSCALE
 40
0.6431102362
  9
$OSMODE
 70
  4095
  9
$ATTMODE
 70
     1
  9
$TEXTSIZE
 40
0.2
  9
$TRACEWID
 40
0.05
  9
$TEXTSTYLE
  7
STANDARD
  9
$CLAYER
  8
0
  9
$CELTYPE
  6
BYLAYER
  9
$CECOLOR
 62
   256
  9
$DIMSCALE
 40
1.0
  9
$DIMASZ
 40
0.1875
  9
$DIMEXO
 40
0.0625
  9
$DIMDLI
 40
0.4443307087
  9
$DIMRND
 40
0.0
  9
$DIMDLE
 40
0.0
  9
$DIMEXE
 40
0.125
  9
$DIMTP
 40
0.01
  9
$DIMTM
 40
0.01
  9
$DIMTXT
 40
1.0
  9
$DIMCEN
 40
0.1052362205
  9
$DIMTSZ
 40
0.0
  9
$DIMTOL
 70
     1
  9
$DIMLIM
 70
     0
  9
$DIMTIH
 70
     0
  9
$DIMTOH
 70
     1
  9
$DIMSE1
 70
     0
  9
$DIMSE2
 70
     0
  9
$DIMTAD
 70
     0
  9
$DIMZIN
 70
     0
  9
$DIMBLK
  1

  9
$DIMASO
 70
     1
  9
$DIMSHO
 70
     1
  9
$DIMPOST
  1
\X
  9
$DIMAPOST
  1

  9
$DIMALT
 70
     1
  9
$DIMALTD
 70
     2
  9
$DIMALTF
 40
25.3999999999999986
  9
$DIMLFAC
 40
1.0
  9
$DIMTOFL
 70
     0
  9
$DIMTVP
 40
0.0
  9
$DIMTIX
 70
     0
  9
$DIMSOXD
 70
     0
  9
$DIMSAH
 70
     0
  9
$DIMBLK1
  1

  9
$DIMBLK2
  1

  9
$DIMSTYLE
  2
STANDARD
  9
$DIMCLRD
 70
     0
  9
$DIMCLRE
 70
     0
  9
$DIMCLRT
 70
     0
  9
$DIMTFAC
 40
1.0
  9
$DIMGAP
 40
0.09
  9
$LUNITS
 70
     2
  9
$LUPREC
 70
     4
  9
$SKETCHINC
 40
0.1
  9
$FILLETRAD
 40
0.0
  9
$AUNITS
 70
     0
  9
$AUPREC
 70
     0
  9
$MENU
  1
.
  9
$ELEVATION
 40
0.0
  9
$PELEVATION
 40
0.0
  9
$THICKNESS
 40
0.0
  9
$LIMCHECK
 70
     0
  9
$BLIPMODE
 70
     0
  9
$CHAMFERA
 40
0.0
  9
$CHAMFERB
 40
0.0
  9
$SKPOLY
 70
     0
  9
$TDCREATE
 40
2458172.5207638889551163
  9
$TDUPDATE
 40
2459061.7519212961196899
  9
$TDINDWG
 40
0.1489326852
  9
$TDUSRTIMER
 40
0.1489326852
  9
$USRTIMER
 70
     1
  9
$ANGBASE
 50
0.0
  9
$ANGDIR
 70
     0
  9
$PDMODE
 70
     0
  9
$PDSIZE
 40
0.3125
  9
$PLINEWID
 40
0.0
  9
$COORDS
 70
     1
  9
$SPLFRAME
 70
     0
  9
$SPLINETYPE
 70
     6
  9
$SPLINESEGS
 70
     8
  9
$ATTDIA
 70
     1
  9
$ATTREQ
 70
     1
  9
$HANDLING
 70
     1
  9
$HANDSEED
  5
89F9
  9
$SURFTAB1
 70
     6
  9
$SURFTAB2
 70
     6
  9
$SURFTYPE
 70
     6
  9
$SURFU
 70
     6
  9
$SURFV
 70
     6
  9
$UCSNAME
  2

  9
$UCSORG
 10
0.0
 20
0.0
 30
0.0
  9
$UCSXDIR
 10
1.0
 20
0.0
 30
0.0
  9
$UCSYDIR
 10
0.0
 20
1.0
 30
0.0
  9
$PUCSNAME
  2

  9
$PUCSORG
 10
0.0
 20
0.0
 30
0.0
  9
$PUCSXDIR
 10
1.0
 20
0.0
 30
0.0
  9
$PUCSYDIR
 10
0.0
 20
1.0
 30
0.0
  9
$USERI1
 70
     0
  9
$USERI2
 70
     0
  9
$USERI3
 70
     0
  9
$USERI4
 70
     0
  9
$USERI5
 70
     0
  9
$USERR1
 40
0.0
  9
$USERR2
 40
0.0
  9
$USERR3
 40
0.0
  9
$USERR4
 40
0.0
  9
$USERR5
 40
0.0
  9
$WORLDVIEW
 70
     1
  9
$SHADEDGE
 70
     3
  9
$SHADEDIF
 70
    70
  9
$TILEMODE
 70
     1
  9
$MAXACTVP
 70
    64
  9
$PLIMCHECK
 70
     0
  9
$PEXTMIN
 10
1.0000000000000000E+20
 20
1.0000000000000000E+20
 30
1.0000000000000000E+20
  9
$PEXTMAX
 10
-1.0000000000000000E+20
 20
-1.0000000000000000E+20
 30
-1.0000000000000000E+20
  9
$PLIMMIN
 10
0.0
 20
0.0
  9
$PLIMMAX
 10
12.0
 20
9.0
  9
$UNITMODE
 70
     0
  9
$VISRETAIN
 70
     1
  9
$PLINEGEN
 70
     0
  9
$PSLTSCALE
 70
     1
  0
ENDSEC
  0
SECTION
  2
TABLES
  0
TABLE
  2
VPORT
 70
     1
  0
VPORT
  2
*ACTIVE
 70
     0
 10
0.0
 20
0.0
 11
1.0
 21
1.0
 12
69.1495813929657146
 22
-1.3501815029092721
 13
0.0
 23
0.0
 14
1.0
 24
1.0
 15
0.0
 25
0.0
 16
0.0
 26
0.0
 36
25.5757211105568096
 17
373.821136474609375
 27
41.8864481322634603
 37
0.0
 40
7.2699914634213556
 41
2.005224660397074
 42
50.0
 43
0.0
 44
0.0
 50
0.0
 51
0.0
 71
     0
 72
   100
 73
     1
 74
     1
 75
     0
 76
     0
 77
     0
 78
     0
  0
ENDTAB
  0
TABLE
  2
LTYPE
 70
     2
  0
LTYPE
  2
CONTINUOUS
 70
     0
  3
Solid line
 72
    65
 73
     0
 40
0.0
  0
LTYPE
  2
PHANTOM2
 70
     0
  3
___ _ _ ___ _ _ ___ _ _ ___ _ _
 72
    65
 73
     6
 40
1.25
 49
0.625
 49
-0.125
 49
0.125
 49
-0.125
 49
0.125
 49
-0.125
  0
ENDTAB
  0
TABLE
  2
LAYER
 70
     2
  0
LAYER
  2
0
 70
     0
 62
   255
  6
CONTINUOUS
  0
LAYER
  2
DEFPOINTS
 70
     0
 62
     7
  6
CONTINUOUS
  0
ENDTAB
  0
TABLE
  2
STYLE
 70
     1
  0
STYLE
  2
STANDARD
 70
     0
 40
0.0
 41
0.8
 50
0.0
 71
     0
 42
0.2
  3
txt
  4

  0
ENDTAB
  0
TABLE
  2
VIEW
 70
     0
  0
ENDTAB
  0
TABLE
  2
UCS
 70
     0
  0
ENDTAB
  0
TABLE
  2
APPID
 70
    10
  0
APPID
  2
ACAD
 70
     0
  0
APPID
  2
ACAD_MLEADERVER
 70
     0
  0
APPID
  2
ACAD_EXEMPT_FROM_CAD_STANDARDS
 70
     0
  0
APPID
  2
ACAD_DSTYLE_DIMJAG
 70
     0
  0
APPID
  2
ACAD_DSTYLE_DIMTALN
 70
     0
  0
APPID
  2
ACAD_NAV_VCDISPLAY
 70
     0
  0
APPID
  2
ACAECLAYERSTANDARD
 70
     0
  0
APPID
  2
ACCMTRANSPARENCY
 70
     0
  0
APPID
  2
DCO15
 70
     0
  0
APPID
  2
ACDBATTR
 70
     0
  0
ENDTAB
  0
TABLE
  2
DIMSTYLE
 70
     1
  0
DIMSTYLE
  2
STANDARD
 70
     0
  3

  4

  5

  6

  7

 40
1.0
 41
0.1875
 42
0.0625
 43
0.38
 44
0.125
 45
0.0
 46
0.0
 47
0.01
 48
0.01
140
0.15625
141
0.09
142
0.0
143
25.3999999999999986
144
1.0
145
0.0
146
1.0
147
0.09
 71
     1
 72
     0
 73
     1
 74
     1
 75
     0
 76
     0
 77
     0
 78
     4
170
     0
171
     2
172
     0
173
     0
174
     0
175
     0
176
     0
177
     0
178
     0
  0
ENDTAB
  0
ENDSEC
  0
SECTION
  2
BLOCKS
  0
BLOCK
  8
0
  2
$MODEL_SPACE
 70
     0
 10
0.0
 20
0.0
 30
0.0
  3
$MODEL_SPACE
  1

  0
ENDBLK
  5
21
  8
0
  0
BLOCK
 67
     1
  8
0
  2
$PAPER_SPACE
 70
     0
 10
0.0
 20
0.0
 30
0.0
  3
$PAPER_SPACE
  1

  0
ENDBLK
  5
1D
 67
     1
  8
0
  0
ENDSEC
  0
SECTION
  2
ENTITIES
  0
ATTDEF
  5
829
  8
DEFPOINTS
 10
442.9558678929429902
 20
42.7073267856975889
 30
0.0
 40
0.001
  1
K-8670T-4M
  3

  2
MODELNUMBER
 70
     0
1001
ACDBATTR
1070
     0
1070
     1
  0
ATTDEF
  5
82A
  8
DEFPOINTS
 10
442.9558678929429902
 20
42.7056601190309166
 30
0.0
 40
0.001
  1
FINIAL
  3

  2
TRADENAME
 70
     0
1001
ACDBATTR
1070
     0
1070
     1
  0
ATTDEF
  5
82B
  8
DEFPOINTS
 10
442.9558678929429902
 20
42.7039934523642586
 30
0.0
 40
0.001
  1
BATHROOM SINK FAUCET
  3

  2
PRODUCT
 70
     0
1001
ACDBATTR
1070
     0
1070
     1
  0
CIRCLE
  5
88A7
  8
0
 10
442.9591605368257206
 20
42.7024037008808506
 30
0.0
 40
0.281
  0
CIRCLE
  5
88A8
  8
0
 10
442.9591605368257206
 20
42.7024037008808506
 30
0.0
 40
0.2575
  0
CIRCLE
  5
88A9
  8
0
 10
442.9591605368257206
 20
42.7024037008808506
 30
0.0
 40
0.2195
  0
CIRCLE
  5
88AA
  8
0
 10
442.9591605368257206
 20
42.7024037008808506
 30
0.0
 40
0.1315927135
  0
ARC
  5
88AB
  8
0
 10
446.9591605368257206
 20
42.7024037008808506
 30
0.0
 40
0.8835
 50
11.6094893906003591
 51
348.3905106093995983
  0
LINE
  5
88AC
  8
0
 10
446.5722798463257277
 20
42.580503700930862
 30
0.0
 11
446.62092984632568
 21
42.580503700930862
 31
0.0
  0
LINE
  5
88AD
  8
0
 10
446.62092984632568
 20
42.824303700930848
 30
0.0
 11
446.5722798463257277
 21
42.824303700930848
 31
0.0
  0
LINE
  5
88AE
  8
0
 10
446.62092984632568
 20
42.5524037009179992
 30
0.0
 11
446.62092984632568
 21
42.852403700943718
 31
0.0
  0
LINE
  5
88AF
  8
0
 10
447.2975758393257024
 20
42.8519867314985206
 30
0.0
 11
447.2975758393257024
 21
42.5528206703631966
 31
0.0
  0
LINE
  5
88B0
  8
0
 10
447.4081327504256933
 20
42.4667690406308509
 30
0.0
 11
447.4081327504256933
 21
42.9380383611308503
 31
0.0
  0
LINE
  5
88B1
  8
0
 10
447.4782008393257229
 20
42.4784037009308619
 30
0.0
 11
447.4782008393257229
 21
42.9264037009308623
 31
0.0
  0
LINE
  5
88B2
  8
0
 10
447.5337873197257181
 20
42.4881613673308465
 30
0.0
 11
447.5337873197257181
 21
42.9166460344308476
 31
0.0
  0
LINE
  5
88B3
  8
0
 10
449.7962008393257065
 20
42.9104037009308499
 30
0.0
 11
449.7962008393257065
 21
42.4944037009308531
 31
0.0
  0
LINE
  5
88B4
  8
0
 10
449.8673805984257115
 20
42.4802352831308596
 30
0.0
 11
449.8673805984257115
 21
42.9245721186308629
 31
0.0
  0
LINE
  5
88B5
  8
0
 10
450.0363869931256886
 20
42.5987128334474008
 30
0.0
 11
450.0363869931256886
 21
42.8060945684143377
 31
0.0
  0
LINE
  5
88B6
  8
0
 10
450.1210451497256031
 20
42.8237370116308469
 30
0.0
 11
450.1210451497256031
 21
42.5810703901308472
 31
0.0
  0
ARC
  5
88B7
  8
0
 10
446.7468616509257231
 20
34.5997073686308596
 30
0.0
 40
8.0
 50
76.0436292314327034
 51
81.2416259857988194
  0
ARC
  5
88B8
  8
0
 10
447.5082008393256956
 20
39.5414037009308572
 30
0.0
 40
3.0
 50
81.2416259857988194
 51
86.4008592399001856
  0
ARC
  5
88B9
  8
0
 10
446.0925174280257011
 20
42.4237371484308525
 30
0.0
 40
0.28
 50
26.4080856405182907
 51
57.6124244586197776
  0
ARC
  5
88BA
  8
0
 10
447.6808336088257079
 20
42.2859797933308599
 30
0.0
 40
0.25
 50
86.4008592399001856
 51
126.0283268725000028
  0
ARC
  5
88BB
  8
0
 10
447.2377923059257228
 20
42.4085957392308615
 30
0.0
 40
0.18
 50
18.8556504226001387
 51
70.601846067974833
  0
ARC
  5
88BC
  8
0
 10
446.5722798463257277
 20
42.4205037009308512
 30
0.0
 40
0.16
 50
90.0
 51
136.3010180307651069
  0
ARC
  5
88BD
  8
0
 10
446.4059945794256805
 20
42.5794037009308468
 30
0.0
 40
0.07
 50
206.4080856405182942
 51
316.3010180307618953
  0
ARC
  5
88BE
  8
0
 10
447.4422008393257215
 20
42.4784037009308619
 30
0.0
 40
0.036
 50
198.8556504225001902
 51
0.0
  0
ARC
  5
88BF
  8
0
 10
447.513200839325691
 20
42.5164667877308631
 30
0.0
 40
0.035
 50
180.0
 51
306.028326872600303
  0
ARC
  5
88C0
  8
0
 10
449.0598209373256964
 20
41.4982037009308584
 30
0.0
 40
1.5900000000000001
 50
62.851854202998851
 51
103.9560084995483038
  0
ARC
  5
88C1
  8
0
 10
450.1075626900258158
 20
42.3806734284308604
 30
0.0
 40
0.26
 50
118.0095601896723991
 51
157.4846948398740949
  0
ARC
  5
88C2
  8
0
 10
450.0886174131256894
 20
42.6374037009308609
 30
0.0
 40
0.065
 50
216.5296072470873128
 51
299.9264747814993939
  0
ARC
  5
88C3
  8
0
 10
450.0042447280256965
 20
42.5749037009308609
 30
0.0
 40
0.04
 50
36.5296072470899205
 51
118.0066269563749017
  0
ARC
  5
88C4
  8
0
 10
449.8332008393256842
 20
42.4944037009308531
 30
0.0
 40
0.037
 50
180.0
 51
337.4846948398765107
  0
ARC
  5
88C5
  8
0
 10
449.7762008393257247
 20
42.5095711901308633
 30
0.0
 40
0.02
 50
297.148154597699488
 51
0.0
  0
ARC
  5
88C6
  8
0
 10
446.0925174280257011
 20
42.9810702533308486
 30
0.0
 40
0.28
 50
302.388095561137618
 51
333.591914374143073
  0
ARC
  5
88C7
  8
0
 10
446.4059945794256805
 20
42.825403700930849
 30
0.0
 40
0.07
 50
43.6989819692380479
 51
153.5919143741427888
  0
ARC
  5
88C8
  8
0
 10
446.2692798463256736
 20
42.7024037009308586
 30
0.0
 40
0.05
 50
122.3846634921274017
 51
237.6124244586119119
  0
ARC
  5
88C9
  8
0
 10
447.5082008393256956
 20
45.8634037009308528
 30
0.0
 40
3.0
 50
273.5991407600997718
 51
278.7583740142010811
  0
ARC
  5
88CA
  8
0
 10
449.0598209373256964
 20
43.9066037008308498
 30
0.0
 40
1.5900000000000001
 50
256.0430872544054068
 51
297.1481457970011775
  0
ARC
  5
88CB
  8
0
 10
446.9591605368257206
 20
42.7024037009308586
 30
0.0
 40
0.37
 50
23.8459196960426212
 51
156.0834655759643965
  0
ARC
  5
88CC
  8
0
 10
446.9591605368257206
 20
42.7024037009308586
 30
0.0
 40
0.37
 50
203.9165344240352056
 51
270.0
  0
ARC
  5
88CD
  8
0
 10
446.9591605368257206
 20
42.7024037009308586
 30
0.0
 40
0.37
 50
270.0
 51
336.1540803039582102
  0
ARC
  5
88CE
  8
0
 10
450.1075626900258158
 20
43.0241339733308621
 30
0.0
 40
0.26
 50
202.5153051423042996
 51
241.9899064829519943
  0
ARC
  5
88CF
  8
0
 10
447.6808336088257079
 20
43.1188276085308573
 30
0.0
 40
0.25
 50
233.9716731274999972
 51
273.5991407600997718
  0
ARC
  5
88D0
  8
0
 10
447.2377923059257228
 20
42.9962116625308468
 30
0.0
 40
0.18
 50
289.3981539320251954
 51
341.1443495773997938
  0
ARC
  5
88D1
  8
0
 10
446.5722798463257277
 20
42.9843037009308517
 30
0.0
 40
0.16
 50
223.6989819692348931
 51
270.0
  0
ARC
  5
88D2
  8
0
 10
450.0512008393417887
 20
42.7024037009011721
 30
0.0
 40
0.1399999999838674
 50
299.926453364396707
 51
60.0735466372870093
  0
ARC
  5
88D3
  8
0
 10
450.0886174131256894
 20
42.7674037009308634
 30
0.0
 40
0.065
 50
60.0735252185005777
 51
143.4703927529122893
  0
ARC
  5
88D4
  8
0
 10
450.0042447280256965
 20
42.8299037009308492
 30
0.0
 40
0.04
 50
241.9899064829556892
 51
323.4703927529100724
  0
ARC
  5
88D5
  8
0
 10
449.8332008393256842
 20
42.9104037009308499
 30
0.0
 40
0.037
 50
22.5153051423031414
 51
180.0
  0
ARC
  5
88D6
  8
0
 10
447.4422008393257215
 20
42.9264037009308623
 30
0.0
 40
0.036
 50
0.0
 51
161.1443495774998098
  0
ARC
  5
88D7
  8
0
 10
447.513200839325691
 20
42.888340614130847
 30
0.0
 40
0.035
 50
53.9716731273996899
 51
180.0
  0
ARC
  5
88D8
  8
0
 10
449.7762008393257247
 20
42.8952362116308592
 30
0.0
 40
0.02
 50
0.0
 51
62.8518454023005404
  0
ARC
  5
88D9
  8
0
 10
446.7468616509257231
 20
50.8051000331308629
 30
0.0
 40
8.0
 50
278.7583740142010811
 51
283.9565504874664725
  0
LINE
  5
88DA
  8
0
 10
446.3432991491599751
 20
42.5482703903579775
 30
0.0
 11
446.3432991491599751
 21
42.8565370114488218
 31
0.0
  0
LINE
  5
88DB
  8
0
 10
446.4566031389039154
 20
42.5310428313781728
 30
0.0
 11
446.4566031389039154
 21
42.8737645705212813
 31
0.0
  0
ARC
  5
88DC
  8
0
 10
446.9591605368257206
 20
42.7024037008808506
 30
0.0
 40
1.109999999999999
 50
10.8748690515478899
 51
349.1251309484521244
  0
ARC
  5
88DD
  8
0
 10
446.9591605368257206
 20
42.7024037008808506
 30
0.0
 40
1.0389632543832079
 50
10.99525906061114
 51
349.0047409393889097
  0
ARC
  5
88DE
  8
0
 10
446.9591605368257206
 20
42.7024037008808506
 30
0.0
 40
0.9487298334613196
 50
11.26577782179948
 51
348.7342221842059757
  0
ARC
  5
88DF
  8
0
 10
442.9639240792910755
 20
37.9533596007970075
 30
0.0
 40
0.694034057821776
 50
220.2310865272941101
 51
269.6067440514516989
  0
ARC
  5
88E0
  8
0
 10
442.8485155411975143
 20
37.828589992104817
 30
0.0
 40
0.5281807386250544
 50
139.7767687958767056
 51
179.7873148927106968
  0
ARC
  5
88E1
  8
0
 10
442.8487120038410012
 20
37.8325961310066035
 30
0.0
 40
0.5283775216773772
 50
180.2218096343532068
 51
218.3022642019332125
  0
ARC
  5
88E2
  8
0
 10
442.9591272129517847
 20
37.9973645702516833
 30
0.0
 40
0.6544266334192609
 50
246.2914624594315001
 51
270.0029175422208141
  0
ARC
  5
88E3
  8
0
 10
442.9261815781451901
 20
37.9223426946479307
 30
0.0
 40
0.5724894826760706
 50
204.3145780275391132
 51
246.2914624594286011
  0
ARC
  5
88E4
  8
0
 10
442.8269198176358827
 20
37.8774938833216268
 30
0.0
 40
0.4635660555505106
 50
147.7228055912358116
 51
204.3145780275391132
  0
ARC
  5
88E5
  8
0
 10
440.5341624151195106
 20
38.5849078812252131
 30
0.0
 40
1.9556599461746429
 50
346.3998686569552206
 51
359.692631976236612
  0
ARC
  5
88E6
  8
0
 10
430.5570678135035791
 20
38.713169509032987
 30
0.0
 40
11.9335330840797695
 50
359.3337988441767834
 51
5.6931062658121423
  0
ARC
  5
88E7
  8
0
 10
1826.6158073946169225
 20
173.9248021608347869
 30
0.0
 40
1390.6577557352090935
 50
185.4389741277354915
 51
185.5305965009540898
  0
ARC
  5
88E8
  8
0
 10
442.9586221681286133
 20
37.9977446332227231
 30
0.0
 40
0.6781198564510554
 50
247.8245367964603076
 51
270.0454879135526198
  0
ARC
  5
88E9
  8
0
 10
442.9307996579661904
 20
37.929484106442267
 30
0.0
 40
0.6044069567110867
 50
216.7564256397324982
 51
247.8245367964603076
  0
ARC
  5
88EA
  8
0
 10
442.8334541963345146
 20
37.8567757963470797
 30
0.0
 40
0.4829053630705513
 50
186.752594340835401
 51
216.7564256397324982
  0
ARC
  5
88EB
  8
0
 10
442.846560334679225
 20
37.8583276118030412
 30
0.0
 40
0.4961030520166111
 50
145.2923668185291888
 51
186.752594340835401
  0
ARC
  5
88EC
  8
0
 10
442.9591605368257206
 20
42.7024037008808506
 30
0.0
 40
1.109999999999999
 50
310.1352353282146055
 51
229.8647646717853092
  0
ARC
  5
88ED
  8
0
 10
442.9591605368257206
 20
42.7024037008808506
 30
0.0
 40
1.0379899937000019
 50
314.3540224411781878
 51
225.6459775588218122
  0
ARC
  5
88EE
  8
0
 10
442.9591605368257206
 20
42.7024037008808506
 30
0.0
 40
0.9475144140642202
 50
321.3491776120887948
 51
218.6508223879112052
  0
ARC
  5
88EF
  8
0
 10
442.9543969943603088
 20
37.9533596007970075
 30
0.0
 40
0.694034057821776
 50
270.3932559485481875
 51
319.7689134727057763
  0
ARC
  5
88F0
  8
0
 10
443.0698055324538132
 20
37.828589992104817
 30
0.0
 40
0.5281807386250544
 50
0.2126851072893311
 51
40.2232312041232802
  0
ARC
  5
88F1
  8
0
 10
443.0696090698103262
 20
37.8325961310066035
 30
0.0
 40
0.5283775216773772
 50
321.6977357980667875
 51
359.7781903656468216
  0
ARC
  5
88F2
  8
0
 10
442.9591938606995996
 20
37.9973645702516833
 30
0.0
 40
0.6544266334192609
 50
269.9970824577792996
 51
293.7085375405684999
  0
ARC
  5
88F3
  8
0
 10
442.9921394955060805
 20
37.9223426946479307
 30
0.0
 40
0.5724894826760706
 50
293.7085375405715126
 51
335.6854219724608015
  0
ARC
  5
88F4
  8
0
 10
443.0914012560153878
 20
37.8774938833216268
 30
0.0
 40
0.4635660555505106
 50
335.6854219724608015
 51
32.2771944087642098
  0
ARC
  5
88F5
  8
0
 10
445.3841586585318737
 20
38.5849078812252131
 30
0.0
 40
1.9556599461746429
 50
180.3073680237629901
 51
193.6001313430446942
  0
ARC
  5
88F6
  8
0
 10
455.3612532601476914
 20
38.713169509032987
 30
0.0
 40
11.9335330840797695
 50
174.3068937341878097
 51
180.6662011558231029
  0
ARC
  5
88F7
  8
0
 10
-940.697486320965254
 20
173.9248021608347869
 30
0.0
 40
1390.6577557352090935
 50
354.4694034990458249
 51
354.5610258722645085
  0
ARC
  5
88F8
  8
0
 10
442.9596989055228278
 20
37.9977446332227231
 30
0.0
 40
0.6781198564510554
 50
269.9545120864473802
 51
292.1754632035397208
  0
ARC
  5
88F9
  8
0
 10
442.9875214156850802
 20
37.929484106442267
 30
0.0
 40
0.6044069567110867
 50
292.1754632035397208
 51
323.2435743602674734
  0
ARC
  5
88FA
  8
0
 10
443.0848668773168129
 20
37.8567757963470797
 30
0.0
 40
0.4829053630705513
 50
323.2435743602674734
 51
353.247405659164599
  0
ARC
  5
88FB
  8
0
 10
443.0717607389722161
 20
37.8583276118030412
 30
0.0
 40
0.4961030520166111
 50
353.247405659164599
 51
34.707633181470797
  0
ARC
  5
88FC
  8
0
 10
438.9591605368257206
 20
42.7024037008808506
 30
0.0
 40
0.8835
 50
191.6094893906004017
 51
168.3905106093995983
  0
LINE
  5
88FD
  8
0
 10
439.3460412273257134
 20
42.580503700930862
 30
0.0
 11
439.2973912273257042
 21
42.580503700930862
 31
0.0
  0
LINE
  5
88FE
  8
0
 10
439.2973912273257042
 20
42.824303700930848
 30
0.0
 11
439.3460412273257134
 21
42.824303700930848
 31
0.0
  0
LINE
  5
88FF
  8
0
 10
439.2973912273257042
 20
42.5524037009179992
 30
0.0
 11
439.2973912273257042
 21
42.852403700943718
 31
0.0
  0
LINE
  5
8900
  8
0
 10
438.6207452343256818
 20
42.8519867314985206
 30
0.0
 11
438.6207452343256818
 21
42.5528206703631966
 31
0.0
  0
LINE
  5
8901
  8
0
 10
438.510188323225691
 20
42.4667690406308509
 30
0.0
 11
438.510188323225691
 21
42.9380383611308503
 31
0.0
  0
LINE
  5
8902
  8
0
 10
438.4401202343257182
 20
42.4784037009308619
 30
0.0
 11
438.4401202343257182
 21
42.9264037009308623
 31
0.0
  0
LINE
  5
8903
  8
0
 10
438.3845337539256093
 20
42.4881613673308465
 30
0.0
 11
438.3845337539256093
 21
42.9166460344308476
 31
0.0
  0
LINE
  5
8904
  8
0
 10
436.1221202343256778
 20
42.9104037009308499
 30
0.0
 11
436.1221202343256778
 21
42.4944037009308531
 31
0.0
  0
LINE
  5
8905
  8
0
 10
436.0509404752256728
 20
42.4802352831308596
 30
0.0
 11
436.0509404752256728
 21
42.9245721186308629
 31
0.0
  0
LINE
  5
8906
  8
0
 10
435.8819340805256957
 20
42.5987128334474008
 30
0.0
 11
435.8819340805256957
 21
42.8060945684143377
 31
0.0
  0
LINE
  5
8907
  8
0
 10
435.7972759239257243
 20
42.8237370116308469
 30
0.0
 11
435.7972759239257243
 21
42.5810703901308472
 31
0.0
  0
ARC
  5
8908
  8
0
 10
439.171459422725718
 20
34.5997073686308596
 30
0.0
 40
8.0
 50
98.7583740142011948
 51
103.9563707685672966
  0
ARC
  5
8909
  8
0
 10
438.4101202343256887
 20
39.5414037009308572
 30
0.0
 40
3.0
 50
93.5991407600998144
 51
98.7583740142011948
  0
ARC
  5
890A
  8
0
 10
439.8258036456256832
 20
42.4237371484308525
 30
0.0
 40
0.28
 50
122.3875755413802011
 51
153.5919143594817058
  0
ARC
  5
890B
  8
0
 10
438.2374874648256764
 20
42.2859797933308599
 30
0.0
 40
0.25
 50
53.9716731275002601
 51
93.5991407600998144
  0
ARC
  5
890C
  8
0
 10
438.6805287677256047
 20
42.4085957392308615
 30
0.0
 40
0.18
 50
109.398153932025096
 51
161.1443495773997938
  0
ARC
  5
890D
  8
0
 10
439.3460412273257134
 20
42.4205037009308512
 30
0.0
 40
0.16
 50
43.6989819692349073
 51
90.0
  0
ARC
  5
890E
  8
0
 10
439.5123264942257038
 20
42.5794037009308468
 30
0.0
 40
0.07
 50
223.6989819692377921
 51
333.5919143594816774
  0
ARC
  5
890F
  8
0
 10
438.4761202343256059
 20
42.4784037009308619
 30
0.0
 40
0.036
 50
180.0
 51
341.1443495774997245
  0
ARC
  5
8910
  8
0
 10
438.4051202343256932
 20
42.5164667877308631
 30
0.0
 40
0.035
 50
233.971673127399697
 51
0.0
  0
ARC
  5
8911
  8
0
 10
436.8585001363256879
 20
41.4982037009308584
 30
0.0
 40
1.5900000000000001
 50
76.0439915004516394
 51
117.1481457970011064
  0
ARC
  5
8912
  8
0
 10
435.8107583836256822
 20
42.3806734284308604
 30
0.0
 40
0.26
 50
22.5153051601258696
 51
61.990439810327608
  0
ARC
  5
8913
  8
0
 10
435.8297036605256949
 20
42.6374037009308609
 30
0.0
 40
0.065
 50
240.0735252185006061
 51
323.4703927529126872
  0
ARC
  5
8914
  8
0
 10
435.9140763456256877
 20
42.5749037009308609
 30
0.0
 40
0.04
 50
61.9933730436250414
 51
143.4703927529101009
  0
ARC
  5
8915
  8
0
 10
436.0851202343257
 20
42.4944037009308531
 30
0.0
 40
0.037
 50
202.5153051601234893
 51
0.0
  0
ARC
  5
8916
  8
0
 10
436.1421202343257164
 20
42.5095711901308633
 30
0.0
 40
0.02
 50
180.0
 51
242.851845402300512
  0
ARC
  5
8917
  8
0
 10
439.8258036456256832
 20
42.9810702533308486
 30
0.0
 40
0.28
 50
206.4080856258568986
 51
237.6119044388624104
  0
ARC
  5
8918
  8
0
 10
439.5123264942257038
 20
42.825403700930849
 30
0.0
 40
0.07
 50
26.4080856258572183
 51
136.3010180307622079
  0
ARC
  5
8919
  8
0
 10
439.6490412273257107
 20
42.7024037009308586
 30
0.0
 40
0.05
 50
302.3875755413881166
 51
57.6153365078697774
  0
ARC
  5
891A
  8
0
 10
438.4101202343256887
 20
45.8634037009308528
 30
0.0
 40
3.0
 50
261.2416259857988052
 51
266.4008592399002282
  0
ARC
  5
891B
  8
0
 10
436.8585001363256879
 20
43.9066037008308498
 30
0.0
 40
1.5900000000000001
 50
242.8518542029987941
 51
283.9569127455944795
  0
ARC
  5
891C
  8
0
 10
438.9591605368257206
 20
42.7024037009308586
 30
0.0
 40
0.37
 50
23.9165344240355786
 51
156.1540803039573859
  0
ARC
  5
891D
  8
0
 10
438.9591605368257206
 20
42.7024037009308586
 30
0.0
 40
0.37
 50
270.0
 51
336.0834655759647944
  0
ARC
  5
891E
  8
0
 10
438.9591605368257206
 20
42.7024037009308586
 30
0.0
 40
0.37
 50
203.8459196960419035
 51
270.0
  0
ARC
  5
891F
  8
0
 10
435.8107583836256822
 20
43.0241339733308621
 30
0.0
 40
0.26
 50
298.010093517047892
 51
337.484694857695672
  0
ARC
  5
8920
  8
0
 10
438.2374874648256764
 20
43.1188276085308573
 30
0.0
 40
0.25
 50
266.4008592399002282
 51
306.0283268724996901
  0
ARC
  5
8921
  8
0
 10
438.6805287677256047
 20
42.9962116625308468
 30
0.0
 40
0.18
 50
198.8556504226000925
 51
250.6018460679748046
  0
ARC
  5
8922
  8
0
 10
439.3460412273257134
 20
42.9843037009308517
 30
0.0
 40
0.16
 50
270.0
 51
316.3010180307650785
  0
ARC
  5
8923
  8
0
 10
435.8671202343095956
 20
42.7024037009011721
 30
0.0
 40
0.1399999999838674
 50
119.9264533627130049
 51
240.0735466356032077
  0
ARC
  5
8924
  8
0
 10
435.8297036605256949
 20
42.7674037009308634
 30
0.0
 40
0.065
 50
36.5296072470873128
 51
119.9264747814993939
  0
ARC
  5
8925
  8
0
 10
435.9140763456256877
 20
42.8299037009308492
 30
0.0
 40
0.04
 50
216.5296072470898991
 51
298.0100935170441971
  0
ARC
  5
8926
  8
0
 10
436.0851202343257
 20
42.9104037009308499
 30
0.0
 40
0.037
 50
0.0
 51
157.4846948576968089
  0
ARC
  5
8927
  8
0
 10
438.4761202343256059
 20
42.9264037009308623
 30
0.0
 40
0.036
 50
18.8556504225002293
 51
180.0
  0
ARC
  5
8928
  8
0
 10
438.4051202343256932
 20
42.888340614130847
 30
0.0
 40
0.035
 50
0.0
 51
126.028326872600303
  0
ARC
  5
8929
  8
0
 10
436.1421202343257164
 20
42.8952362116308592
 30
0.0
 40
0.02
 50
117.1481545976994028
 51
180.0
  0
ARC
  5
892A
  8
0
 10
439.171459422725718
 20
50.8051000331308629
 30
0.0
 40
8.0
 50
256.0434495125304011
 51
261.2416259857988052
  0
LINE
  5
892B
  8
0
 10
439.5750219244912955
 20
42.5482703903579775
 30
0.0
 11
439.5750219244912955
 21
42.8565370114488218
 31
0.0
  0
LINE
  5
892C
  8
0
 10
439.4617179347475258
 20
42.5310428313781728
 30
0.0
 11
439.4617179347475258
 21
42.8737645705212813
 31
0.0
  0
ARC
  5
892D
  8
0
 10
438.9591605368257206
 20
42.7024037008808506
 30
0.0
 40
1.109999999999999
 50
190.8748690515477904
 51
169.1251309484520959
  0
ARC
  5
892E
  8
0
 10
438.9591605368257206
 20
42.7024037008808506
 30
0.0
 40
1.0389632543832079
 50
190.9952590606106924
 51
169.0047409393889097
  0
ARC
  5
892F
  8
0
 10
438.9591605368257206
 20
42.7024037008808506
 30
0.0
 40
0.9487298334613196
 50
191.2657778157939958
 51
168.734222178200497
  0
ENDSEC
  0
EOF
