  0
SECTION
  2
HEADER
  9
$ACADVER
  1
AC1009
  9
$INSBASE
 10
443.3944803111456281
 20
37.3257763616086393
 30
0.0
  9
$EXTMIN
 10
437.9271358446403042
 20
37.3178982695206969
 30
-0.0000000349181948
  9
$EXTMAX
 10
444.5065898253130854
 20
44.1850441461575301
 30
0.0000000814935746
  9
$LIMMIN
 10
0.0
 20
0.0
  9
$LIMMAX
 10
11.6929133858000007
 20
8.2677165353999982
  9
$ORTHOMODE
 70
     0
  9
$REGENMODE
 70
     1
  9
$FILLMODE
 70
     1
  9
$QTEXTMODE
 70
     0
  9
$MIRRTEXT
 70
     0
  9
$DRAGMODE
 70
     2
  9
$LTSCALE
 40
0.6431102362
  9
$OSMODE
 70
  4095
  9
$ATTMODE
 70
     1
  9
$TEXTSIZE
 40
0.2
  9
$TRACEWID
 40
0.05
  9
$TEXTSTYLE
  7
STANDARD
  9
$CLAYER
  8
0
  9
$CELTYPE
  6
BYLAYER
  9
$CECOLOR
 62
   256
  9
$DIMSCALE
 40
1.0
  9
$DIMASZ
 40
0.1875
  9
$DIMEXO
 40
0.0625
  9
$DIMDLI
 40
0.4443307087
  9
$DIMRND
 40
0.0
  9
$DIMDLE
 40
0.0
  9
$DIMEXE
 40
0.125
  9
$DIMTP
 40
0.01
  9
$DIMTM
 40
0.01
  9
$DIMTXT
 40
1.0
  9
$DIMCEN
 40
0.1052362205
  9
$DIMTSZ
 40
0.0
  9
$DIMTOL
 70
     1
  9
$DIMLIM
 70
     0
  9
$DIMTIH
 70
     0
  9
$DIMTOH
 70
     1
  9
$DIMSE1
 70
     0
  9
$DIMSE2
 70
     0
  9
$DIMTAD
 70
     0
  9
$DIMZIN
 70
     0
  9
$DIMBLK
  1

  9
$DIMASO
 70
     1
  9
$DIMSHO
 70
     1
  9
$DIMPOST
  1
\X
  9
$DIMAPOST
  1

  9
$DIMALT
 70
     1
  9
$DIMALTD
 70
     2
  9
$DIMALTF
 40
25.3999999999999986
  9
$DIMLFAC
 40
1.0
  9
$DIMTOFL
 70
     0
  9
$DIMTVP
 40
0.0
  9
$DIMTIX
 70
     0
  9
$DIMSOXD
 70
     0
  9
$DIMSAH
 70
     0
  9
$DIMBLK1
  1

  9
$DIMBLK2
  1

  9
$DIMSTYLE
  2
STANDARD
  9
$DIMCLRD
 70
     0
  9
$DIMCLRE
 70
     0
  9
$DIMCLRT
 70
     0
  9
$DIMTFAC
 40
1.0
  9
$DIMGAP
 40
0.09
  9
$LUNITS
 70
     2
  9
$LUPREC
 70
     4
  9
$SKETCHINC
 40
0.1
  9
$FILLETRAD
 40
0.0
  9
$AUNITS
 70
     0
  9
$AUPREC
 70
     0
  9
$MENU
  1
.
  9
$ELEVATION
 40
0.0
  9
$PELEVATION
 40
0.0
  9
$THICKNESS
 40
0.0
  9
$LIMCHECK
 70
     0
  9
$BLIPMODE
 70
     0
  9
$CHAMFERA
 40
0.0
  9
$CHAMFERB
 40
0.0
  9
$SKPOLY
 70
     0
  9
$TDCREATE
 40
2458172.5207638889551163
  9
$TDUPDATE
 40
2459068.7346875001676381
  9
$TDINDWG
 40
0.1467799074
  9
$TDUSRTIMER
 40
0.1467799074
  9
$USRTIMER
 70
     1
  9
$ANGBASE
 50
0.0
  9
$ANGDIR
 70
     0
  9
$PDMODE
 70
     0
  9
$PDSIZE
 40
0.3125
  9
$PLINEWID
 40
0.0
  9
$COORDS
 70
     1
  9
$SPLFRAME
 70
     0
  9
$SPLINETYPE
 70
     6
  9
$SPLINESEGS
 70
     8
  9
$ATTDIA
 70
     1
  9
$ATTREQ
 70
     1
  9
$HANDLING
 70
     1
  9
$HANDSEED
  5
8B1E
  9
$SURFTAB1
 70
     6
  9
$SURFTAB2
 70
     6
  9
$SURFTYPE
 70
     6
  9
$SURFU
 70
     6
  9
$SURFV
 70
     6
  9
$UCSNAME
  2

  9
$UCSORG
 10
0.0
 20
0.0
 30
0.0
  9
$UCSXDIR
 10
1.0
 20
0.0
 30
0.0
  9
$UCSYDIR
 10
0.0
 20
1.0
 30
0.0
  9
$PUCSNAME
  2

  9
$PUCSORG
 10
0.0
 20
0.0
 30
0.0
  9
$PUCSXDIR
 10
1.0
 20
0.0
 30
0.0
  9
$PUCSYDIR
 10
0.0
 20
1.0
 30
0.0
  9
$USERI1
 70
     0
  9
$USERI2
 70
     0
  9
$USERI3
 70
     0
  9
$USERI4
 70
     0
  9
$USERI5
 70
     0
  9
$USERR1
 40
0.0
  9
$USERR2
 40
0.0
  9
$USERR3
 40
0.0
  9
$USERR4
 40
0.0
  9
$USERR5
 40
0.0
  9
$WORLDVIEW
 70
     1
  9
$SHADEDGE
 70
     3
  9
$SHADEDIF
 70
    70
  9
$TILEMODE
 70
     1
  9
$MAXACTVP
 70
    64
  9
$PLIMCHECK
 70
     0
  9
$PEXTMIN
 10
1.0000000000000000E+20
 20
1.0000000000000000E+20
 30
1.0000000000000000E+20
  9
$PEXTMAX
 10
-1.0000000000000000E+20
 20
-1.0000000000000000E+20
 30
-1.0000000000000000E+20
  9
$PLIMMIN
 10
0.0
 20
0.0
  9
$PLIMMAX
 10
12.0
 20
9.0
  9
$UNITMODE
 70
     0
  9
$VISRETAIN
 70
     1
  9
$PLINEGEN
 70
     0
  9
$PSLTSCALE
 70
     1
  0
ENDSEC
  0
SECTION
  2
TABLES
  0
TABLE
  2
VPORT
 70
     1
  0
VPORT
  2
*ACTIVE
 70
     0
 10
0.0
 20
0.0
 11
1.0
 21
1.0
 12
67.3957263603673482
 22
-1.1349769244243499
 13
0.0
 23
0.0
 14
1.0
 24
1.0
 15
0.0
 25
0.0
 16
0.0
 26
0.0
 36
25.5757211105568096
 17
373.821136474609375
 27
41.8864481322634603
 37
0.0
 40
6.91015514099991
 41
2.005224660397074
 42
50.0
 43
0.0
 44
0.0
 50
0.0
 51
0.0
 71
     0
 72
   100
 73
     1
 74
     1
 75
     0
 76
     0
 77
     0
 78
     0
  0
ENDTAB
  0
TABLE
  2
LTYPE
 70
     2
  0
LTYPE
  2
CONTINUOUS
 70
     0
  3
Solid line
 72
    65
 73
     0
 40
0.0
  0
LTYPE
  2
PHANTOM2
 70
     0
  3
___ _ _ ___ _ _ ___ _ _ ___ _ _
 72
    65
 73
     6
 40
1.25
 49
0.625
 49
-0.125
 49
0.125
 49
-0.125
 49
0.125
 49
-0.125
  0
ENDTAB
  0
TABLE
  2
LAYER
 70
     2
  0
LAYER
  2
0
 70
     0
 62
   255
  6
CONTINUOUS
  0
LAYER
  2
DEFPOINTS
 70
     0
 62
     7
  6
CONTINUOUS
  0
ENDTAB
  0
TABLE
  2
STYLE
 70
     1
  0
STYLE
  2
STANDARD
 70
     0
 40
0.0
 41
0.8
 50
0.0
 71
     0
 42
0.2
  3
txt
  4

  0
ENDTAB
  0
TABLE
  2
VIEW
 70
     0
  0
ENDTAB
  0
TABLE
  2
UCS
 70
     0
  0
ENDTAB
  0
TABLE
  2
APPID
 70
    10
  0
APPID
  2
ACAD
 70
     0
  0
APPID
  2
ACAD_MLEADERVER
 70
     0
  0
APPID
  2
ACAD_EXEMPT_FROM_CAD_STANDARDS
 70
     0
  0
APPID
  2
ACAD_DSTYLE_DIMJAG
 70
     0
  0
APPID
  2
ACAD_DSTYLE_DIMTALN
 70
     0
  0
APPID
  2
ACAD_NAV_VCDISPLAY
 70
     0
  0
APPID
  2
ACAECLAYERSTANDARD
 70
     0
  0
APPID
  2
ACCMTRANSPARENCY
 70
     0
  0
APPID
  2
DCO15
 70
     0
  0
APPID
  2
ACDBATTR
 70
     0
  0
ENDTAB
  0
TABLE
  2
DIMSTYLE
 70
     1
  0
DIMSTYLE
  2
STANDARD
 70
     0
  3

  4

  5

  6

  7

 40
1.0
 41
0.1875
 42
0.0625
 43
0.38
 44
0.125
 45
0.0
 46
0.0
 47
0.01
 48
0.01
140
0.15625
141
0.09
142
0.0
143
25.3999999999999986
144
1.0
145
0.0
146
1.0
147
0.09
 71
     1
 72
     0
 73
     1
 74
     1
 75
     0
 76
     0
 77
     0
 78
     4
170
     0
171
     2
172
     0
173
     0
174
     0
175
     0
176
     0
177
     0
178
     0
  0
ENDTAB
  0
ENDSEC
  0
SECTION
  2
BLOCKS
  0
BLOCK
  8
0
  2
$MODEL_SPACE
 70
     0
 10
0.0
 20
0.0
 30
0.0
  3
$MODEL_SPACE
  1

  0
ENDBLK
  5
21
  8
0
  0
BLOCK
 67
     1
  8
0
  2
$PAPER_SPACE
 70
     0
 10
0.0
 20
0.0
 30
0.0
  3
$PAPER_SPACE
  1

  0
ENDBLK
  5
1D
 67
     1
  8
0
  0
ENDSEC
  0
SECTION
  2
ENTITIES
  0
ATTDEF
  5
829
  8
DEFPOINTS
 10
443.391337367368692
 20
37.3232605582308565
 30
0.0
 40
0.001
  1
K-8670T-4P
  3

  2
MODELNUMBER
 70
     0
1001
ACDBATTR
1070
     0
1070
     1
  0
ATTDEF
  5
82A
  8
DEFPOINTS
 10
443.391337367368692
 20
37.3215938915641914
 30
0.0
 40
0.001
  1
FINIAL
  3

  2
TRADENAME
 70
     0
1001
ACDBATTR
1070
     0
1070
     1
  0
ATTDEF
  5
82B
  8
DEFPOINTS
 10
443.391337367368692
 20
37.3199272248975333
 30
0.0
 40
0.001
  1
BATHROOM SINK FAUCET
  3

  2
PRODUCT
 70
     0
1001
ACDBATTR
1070
     0
1070
     1
  0
LINE
  5
89E1
  8
0
 10
438.1296681173998877
 20
41.9445850460490703
 30
0.0
 11
438.1347766410955842
 21
41.991934783008638
 31
0.0
  0
LINE
  5
89E2
  8
0
 10
438.1577481316955982
 20
42.0736365960086403
 30
0.0
 11
438.1190981704933165
 21
42.0001847036042477
 31
0.0
  0
LINE
  5
89E3
  8
0
 10
438.8092756853956189
 20
41.7308065641086401
 30
0.0
 11
438.7706257242978722
 21
41.6573546717130228
 31
0.0
  0
LINE
  5
89E4
  8
0
 10
438.7188152529849958
 20
41.6345792294995221
 30
0.0
 11
438.7549472536956046
 21
41.6656045922086307
 31
0.0
  0
LINE
  5
89E5
  8
0
 10
443.5138683882955775
 20
44.0547337107086321
 30
0.0
 11
443.4967648878956084
 21
44.0362886752086382
 31
0.0
  0
LINE
  5
89E6
  8
0
 10
438.7135783450178792
 20
41.6339872567495206
 30
0.0
 11
438.1321459734961081
 21
41.9399336090082997
 31
0.0
  0
LINE
  5
89E7
  8
0
 10
438.1190981704933165
 20
42.0001847036042477
 30
0.0
 11
438.7706257242978722
 21
41.6573546717130228
 31
0.0
  0
LINE
  5
89E8
  8
0
 10
437.9621054848556128
 20
42.1765826256296705
 30
0.0
 11
439.0049183321556256
 21
41.6278605345296668
 31
0.0
  0
LINE
  5
89E9
  8
0
 10
437.9577485966955805
 20
42.2292185055086335
 30
0.0
 11
439.0507675321956071
 21
41.6540782611086371
 31
0.0
  0
LINE
  5
89EA
  8
0
 10
437.9944875314956221
 20
42.2990386091086279
 30
0.0
 11
439.0875064669954781
 21
41.7238983647086386
 31
0.0
  0
LINE
  5
89EB
  8
0
 10
439.0825204405954878
 20
41.7757353021086288
 30
0.0
 11
438.0400345453954856
 21
42.3242853529086389
 31
0.0
  0
LINE
  5
89EC
  8
0
 10
443.3004805387956253
 20
41.9164111740175471
 30
0.0
 11
443.3004805387956253
 21
43.3030050244086269
 31
0.0
  0
LINE
  5
89ED
  8
0
 10
443.4884805387956135
 20
41.5498716864547291
 30
0.0
 11
443.4884805387956135
 21
43.3030050244086269
 31
0.0
  0
LINE
  5
89EE
  8
0
 10
443.4994805386029952
 20
43.3030050244086269
 30
0.0
 11
443.2894805389881867
 21
43.3030050244086269
 31
0.0
  0
LINE
  5
89EF
  8
0
 10
443.1723598490955851
 20
43.7852181098086319
 30
0.0
 11
443.6166012284955968
 21
43.7852181098086319
 31
0.0
  0
LINE
  5
89F0
  8
0
 10
443.6139805387956017
 20
43.8611276335086302
 30
0.0
 11
443.1749805387955803
 21
43.8611276335086302
 31
0.0
  0
LINE
  5
89F1
  8
0
 10
443.2750926892956045
 20
44.0547337107086321
 30
0.0
 11
443.2921961896955736
 21
44.0362886752086382
 31
0.0
  0
ARC
  5
89F2
  8
0
 10
439.0465253671956134
 20
41.7008864232086296
 30
0.0
 40
0.047
 50
275.1784975591003217
 51
29.3153308953000398
  0
ARC
  5
89F3
  8
0
 10
437.9987296965956034
 20
42.2522304470086425
 30
0.0
 40
0.047
 50
95.1784975591003359
 51
209.3153308952996952
  0
ARC
  5
89F4
  8
0
 10
439.0701607965954736
 20
41.817853880108629
 30
0.0
 40
0.0315214954
 50
242.2975724576008076
 51
347.7108610397065718
  0
ARC
  5
89F5
  8
0
 10
438.0665116481536074
 20
42.3459391725228329
 30
0.0
 40
0.0314993225707789
 50
147.4082942131657887
 51
241.0288826800880884
  0
ARC
  5
89F6
  8
0
 10
439.073207196995611
 20
41.7580360510086308
 30
0.0
 40
0.02
 50
322.50918302589929
 51
62.2469142272004632
  0
ARC
  5
89F7
  8
0
 10
438.0307213016956212
 20
42.306586101708632
 30
0.0
 40
0.02
 50
62.2469142272004632
 51
161.9846454285001869
  0
ARC
  5
89F8
  8
0
 10
437.9926823548955781
 20
42.3189569759086268
 30
0.0
 40
0.02
 50
275.1784975591003217
 51
341.9846454287999791
  0
ARC
  5
89F9
  8
0
 10
439.1049452328956022
 20
41.7336906803086407
 30
0.0
 40
0.02
 50
142.5091830255989009
 51
209.3153308952996952
  0
ARC
  5
89FA
  8
0
 10
437.940309830795627
 20
42.2194261899086314
 30
0.0
 40
0.02
 50
321.0525148892991751
 51
29.3153308953000398
  0
ARC
  5
89FB
  8
0
 10
439.0525727087955943
 20
41.6341598942086293
 30
0.0
 40
0.02
 50
95.1784975591003359
 51
163.4413135650999038
  0
ARC
  5
89FC
  8
0
 10
437.9714187284956211
 20
42.1942818768086383
 30
0.0
 40
0.02
 50
141.0525148892996867
 51
242.2469142261446962
  0
ARC
  5
89FD
  8
0
 10
439.0142315757955771
 20
41.6455597857086417
 30
0.0
 40
0.02
 50
242.2469142261450941
 51
343.4413135650999038
  0
ARC
  5
89FE
  8
0
 10
438.7157613065955957
 20
41.63813584200863
 30
0.0
 40
0.0046878653
 50
242.2469142271972942
 51
310.6516036948432884
  0
ARC
  5
89FF
  8
0
 10
438.1343289350954819
 20
41.9440821943086277
 30
0.0
 40
0.0046878653
 50
173.8422246582549064
 51
242.2469142272414047
  0
ARC
  5
8A00
  8
0
 10
443.3944805387956194
 20
43.5636503774086421
 30
0.0
 40
0.281
 50
137.9469462406844116
 51
248.0581446695047134
  0
ARC
  5
8A01
  8
0
 10
443.3944805387956194
 20
43.5636503774086421
 30
0.0
 40
0.281
 50
291.9418553304947181
 51
42.0530537593163203
  0
CIRCLE
  5
8A02
  8
0
 10
443.3944805387956194
 20
40.8285024245086419
 30
0.0
 40
0.245
  0
ARC
  5
8A03
  8
0
 10
443.7018357150956263
 20
44.076929551908627
 30
0.0
 40
0.233
 50
201.673818481500291
 51
247.8482571134987893
  0
ARC
  5
8A04
  8
0
 10
443.0871253624956125
 20
44.076929551908627
 30
0.0
 40
0.233
 50
292.1517428864980843
 51
338.3261815184995953
  0
ARC
  5
8A05
  8
0
 10
443.3944805387956194
 20
43.9979023952086266
 30
0.0
 40
0.186
 50
72.5617448013999962
 51
107.4382551986000038
  0
ARC
  5
8A06
  8
0
 10
443.3797963240955937
 20
44.0446503774086224
 30
0.0
 40
0.137
 50
107.4382551986000038
 51
126.336057514401503
  0
ARC
  5
8A07
  8
0
 10
443.4091647534954745
 20
44.0446503774086224
 30
0.0
 40
0.137
 50
53.6639424855984686
 51
72.5617448013999962
  0
CIRCLE
  5
8A08
  8
0
 10
443.3944805387956194
 20
40.8285024245086419
 30
0.0
 40
0.13
  0
ARC
  5
8A09
  8
0
 10
443.4304954825955747
 20
44.0736503774086401
 30
0.0
 40
0.101
 50
31.85543082429961
 51
53.6639424855984686
  0
ARC
  5
8A0A
  8
0
 10
443.3584655949956073
 20
44.0736503774086401
 30
0.0
 40
0.101
 50
126.336057514401503
 51
148.1445691757004113
  0
ARC
  5
8A0B
  8
0
 10
443.4610732522955914
 20
44.0926503774086314
 30
0.0
 40
0.065
 50
324.3146652878991176
 51
31.8554308240004609
  0
ARC
  5
8A0C
  8
0
 10
443.3278878252955906
 20
44.0926503774086314
 30
0.0
 40
0.065
 50
148.1445691759994929
 51
215.6853347121009108
  0
ARC
  5
8A0D
  8
0
 10
443.5224805387956053
 20
44.0056503774086423
 30
0.0
 40
0.04
 50
130.0077539135010056
 51
201.673818481500291
  0
ARC
  5
8A0E
  8
0
 10
443.2664805387955766
 20
44.0056503774086423
 30
0.0
 40
0.04
 50
338.3261815184995953
 51
49.9922460864989873
  0
ARC
  5
8A0F
  8
0
 10
443.1749805387955803
 20
43.8231276335086335
 30
0.0
 40
0.038
 50
90.0
 51
266.0434478747430944
  0
ARC
  5
8A10
  8
0
 10
443.6139805387956017
 20
43.8231276335086335
 30
0.0
 40
0.038
 50
273.9565521252567919
 51
90.0
  0
ARC
  5
8A11
  8
0
 10
443.6179805387956208
 20
43.7652657290086324
 30
0.0
 40
0.02
 50
93.9508101290985707
 51
222.0530537593114104
  0
ARC
  5
8A12
  8
0
 10
443.170980538795618
 20
43.7652657290086324
 30
0.0
 40
0.02
 50
317.9469462406846105
 51
86.0491898709014436
  0
LINE
  5
8A13
  8
0
 10
442.3244803111455781
 20
37.3257763616086393
 30
0.0
 11
444.4644803111456213
 21
37.3257763616086393
 31
0.0
  0
LINE
  5
8A14
  8
0
 10
442.3200122938677055
 20
37.4055260386086417
 30
0.0
 11
444.4689483284234939
 21
37.4055260386086417
 31
0.0
  0
LINE
  5
8A15
  8
0
 10
444.3044803111454826
 20
37.5557763616086433
 30
0.0
 11
442.4844803111454894
 21
37.5557763616086433
 31
0.0
  0
LINE
  5
8A16
  8
0
 10
443.0794803111455735
 20
40.0407763616086427
 30
0.0
 11
443.7094803111456258
 21
40.0407763616086427
 31
0.0
  0
LINE
  5
8A17
  8
0
 10
443.0754803111454976
 20
40.0587763616086292
 30
0.0
 11
443.7134803111455881
 21
40.0587763616086292
 31
0.0
  0
LINE
  5
8A18
  8
0
 10
443.0508596214033901
 20
40.0977766292086315
 30
0.0
 11
443.7381010008878093
 21
40.0977766292086315
 31
0.0
  0
LINE
  5
8A19
  8
0
 10
443.050859621547886
 20
40.1602760941086387
 30
0.0
 11
443.7381010007431996
 21
40.1602760941086387
 31
0.0
  0
LINE
  5
8A1A
  8
0
 10
443.071107909731893
 20
40.1986673364086329
 30
0.0
 11
443.7178527125593064
 21
40.1986673364086329
 31
0.0
  0
LINE
  5
8A1B
  8
0
 10
443.0809481306507109
 20
40.2214061643086325
 30
0.0
 11
443.7080124916403747
 21
40.2214061643086325
 31
0.0
  0
LINE
  5
8A1C
  8
0
 10
443.6981635482455886
 20
40.2704418362086329
 30
0.0
 11
443.0907970740456108
 21
40.2704418362086329
 31
0.0
  0
LINE
  5
8A1D
  8
0
 10
443.0594803111455917
 20
40.1832763616086268
 30
0.0
 11
443.0594803111455917
 21
40.1767233217086286
 31
0.0
  0
LINE
  5
8A1E
  8
0
 10
443.0594803111455917
 20
40.0813294015086399
 30
0.0
 11
443.0594803111455917
 21
40.0747763616086417
 31
0.0
  0
LINE
  5
8A1F
  8
0
 10
443.0794803111455735
 20
40.0407763616086427
 30
0.0
 11
443.0794803111455735
 21
40.0587763616086292
 31
0.0
  0
LINE
  5
8A20
  8
0
 10
443.0819803111456281
 20
39.9957763616086268
 30
0.0
 11
443.0819803111456281
 21
39.8063032828086421
 31
0.0
  0
LINE
  5
8A21
  8
0
 10
443.7069803111456281
 20
39.9957763616086268
 30
0.0
 11
443.7069803111456281
 21
39.8063032828086421
 31
0.0
  0
LINE
  5
8A22
  8
0
 10
443.7094803111456258
 20
40.0407763616086427
 30
0.0
 11
443.7094803111456258
 21
40.0587763616086292
 31
0.0
  0
LINE
  5
8A23
  8
0
 10
443.7294803111456076
 20
40.1832763616086268
 30
0.0
 11
443.7294803111456076
 21
40.1767233217086286
 31
0.0
  0
LINE
  5
8A24
  8
0
 10
443.7294803111456076
 20
40.0813294015086399
 30
0.0
 11
443.7294803111456076
 21
40.0747763616086417
 31
0.0
  0
ARC
  5
8A25
  8
0
 10
438.5819803111456281
 20
39.8063032828086421
 30
0.0
 40
4.5
 50
330.9702001542574976
 51
0.0
  0
ARC
  5
8A26
  8
0
 10
442.4124743881195059
 20
37.4404935846300404
 30
0.0
 40
0.0570532394101508
 50
94.430225291792965
 51
176.6773402494982008
  0
ARC
  5
8A27
  8
0
 10
442.5559803111456176
 20
37.6007763616086379
 30
0.0
 40
0.045
 50
150.970200154259004
 51
270.0
  0
ARC
  5
8A28
  8
0
 10
442.3244803111455781
 20
37.3657763616086385
 30
0.0
 40
0.04
 50
96.4133479219068761
 51
270.0
  0
ARC
  5
8A29
  8
0
 10
442.3155442757454807
 20
37.4452757155086431
 30
0.0
 40
0.04
 50
276.4133479219166816
 51
357.8861792762871232
  0
ARC
  5
8A2A
  8
0
 10
442.402342024431789
 20
37.5441734475045195
 30
0.0
 40
0.047146013461436
 50
276.9750629501324966
 51
337.0321163938619975
  0
ARC
  5
8A2B
  8
0
 10
442.4844803111454894
 20
37.515776361608637
 30
0.0
 40
0.04
 50
90.0
 51
165.5224878097452006
  0
ARC
  5
8A2C
  8
0
 10
442.9302768424456076
 20
40.462101052608638
 30
0.0
 40
0.25
 50
309.9471645481507949
 51
11.2544937207201006
  0
ARC
  5
8A2D
  8
0
 10
443.8586837798455917
 20
40.462101052608638
 30
0.0
 40
0.25
 50
168.7455062792803062
 51
230.0528354518492051
  0
ARC
  5
8A2E
  8
0
 10
443.1269803111455872
 20
39.9957763616086268
 30
0.0
 40
0.045
 50
90.0
 51
180.0
  0
ARC
  5
8A2F
  8
0
 10
443.6619803111454985
 20
39.9957763616086268
 30
0.0
 40
0.045
 50
0.0
 51
90.0
  0
ARC
  5
8A30
  8
0
 10
443.6724803111455913
 20
40.2397763616086266
 30
0.0
 40
0.04
 50
332.6611154081882091
 51
50.052835451844949
  0
ARC
  5
8A31
  8
0
 10
443.1164803111456081
 20
40.2397763616086266
 30
0.0
 40
0.04
 50
129.9471645481550013
 51
207.338884591811393
  0
ARC
  5
8A32
  8
0
 10
443.0724803111456254
 20
40.1290263616086307
 30
0.0
 40
0.038
 50
124.678119570288203
 51
235.3218804297115128
  0
ARC
  5
8A33
  8
0
 10
443.716480311145574
 20
40.1290263616086307
 30
0.0
 40
0.038
 50
304.6781195702762943
 51
55.3218804297236417
  0
ARC
  5
8A34
  8
0
 10
443.7494803111454758
 20
40.1767233217086286
 30
0.0
 40
0.02
 50
180.0
 51
235.3218804297158897
  0
ARC
  5
8A35
  8
0
 10
443.0394803111456099
 20
40.1767233217086286
 30
0.0
 40
0.02
 50
304.6781195702603782
 51
0.0
  0
ARC
  5
8A36
  8
0
 10
443.7494803111454758
 20
40.0813294015086399
 30
0.0
 40
0.02
 50
124.678119570281595
 51
180.0
  0
ARC
  5
8A37
  8
0
 10
443.0394803111456099
 20
40.0813294015086399
 30
0.0
 40
0.02
 50
0.0
 51
55.3218804297394513
  0
ARC
  5
8A38
  8
0
 10
443.7134803111455881
 20
40.1832763616086268
 30
0.0
 40
0.016
 50
0.0
 51
74.1401579373346635
  0
ARC
  5
8A39
  8
0
 10
443.0667351886456231
 20
40.2140582204086385
 30
0.0
 40
0.016
 50
285.8598420626652796
 51
27.3388845918059609
  0
ARC
  5
8A3A
  8
0
 10
443.7222254336455762
 20
40.2140582204086385
 30
0.0
 40
0.016
 50
152.6611154081940072
 51
254.140157937334692
  0
ARC
  5
8A3B
  8
0
 10
443.0754803111454976
 20
40.1832763616086268
 30
0.0
 40
0.016
 50
105.8598420626652938
 51
180.0
  0
ARC
  5
8A3C
  8
0
 10
443.7134803111455881
 20
40.0747763616086417
 30
0.0
 40
0.016
 50
270.0
 51
0.0
  0
ARC
  5
8A3D
  8
0
 10
443.0754803111454976
 20
40.0747763616086417
 30
0.0
 40
0.016
 50
180.0
 51
270.0
  0
ARC
  5
8A3E
  8
0
 10
448.2069803111456281
 20
39.8063032828086421
 30
0.0
 40
4.5
 50
180.0
 51
209.0297998457423887
  0
ARC
  5
8A3F
  8
0
 10
444.3763271484822894
 20
37.4403969279068178
 30
0.0
 40
0.0572177263440827
 50
3.410052654772556
 51
84.7690250293732248
  0
ARC
  5
8A40
  8
0
 10
444.2329803111455817
 20
37.6007763616086379
 30
0.0
 40
0.045
 50
270.0
 51
29.0297998457393511
  0
ARC
  5
8A41
  8
0
 10
444.4644803111456213
 20
37.3657763616086385
 30
0.0
 40
0.04
 50
270.0
 51
83.58665207808329
  0
ARC
  5
8A42
  8
0
 10
444.4734163465454913
 20
37.4452757155086431
 30
0.0
 40
0.04
 50
182.1138207237133031
 51
263.5866520780932092
  0
ARC
  5
8A43
  8
0
 10
444.3829872351736867
 20
37.5393956024651274
 30
0.0
 40
0.0420440323630885
 50
198.9006430688228875
 51
268.0324854479021042
  0
ARC
  5
8A44
  8
0
 10
444.3044803111454826
 20
37.515776361608637
 30
0.0
 40
0.04
 50
14.4775121902547603
 51
90.0
  0
CIRCLE
  5
8A45
  8
0
 10
443.3944803111456281
 20
40.8285024244586268
 30
0.0
 40
0.3858000000499331
  0
ARC
  5
8A46
  8
0
 10
440.3239024096766911
 20
41.5181629232777283
 30
0.0
 40
1.257547785310948
 50
120.2686015854629034
 51
166.5275002420480916
  0
ARC
  5
8A47
  8
0
 10
440.4833354992492787
 20
41.0952541530924123
 30
0.0
 40
1.7048364887805101
 50
60.4974532925713078
 51
117.7313542553628025
  0
ARC
  5
8A48
  8
0
 10
440.289990194978202
 20
40.7377044682525096
 30
0.0
 40
2.1112537562748219
 50
24.5540742879226102
 51
60.7092616363560822
  0
ARC
  5
8A49
  8
0
 10
438.2989036967654783
 20
40.029204747401927
 30
0.0
 40
4.22067148107012
 50
359.7840376679773158
 51
22.069471319331651
  0
ARC
  5
8A4A
  8
0
 10
415.0506921238642235
 20
39.4816609799220473
 30
0.0
 40
27.4739972498190106
 50
356.0839400793545906
 51
1.108770014838393
  0
ARC
  5
8A4B
  8
0
 10
442.5077519047154055
 20
37.6030393973437214
 30
0.0
 40
0.0472648514305655
 50
177.2269634033634134
 51
269.4977830141705795
  0
ARC
  5
8A4C
  8
0
 10
440.4062666602864056
 20
40.9819147317514094
 30
0.0
 40
2.7397966271338721
 50
112.2351230936593964
 51
149.7317625273221893
  0
ARC
  5
8A4D
  8
0
 10
440.4364254065089881
 20
40.7932313032076692
 30
0.0
 40
2.926184746714624
 50
77.5882126366494589
 51
111.3836732935202036
  0
ARC
  5
8A4E
  8
0
 10
440.486649339177518
 20
40.7091025992622093
 30
0.0
 40
2.9983039034206058
 50
42.1161106561323635
 51
78.8711797434060884
  0
ARC
  5
8A4F
  8
0
 10
439.4573544683606201
 20
39.7137690942202823
 30
0.0
 40
4.4295880310645703
 50
19.9682316967345201
 51
42.7375663633197576
  0
ARC
  5
8A50
  8
0
 10
434.5155659148570066
 20
37.8188608951660328
 30
0.0
 40
9.7218445027629627
 50
11.2487756276147106
 51
17.7093585558043216
  0
ARC
  5
8A51
  8
0
 10
434.5155659148570066
 20
37.8188608951660328
 30
0.0
 40
9.7218445027629627
 50
19.7403654392863288
 51
20.5185415080641214
  0
ARC
  5
8A52
  8
0
 10
430.9634467734321106
 20
36.9186323095499915
 30
0.0
 40
13.3826816778681099
 50
2.933434334711194
 51
12.0623645041541891
  0
ARC
  5
8A53
  8
0
 10
444.2813446952031882
 20
37.6030266721676583
 30
0.0
 40
0.0472503270204127
 50
270.1738789484509766
 51
0.5748461427338257
  0
LINE
  5
8A55
  8
0
 10
444.3815437438487947
 20
37.4973763570086405
 30
0.0
 11
442.4080673110120188
 21
37.4973763570086405
 31
0.0
  0
ENDSEC
  0
EOF
