  0
SECTION
  2
HEADER
  9
$ACADVER
  1
AC1009
  9
$INSBASE
 10
498.5679771812808099
 20
39.7533634085620804
 30
0.0
  9
$EXTMIN
 10
490.2753866835436725
 20
39.7441489488959405
 30
-0.0000000000000058
  9
$EXTMAX
 10
500.0268513550959142
 20
49.5785550867154825
 30
0.0000000000000104
  9
$LIMMIN
 10
0.0
 20
0.0
  9
$LIMMAX
 10
11.6929133858000007
 20
8.2677165353999982
  9
$ORTHOMODE
 70
     0
  9
$REGENMODE
 70
     1
  9
$FILLMODE
 70
     1
  9
$QTEXTMODE
 70
     0
  9
$MIRRTEXT
 70
     0
  9
$DRAGMODE
 70
     2
  9
$LTSCALE
 40
0.6431102362
  9
$OSMODE
 70
  4095
  9
$ATTMODE
 70
     1
  9
$TEXTSIZE
 40
0.2
  9
$TRACEWID
 40
0.05
  9
$TEXTSTYLE
  7
STANDARD
  9
$CLAYER
  8
0
  9
$CELTYPE
  6
BYLAYER
  9
$CECOLOR
 62
   256
  9
$DIMSCALE
 40
1.0
  9
$DIMASZ
 40
0.1875
  9
$DIMEXO
 40
0.0625
  9
$DIMDLI
 40
0.4443307087
  9
$DIMRND
 40
0.0
  9
$DIMDLE
 40
0.0
  9
$DIMEXE
 40
0.125
  9
$DIMTP
 40
0.01
  9
$DIMTM
 40
0.01
  9
$DIMTXT
 40
1.0
  9
$DIMCEN
 40
0.1052362205
  9
$DIMTSZ
 40
0.0
  9
$DIMTOL
 70
     1
  9
$DIMLIM
 70
     0
  9
$DIMTIH
 70
     0
  9
$DIMTOH
 70
     1
  9
$DIMSE1
 70
     0
  9
$DIMSE2
 70
     0
  9
$DIMTAD
 70
     0
  9
$DIMZIN
 70
     0
  9
$DIMBLK
  1

  9
$DIMASO
 70
     1
  9
$DIMSHO
 70
     1
  9
$DIMPOST
  1
\X
  9
$DIMAPOST
  1

  9
$DIMALT
 70
     1
  9
$DIMALTD
 70
     2
  9
$DIMALTF
 40
25.3999999999999986
  9
$DIMLFAC
 40
1.0
  9
$DIMTOFL
 70
     0
  9
$DIMTVP
 40
0.0
  9
$DIMTIX
 70
     0
  9
$DIMSOXD
 70
     0
  9
$DIMSAH
 70
     0
  9
$DIMBLK1
  1

  9
$DIMBLK2
  1

  9
$DIMSTYLE
  2
STANDARD
  9
$DIMCLRD
 70
     0
  9
$DIMCLRE
 70
     0
  9
$DIMCLRT
 70
     0
  9
$DIMTFAC
 40
1.0
  9
$DIMGAP
 40
0.09
  9
$LUNITS
 70
     2
  9
$LUPREC
 70
     4
  9
$SKETCHINC
 40
0.1
  9
$FILLETRAD
 40
0.0
  9
$AUNITS
 70
     0
  9
$AUPREC
 70
     0
  9
$MENU
  1
.
  9
$ELEVATION
 40
0.0
  9
$PELEVATION
 40
0.0
  9
$THICKNESS
 40
0.0
  9
$LIMCHECK
 70
     0
  9
$BLIPMODE
 70
     0
  9
$CHAMFERA
 40
0.0
  9
$CHAMFERB
 40
0.0
  9
$SKPOLY
 70
     0
  9
$TDCREATE
 40
2458171.8957638889551163
  9
$TDUPDATE
 40
2459051.9167245370335877
  9
$TDINDWG
 40
0.1509465741
  9
$TDUSRTIMER
 40
0.1509465741
  9
$USRTIMER
 70
     1
  9
$ANGBASE
 50
0.0
  9
$ANGDIR
 70
     0
  9
$PDMODE
 70
     0
  9
$PDSIZE
 40
0.3125
  9
$PLINEWID
 40
0.0
  9
$COORDS
 70
     1
  9
$SPLFRAME
 70
     0
  9
$SPLINETYPE
 70
     6
  9
$SPLINESEGS
 70
     8
  9
$ATTDIA
 70
     1
  9
$ATTREQ
 70
     1
  9
$HANDLING
 70
     1
  9
$HANDSEED
  5
9C68
  9
$SURFTAB1
 70
     6
  9
$SURFTAB2
 70
     6
  9
$SURFTYPE
 70
     6
  9
$SURFU
 70
     6
  9
$SURFV
 70
     6
  9
$UCSNAME
  2

  9
$UCSORG
 10
0.0
 20
0.0
 30
0.0
  9
$UCSXDIR
 10
1.0
 20
0.0
 30
0.0
  9
$UCSYDIR
 10
0.0
 20
1.0
 30
0.0
  9
$PUCSNAME
  2

  9
$PUCSORG
 10
0.0
 20
0.0
 30
0.0
  9
$PUCSXDIR
 10
1.0
 20
0.0
 30
0.0
  9
$PUCSYDIR
 10
0.0
 20
1.0
 30
0.0
  9
$USERI1
 70
     0
  9
$USERI2
 70
     0
  9
$USERI3
 70
     0
  9
$USERI4
 70
     0
  9
$USERI5
 70
     0
  9
$USERR1
 40
0.0
  9
$USERR2
 40
0.0
  9
$USERR3
 40
0.0
  9
$USERR4
 40
0.0
  9
$USERR5
 40
0.0
  9
$WORLDVIEW
 70
     1
  9
$SHADEDGE
 70
     3
  9
$SHADEDIF
 70
    70
  9
$TILEMODE
 70
     1
  9
$MAXACTVP
 70
    64
  9
$PLIMCHECK
 70
     0
  9
$PEXTMIN
 10
1.0000000000000000E+20
 20
1.0000000000000000E+20
 30
1.0000000000000000E+20
  9
$PEXTMAX
 10
-1.0000000000000000E+20
 20
-1.0000000000000000E+20
 30
-1.0000000000000000E+20
  9
$PLIMMIN
 10
0.0
 20
0.0
  9
$PLIMMAX
 10
12.0
 20
9.0
  9
$UNITMODE
 70
     0
  9
$VISRETAIN
 70
     1
  9
$PLINEGEN
 70
     0
  9
$PSLTSCALE
 70
     1
  0
ENDSEC
  0
SECTION
  2
TABLES
  0
TABLE
  2
VPORT
 70
     1
  0
VPORT
  2
*ACTIVE
 70
     0
 10
0.0
 20
0.0
 11
1.0
 21
1.0
 12
121.3299825447104041
 22
2.7749038855422441
 13
0.0
 23
0.0
 14
1.0
 24
1.0
 15
0.0
 25
0.0
 16
0.0
 26
0.0
 36
25.5757211105568096
 17
373.821136474609375
 27
41.8864481322634603
 37
0.0
 40
9.9522641752165821
 41
2.6528599605522678
 42
50.0
 43
0.0
 44
0.0
 50
0.0
 51
0.0
 71
     0
 72
   100
 73
     1
 74
     1
 75
     0
 76
     0
 77
     0
 78
     0
  0
ENDTAB
  0
TABLE
  2
LTYPE
 70
     2
  0
LTYPE
  2
CONTINUOUS
 70
     0
  3
Solid line
 72
    65
 73
     0
 40
0.0
  0
LTYPE
  2
PHANTOM2
 70
     0
  3
___ _ _ ___ _ _ ___ _ _ ___ _ _
 72
    65
 73
     6
 40
1.25
 49
0.625
 49
-0.125
 49
0.125
 49
-0.125
 49
0.125
 49
-0.125
  0
ENDTAB
  0
TABLE
  2
LAYER
 70
     2
  0
LAYER
  2
0
 70
     0
 62
   255
  6
CONTINUOUS
  0
LAYER
  2
DEFPOINTS
 70
     0
 62
     7
  6
CONTINUOUS
  0
ENDTAB
  0
TABLE
  2
STYLE
 70
     1
  0
STYLE
  2
STANDARD
 70
     0
 40
0.0
 41
0.8
 50
0.0
 71
     0
 42
0.2
  3
txt
  4

  0
ENDTAB
  0
TABLE
  2
VIEW
 70
     0
  0
ENDTAB
  0
TABLE
  2
UCS
 70
     0
  0
ENDTAB
  0
TABLE
  2
APPID
 70
    10
  0
APPID
  2
ACAD
 70
     0
  0
APPID
  2
ACAD_MLEADERVER
 70
     0
  0
APPID
  2
ACAD_EXEMPT_FROM_CAD_STANDARDS
 70
     0
  0
APPID
  2
ACAD_DSTYLE_DIMJAG
 70
     0
  0
APPID
  2
ACAD_DSTYLE_DIMTALN
 70
     0
  0
APPID
  2
ACAD_NAV_VCDISPLAY
 70
     0
  0
APPID
  2
ACAECLAYERSTANDARD
 70
     0
  0
APPID
  2
ACCMTRANSPARENCY
 70
     0
  0
APPID
  2
DCO15
 70
     0
  0
APPID
  2
ACDBATTR
 70
     0
  0
ENDTAB
  0
TABLE
  2
DIMSTYLE
 70
     1
  0
DIMSTYLE
  2
STANDARD
 70
     0
  3

  4

  5

  6

  7

 40
1.0
 41
0.1875
 42
0.0625
 43
0.38
 44
0.125
 45
0.0
 46
0.0
 47
0.01
 48
0.01
140
0.15625
141
0.09
142
0.0
143
25.3999999999999986
144
1.0
145
0.0
146
1.0
147
0.09
 71
     1
 72
     0
 73
     1
 74
     1
 75
     0
 76
     0
 77
     0
 78
     4
170
     0
171
     2
172
     0
173
     0
174
     0
175
     0
176
     0
177
     0
178
     0
  0
ENDTAB
  0
ENDSEC
  0
SECTION
  2
BLOCKS
  0
BLOCK
  8
0
  2
$MODEL_SPACE
 70
     0
 10
0.0
 20
0.0
 30
0.0
  3
$MODEL_SPACE
  1

  0
ENDBLK
  5
21
  8
0
  0
BLOCK
 67
     1
  8
0
  2
$PAPER_SPACE
 70
     0
 10
0.0
 20
0.0
 30
0.0
  3
$PAPER_SPACE
  1

  0
ENDBLK
  5
1D
 67
     1
  8
0
  0
ENDSEC
  0
SECTION
  2
ENTITIES
  0
ATTDEF
  5
829
  8
DEFPOINTS
 10
498.5654876449605126
 20
39.7498247935871305
 30
0.0
 40
0.001
  1
K-8673T-4P
  3

  2
MODELNUMBER
 70
     0
1001
ACDBATTR
1070
     0
1070
     1
  0
ATTDEF
  5
82A
  8
DEFPOINTS
 10
498.5654876449605126
 20
39.7481581269204582
 30
0.0
 40
0.001
  1
FINIAL
  3

  2
TRADENAME
 70
     0
1001
ACDBATTR
1070
     0
1070
     1
  0
ATTDEF
  5
82B
  8
DEFPOINTS
 10
498.5654876449605126
 20
39.7464914602538002
 30
0.0
 40
0.001
  1
BATHROOM SINK FAUCET
  3

  2
PRODUCT
 70
     0
1001
ACDBATTR
1070
     0
1070
     1
  0
LINE
  5
9B75
  8
0
 10
490.4170248837808117
 20
47.190589379162077
 30
0.0
 11
490.4542864312808774
 21
47.2669868730620735
 31
0.0
  0
LINE
  5
9B76
  8
0
 10
490.5001046845807764
 20
46.7564176251620722
 30
0.0
 11
490.5478043750807728
 21
46.8542164838620678
 31
0.0
  0
LINE
  5
9B77
  8
0
 10
497.1860876055807807
 20
39.7533634085620804
 30
0.0
 11
497.2886875022808226
 21
39.7533634085620804
 31
0.0
  0
LINE
  5
9B78
  8
0
 10
497.2909773693809257
 20
39.7533634085620804
 30
0.0
 11
499.8449769931808078
 21
39.7533634085620804
 31
0.0
  0
LINE
  5
9B79
  8
0
 10
499.8470132497807867
 20
39.7533634085620804
 30
0.0
 11
499.9498671331808168
 21
39.7533634085620804
 31
0.0
  0
LINE
  5
9B7A
  8
0
 10
499.8448612614807871
 20
39.8613634085620774
 30
0.0
 11
497.2913252958442172
 21
39.8613634085620774
 31
0.0
  0
LINE
  5
9B7B
  8
0
 10
499.9498341989807955
 20
39.8635996192620823
 30
0.0
 11
499.8309086741808756
 21
39.8635996192620823
 31
0.0
  0
LINE
  5
9B7C
  8
0
 10
497.3050460645807789
 20
39.8635996192620823
 30
0.0
 11
497.1861205398807897
 21
39.8635996192620823
 31
0.0
  0
LINE
  5
9B7D
  8
0
 10
499.8379167111808101
 20
39.9809868930620667
 30
0.0
 11
499.7544334209807744
 21
39.9809868930620667
 31
0.0
  0
LINE
  5
9B7E
  8
0
 10
497.3815213177808232
 20
39.9809868930620667
 30
0.0
 11
497.2980380275807875
 21
39.9809868930620667
 31
0.0
  0
LINE
  5
9B7F
  8
0
 10
497.402765976180774
 20
39.9860986723620826
 30
0.0
 11
499.7331887626808111
 21
39.9860986723620826
 31
0.0
  0
LINE
  5
9B80
  8
0
 10
499.7490797315808209
 20
40.0722610463620725
 30
0.0
 11
499.6518086740808826
 21
40.0722610463620725
 31
0.0
  0
LINE
  5
9B81
  8
0
 10
497.4841460647808162
 20
40.0722610463620725
 30
0.0
 11
497.3868750071807767
 21
40.0722610463620725
 31
0.0
  0
LINE
  5
9B82
  8
0
 10
499.6409711622807777
 20
40.0733634085620665
 30
0.0
 11
497.4949835765809212
 21
40.0733634085620665
 31
0.0
  0
LINE
  5
9B83
  8
0
 10
499.7467561625808798
 20
40.1179587063620673
 30
0.0
 11
499.7461986738808832
 21
40.1179590227620722
 31
0.0
  0
LINE
  5
9B84
  8
0
 10
491.4645743022808233
 20
46.4070779141620733
 30
0.0
 11
491.4168746117808269
 21
46.3092790554620706
 31
0.0
  0
LINE
  5
9B85
  8
0
 10
491.8101556555807861
 20
46.5111141015620575
 30
0.0
 11
491.8474172029808074
 21
46.58751159556207
 31
0.0
  0
LINE
  5
9B86
  8
0
 10
498.1939785035808086
 20
43.0183634085620668
 30
0.0
 11
498.941976235180789
 21
43.0183634085620668
 31
0.0
  0
LINE
  5
9B87
  8
0
 10
498.941976235180789
 20
43.0419634085620686
 30
0.0
 11
498.1939785035808086
 21
43.0419634085620686
 31
0.0
  0
LINE
  5
9B88
  8
0
 10
498.9565980590808749
 20
43.0809636761620709
 30
0.0
 11
498.1793566797808808
 21
43.0809636761620709
 31
0.0
  0
LINE
  5
9B89
  8
0
 10
498.9565980590808749
 20
43.143463141062071
 30
0.0
 11
498.1793566797808808
 21
43.143463141062071
 31
0.0
  0
LINE
  5
9B8A
  8
0
 10
498.9319766924808732
 20
43.1824634085620715
 30
0.0
 11
498.2039780463808256
 21
43.1824634085620715
 31
0.0
  0
LINE
  5
9B8B
  8
0
 10
498.9158924335807797
 20
43.2059300752620672
 30
0.0
 11
498.2200623051808179
 21
43.2059300752620672
 31
0.0
  0
LINE
  5
9B8C
  8
0
 10
498.2354753240808805
 20
43.2636609067620768
 30
0.0
 11
498.900479414680774
 21
43.2636609067620768
 31
0.0
  0
LINE
  5
9B8D
  8
0
 10
490.6374739197808026
 20
46.6784673659620708
 30
0.0
 11
491.2708760232807776
 21
46.3695365184620698
 31
0.0
  0
LINE
  5
9B8E
  8
0
 10
490.5001046845807764
 20
46.7564176251620722
 30
0.0
 11
491.4168746117808269
 21
46.3092790554620706
 31
0.0
  0
LINE
  5
9B8F
  8
0
 10
490.3073815147807863
 20
46.9714785478620769
 30
0.0
 11
491.7049971625808098
 21
46.2898158501620713
 31
0.0
  0
LINE
  5
9B90
  8
0
 10
490.29371256588081
 20
47.0272960117620826
 30
0.0
 11
491.7573973695808149
 21
46.3134092335620835
 31
0.0
  0
LINE
  5
9B91
  8
0
 10
490.3396431752807985
 20
47.1214677166620675
 30
0.0
 11
491.803327979080791
 21
46.4075809384620825
 31
0.0
  0
LINE
  5
9B92
  8
0
 10
491.7931253360807773
 20
46.469353256062071
 30
0.0
 11
490.394601799980876
 21
47.1514587604620701
 31
0.0
  0
LINE
  5
9B93
  8
0
 10
490.4377623246808753
 20
47.2750462183620783
 30
0.0
 11
491.8516682600808849
 21
46.5854382164620588
 31
0.0
  0
LINE
  5
9B94
  8
0
 10
498.1879773693808033
 20
43.1664634085620733
 30
0.0
 11
498.1879773693808033
 21
43.159910368662068
 31
0.0
  0
LINE
  5
9B95
  8
0
 10
498.1879773693808033
 20
43.0645164485620668
 30
0.0
 11
498.1879773693808033
 21
43.0579634085620668
 31
0.0
  0
LINE
  5
9B96
  8
0
 10
498.1939773693807751
 20
43.0183634085620668
 30
0.0
 11
498.1939773693807751
 21
43.0419634085620686
 31
0.0
  0
LINE
  5
9B97
  8
0
 10
498.9419773693808793
 20
43.0183634085620668
 30
0.0
 11
498.9419773693808793
 21
43.0419634085620686
 31
0.0
  0
LINE
  5
9B98
  8
0
 10
498.9479773693807942
 20
43.1664634085620733
 30
0.0
 11
498.9479773693807942
 21
43.159910368662068
 31
0.0
  0
LINE
  5
9B99
  8
0
 10
498.9479773693807942
 20
43.0645164485620668
 30
0.0
 11
498.9479773693807942
 21
43.0579634085620668
 31
0.0
  0
ARC
  5
9B9A
  8
0
 10
479.6266581587807991
 20
39.8058521770620786
 30
0.0
 40
20.1225185840999998
 50
0.8895989188705463
 51
1.2555346662375879
  0
ARC
  5
9B9B
  8
0
 10
491.221098069780794
 20
43.2273611766620718
 30
0.0
 40
7.0
 50
333.8127884081005732
 51
357.933831827199981
  0
ARC
  5
9B9C
  8
0
 10
491.7522760106808164
 20
46.3741938671620701
 30
0.0
 40
0.061
 50
274.8160339385012207
 51
33.1839660615995484
  0
ARC
  5
9B9D
  8
0
 10
490.344764534180797
 20
47.0606830830620666
 30
0.0
 40
0.061
 50
94.8160339385011355
 51
213.1839660614992056
  0
ARC
  5
9B9E
  8
0
 10
491.7697099234807752
 20
46.5308408031620715
 30
0.0
 40
0.045
 50
243.9999999999982947
 51
333.9999999999997158
  0
ARC
  5
9B9F
  8
0
 10
490.4574706158808226
 20
47.1708626775620701
 30
0.0
 40
0.045
 50
153.9999999999996021
 51
243.9999999999982947
  0
ARC
  5
9BA0
  8
0
 10
491.7812893150808122
 20
46.4450858168620684
 30
0.0
 40
0.027
 50
326.5269657225005062
 51
64.0000000000011795
  0
ARC
  5
9BA1
  8
0
 10
490.3827657790807848
 20
47.1271913212620674
 30
0.0
 40
0.027
 50
64.0000000000011795
 51
162.4071635620996972
  0
ARC
  5
9BA2
  8
0
 10
490.3192175357808082
 20
46.9957459871620671
 30
0.0
 40
0.027
 50
153.9999999999996021
 51
243.9999999999982947
  0
ARC
  5
9BA3
  8
0
 10
491.7168331834807873
 20
46.3140832894620686
 30
0.0
 40
0.027
 50
243.9999999999982947
 51
333.9999999999997158
  0
ARC
  5
9BA4
  8
0
 10
490.3379640411807827
 20
47.1413971047620706
 30
0.0
 40
0.02
 50
274.8160339377004107
 51
342.4071635625995214
  0
ARC
  5
9BA5
  8
0
 10
491.8200663292807917
 20
46.4185275192620708
 30
0.0
 40
0.02
 50
145.592836437600198
 51
213.1839660622001986
  0
ARC
  5
9BA6
  8
0
 10
491.7590765036807738
 20
46.293479845562068
 30
0.0
 40
0.02
 50
94.8160339377003538
 51
153.9999999999996021
  0
ARC
  5
9BA7
  8
0
 10
490.2769742155808217
 20
47.0163494310620678
 30
0.0
 40
0.02
 50
333.9999999999997158
 51
33.1839660622002199
  0
ARC
  5
9BA8
  8
0
 10
490.644377402380826
 20
46.6926216029620775
 30
0.0
 40
0.0157480315
 50
176.0347674661998099
 51
243.9999999999982947
  0
ARC
  5
9BA9
  8
0
 10
491.277779505880801
 20
46.3836907553620676
 30
0.0
 40
0.0157480315
 50
243.9999999999982947
 51
311.9652325339009735
  0
ARC
  5
9BAA
  8
0
 10
497.408977369380807
 20
39.913363408562077
 30
0.0
 40
0.073
 50
94.881061013901558
 51
183.4010049561998983
  0
ARC
  5
9BAB
  8
0
 10
499.7269773693807906
 20
39.913363408562077
 30
0.0
 40
0.073
 50
356.5989950437996754
 51
85.118938986098442
  0
ARC
  5
9BAC
  8
0
 10
497.3081348496808118
 20
39.910843723562067
 30
0.0
 40
0.0708661417
 50
98.1912269513988036
 51
178.1514372678998939
  0
ARC
  5
9BAD
  8
0
 10
499.8278198890807857
 20
39.910843723562067
 30
0.0
 40
0.0708661417
 50
1.8485627321001019
 51
81.8087730486011964
  0
ARC
  5
9BAE
  8
0
 10
497.4949773693808766
 20
40.0173634085620691
 30
0.0
 40
0.056
 50
90.0
 51
174.8662338258000091
  0
ARC
  5
9BAF
  8
0
 10
499.6409773693807779
 20
40.0173634085620691
 30
0.0
 40
0.056
 50
5.1337661741001277
 51
90.0
  0
ARC
  5
9BB0
  8
0
 10
497.1860876055807807
 20
39.8084815188620809
 30
0.0
 40
0.0551181102
 50
89.9657645501018948
 51
270.0
  0
ARC
  5
9BB1
  8
0
 10
499.9498671331808168
 20
39.8084815188620809
 30
0.0
 40
0.0551181102
 50
270.0
 51
90.0342354498981052
  0
ARC
  5
9BB2
  8
0
 10
497.3868750071807767
 20
40.0171429361620667
 30
0.0
 40
0.0551181102
 50
90.0
 51
178.2943735085997901
  0
ARC
  5
9BB3
  8
0
 10
499.7490797315808209
 20
40.0171429361620667
 30
0.0
 40
0.0551181102
 50
1.70562649140013
 51
90.0
  0
ARC
  5
9BB4
  8
0
 10
499.8449773693807856
 20
39.8073634085620682
 30
0.0
 40
0.054
 50
270.0
 51
90.1202767017993551
  0
ARC
  5
9BB5
  8
0
 10
497.2909773693809257
 20
39.8073634085620682
 30
0.0
 40
0.054
 50
89.8797232982006449
 51
270.0
  0
ARC
  5
9BB6
  8
0
 10
499.9498036171808053
 20
39.9147807124620826
 30
0.0
 40
0.0511811024
 50
181.8485627321998948
 51
270.034235450298695
  0
ARC
  5
9BB7
  8
0
 10
497.1861511216807799
 20
39.9147807124620826
 30
0.0
 40
0.0511811024
 50
269.9657645496980081
 51
358.1514372678000768
  0
ARC
  5
9BB8
  8
0
 10
497.4330248333807845
 20
40.1172838415620703
 30
0.0
 40
0.0450238515
 50
176.8050839568998072
 51
269.9693564017010203
  0
ARC
  5
9BB9
  8
0
 10
499.7017401122807883
 20
40.1172824101620691
 30
0.0
 40
0.0450220553
 50
270.0273091483999792
 51
1.25756433752448
  0
ARC
  5
9BBA
  8
0
 10
497.291185192480782
 20
39.9063631904620806
 30
0.0
 40
0.045
 50
269.879723299001796
 51
3.4010049562001261
  0
ARC
  5
9BBB
  8
0
 10
499.8447695463808031
 20
39.9063631904620806
 30
0.0
 40
0.045
 50
176.5989950437997891
 51
270.1202766618795863
  0
ARC
  5
9BBC
  8
0
 10
499.5929773693807761
 20
40.1183634085620682
 30
0.0
 40
0.045
 50
270.0
 51
26.1872115918002102
  0
ARC
  5
9BBD
  8
0
 10
497.5429773693808215
 20
40.1183634085620682
 30
0.0
 40
0.045
 50
153.8127884081997934
 51
270.0
  0
ARC
  5
9BBE
  8
0
 10
499.7365922657809278
 20
40.0259536114620715
 30
0.0
 40
0.04
 50
185.1337661740998897
 51
265.1189389860003871
  0
ARC
  5
9BBF
  8
0
 10
497.3993624729807834
 20
40.0259536114620715
 30
0.0
 40
0.04
 50
274.8810610139996129
 51
354.866233825899883
  0
ARC
  5
9BC0
  8
0
 10
499.8435260568808189
 20
40.0199553205620688
 30
0.0
 40
0.0393700787
 50
181.7056264912999097
 51
261.8087730486012106
  0
ARC
  5
9BC1
  8
0
 10
497.2924286819808231
 20
40.0199553205620688
 30
0.0
 40
0.0393700787
 50
278.1912269513989031
 51
358.2943735086998913
  0
ARC
  5
9BC2
  8
0
 10
499.0265358394808004
 20
43.4631747603620724
 30
0.0
 40
0.236
 50
172.8113983157001883
 51
237.7145695659002058
  0
ARC
  5
9BC3
  8
0
 10
498.1094188992807972
 20
43.4631747603620724
 30
0.0
 40
0.236
 50
302.2854304340999079
 51
7.1886050402998531
  0
ARC
  5
9BC4
  8
0
 10
498.2615178110808074
 20
42.9733634085620722
 30
0.0
 40
0.045
 50
90.0
 51
177.9338318272000095
  0
ARC
  5
9BC5
  8
0
 10
498.8744369276807902
 20
42.9733634085620722
 30
0.0
 40
0.045
 50
2.0661681728000239
 51
90.0
  0
ARC
  5
9BC6
  8
0
 10
498.2589773693808866
 20
43.2264634085620685
 30
0.0
 40
0.044
 50
122.2854304340996947
 51
207.8181392845995106
  0
ARC
  5
9BC7
  8
0
 10
498.8769773693808816
 20
43.2264634085620685
 30
0.0
 40
0.044
 50
332.1818607154004894
 51
57.7145695659002769
  0
ARC
  5
9BC8
  8
0
 10
498.9349773693808743
 20
43.1122134085620701
 30
0.0
 40
0.038
 50
304.6781195867002907
 51
55.3218804129990929
  0
ARC
  5
9BC9
  8
0
 10
498.2009773693807801
 20
43.1122134085620701
 30
0.0
 40
0.038
 50
124.6781195870008929
 51
235.3218804132997093
  0
ARC
  5
9BCA
  8
0
 10
498.1679773693808784
 20
43.159910368662068
 30
0.0
 40
0.02
 50
304.6781195868990153
 51
0.0
  0
ARC
  5
9BCB
  8
0
 10
498.9679773693807761
 20
43.159910368662068
 30
0.0
 40
0.02
 50
180.0
 51
235.3218804131010131
  0
ARC
  5
9BCC
  8
0
 10
498.9679773693807761
 20
43.0645164485620668
 30
0.0
 40
0.02
 50
124.6781195867003049
 51
180.0
  0
ARC
  5
9BCD
  8
0
 10
498.1679773693808784
 20
43.0645164485620668
 30
0.0
 40
0.02
 50
0.0
 51
55.3218804132997022
  0
ARC
  5
9BCE
  8
0
 10
498.205911372780804
 20
43.1984634085620769
 30
0.0
 40
0.016
 50
270.0
 51
27.81813928419961
  0
ARC
  5
9BCF
  8
0
 10
498.9300433660807812
 20
43.1984634085620769
 30
0.0
 40
0.016
 50
152.1818607158002976
 51
270.0
  0
ARC
  5
9BD0
  8
0
 10
498.2039773693808229
 20
43.1664634085620733
 30
0.0
 40
0.016
 50
90.0
 51
180.0
  0
ARC
  5
9BD1
  8
0
 10
498.9319773693807747
 20
43.1664634085620733
 30
0.0
 40
0.016
 50
0.0
 51
90.0
  0
ARC
  5
9BD2
  8
0
 10
498.2039773693808229
 20
43.0579634085620668
 30
0.0
 40
0.016
 50
180.0
 51
254.9999999999988063
  0
ARC
  5
9BD3
  8
0
 10
498.9319773693807747
 20
43.0579634085620668
 30
0.0
 40
0.016
 50
285.0000000000011937
 51
0.0
  0
ARC
  5
9BD4
  8
0
 10
505.9148566689808035
 20
43.2273611766620718
 30
0.0
 40
7.0
 50
182.0661681727997916
 51
206.1872115918993984
  0
CIRCLE
  5
9BD5
  8
0
 10
498.5679773693807988
 20
43.8802490545620714
 30
0.0
 40
0.448
  0
CIRCLE
  5
9BD6
  8
0
 10
498.5679773693807988
 20
43.8802490545620714
 30
0.0
 40
0.245
  0
CIRCLE
  5
9BD7
  8
0
 10
498.5679773693807988
 20
43.8802490545620714
 30
0.0
 40
0.13
  0
ARC
  5
9BD8
  8
0
 10
460.1716512398091936
 20
42.1457346767004566
 30
0.0
 40
37.27152178257667
 50
356.8840785073413144
 51
2.6184383210337261
  0
ARC
  5
9BD9
  8
0
 10
491.4536178809449893
 20
43.9931047176686931
 30
0.0
 40
5.9523982935439861
 50
358.6076017768521069
 51
29.2797005276460887
  0
ARC
  5
9BDA
  8
0
 10
493.8546440370797086
 20
45.0815452462766331
 30
0.0
 40
3.3333887431278422
 50
33.148217183867871
 51
74.6343910279655915
  0
ARC
  5
9BDB
  8
0
 10
494.1298272824416813
 20
45.8452895764766382
 30
0.0
 40
2.524812818381704
 50
76.063562028390507
 51
117.4481974659999963
  0
ARC
  5
9BDC
  8
0
 10
494.2302509405008095
 20
45.9969354764977467
 30
0.0
 40
2.441711604776919
 50
121.1822967547078065
 51
155.0663837788578974
  0
ARC
  5
9BDD
  8
0
 10
494.2875889018981752
 20
45.9278708602913284
 30
0.0
 40
2.5231139889298051
 50
154.1930834194980093
 51
164.8933015913476936
  0
ARC
  5
9BDE
  8
0
 10
494.2193335287312266
 20
45.3144726310766828
 30
0.0
 40
4.259592652175022
 50
114.9065693054321002
 51
152.595303714791811
  0
ARC
  5
9BDF
  8
0
 10
494.2350057742607987
 20
45.280719802333337
 30
0.0
 40
4.2968065303405583
 50
60.5682552917735535
 51
114.9065693054321002
  0
ARC
  5
9BE0
  8
0
 10
493.0749743649720926
 20
43.7989746170068628
 30
0.0
 40
6.163807715650468
 50
12.0986099813786794
 51
57.9440470256251601
  0
ARC
  5
9BE1
  8
0
 10
480.1902890082153021
 20
40.1522536530565475
 30
0.0
 40
19.5457931612991089
 50
1.8339012153352721
 51
14.6355282157576791
  0
ARC
  5
9BE2
  8
0
 10
500.922737145056999
 20
40.553133685556169
 30
0.0
 40
1.2175663252699991
 50
169.3686697143589015
 51
194.5735763967400089
  0
ENDSEC
  0
EOF
