  0
SECTION
  2
HEADER
  9
$ACADVER
  1
AC1009
  9
$INSBASE
 10
3845.8026977524918948
 20
170.761536662387698
 30
0.0
  9
$EXTMIN
 10
3829.3026741454541479
 20
161.5012460493863955
 30
0.0
  9
$EXTMAX
 10
3862.3027101334650979
 20
171.3215366623877003
 30
0.0
  9
$LIMMIN
 10
0.0
 20
0.0
  9
$LIMMAX
 10
11.6929133858000007
 20
8.2677165353999982
  9
$ORTHOMODE
 70
     0
  9
$REGENMODE
 70
     1
  9
$FILLMODE
 70
     1
  9
$QTEXTMODE
 70
     0
  9
$MIRRTEXT
 70
     0
  9
$DRAGMODE
 70
     2
  9
$LTSCALE
 40
0.6431102362
  9
$OSMODE
 70
  4095
  9
$ATTMODE
 70
     1
  9
$TEXTSIZE
 40
0.2
  9
$TRACEWID
 40
0.05
  9
$TEXTSTYLE
  7
STANDARD
  9
$CLAYER
  8
0
  9
$CELTYPE
  6
BYLAYER
  9
$CECOLOR
 62
   256
  9
$DIMSCALE
 40
1.0
  9
$DIMASZ
 40
0.1875
  9
$DIMEXO
 40
0.0625
  9
$DIMDLI
 40
0.4443307087
  9
$DIMRND
 40
0.0
  9
$DIMDLE
 40
0.0
  9
$DIMEXE
 40
0.125
  9
$DIMTP
 40
0.01
  9
$DIMTM
 40
0.01
  9
$DIMTXT
 40
2.0
  9
$DIMCEN
 40
0.1052362205
  9
$DIMTSZ
 40
0.0
  9
$DIMTOL
 70
     1
  9
$DIMLIM
 70
     0
  9
$DIMTIH
 70
     1
  9
$DIMTOH
 70
     1
  9
$DIMSE1
 70
     0
  9
$DIMSE2
 70
     0
  9
$DIMTAD
 70
     0
  9
$DIMZIN
 70
     0
  9
$DIMBLK
  1

  9
$DIMASO
 70
     1
  9
$DIMSHO
 70
     1
  9
$DIMPOST
  1
\X
  9
$DIMAPOST
  1

  9
$DIMALT
 70
     1
  9
$DIMALTD
 70
     2
  9
$DIMALTF
 40
25.3999999999999986
  9
$DIMLFAC
 40
1.0
  9
$DIMTOFL
 70
     0
  9
$DIMTVP
 40
0.0
  9
$DIMTIX
 70
     0
  9
$DIMSOXD
 70
     0
  9
$DIMSAH
 70
     0
  9
$DIMBLK1
  1

  9
$DIMBLK2
  1

  9
$DIMSTYLE
  2
STANDARD
  9
$DIMCLRD
 70
     0
  9
$DIMCLRE
 70
     0
  9
$DIMCLRT
 70
     0
  9
$DIMTFAC
 40
1.0
  9
$DIMGAP
 40
0.09
  9
$LUNITS
 70
     2
  9
$LUPREC
 70
     4
  9
$SKETCHINC
 40
0.1
  9
$FILLETRAD
 40
0.0
  9
$AUNITS
 70
     0
  9
$AUPREC
 70
     0
  9
$MENU
  1
.
  9
$ELEVATION
 40
0.0
  9
$PELEVATION
 40
0.0
  9
$THICKNESS
 40
0.0
  9
$LIMCHECK
 70
     0
  9
$BLIPMODE
 70
     0
  9
$CHAMFERA
 40
0.0
  9
$CHAMFERB
 40
0.0
  9
$SKPOLY
 70
     0
  9
$TDCREATE
 40
2458060.468368056230247
  9
$TDUPDATE
 40
2459921.7279050932265818
  9
$TDINDWG
 40
0.4147640046
  9
$TDUSRTIMER
 40
0.4147640046
  9
$USRTIMER
 70
     1
  9
$ANGBASE
 50
0.0
  9
$ANGDIR
 70
     0
  9
$PDMODE
 70
     0
  9
$PDSIZE
 40
0.3125
  9
$PLINEWID
 40
0.0
  9
$COORDS
 70
     1
  9
$SPLFRAME
 70
     0
  9
$SPLINETYPE
 70
     6
  9
$SPLINESEGS
 70
     8
  9
$ATTDIA
 70
     1
  9
$ATTREQ
 70
     1
  9
$HANDLING
 70
     1
  9
$HANDSEED
  5
15495
  9
$SURFTAB1
 70
     6
  9
$SURFTAB2
 70
     6
  9
$SURFTYPE
 70
     6
  9
$SURFU
 70
     6
  9
$SURFV
 70
     6
  9
$UCSNAME
  2

  9
$UCSORG
 10
0.0
 20
0.0
 30
0.0
  9
$UCSXDIR
 10
1.0
 20
0.0
 30
0.0
  9
$UCSYDIR
 10
0.0
 20
1.0
 30
0.0
  9
$PUCSNAME
  2

  9
$PUCSORG
 10
0.0
 20
0.0
 30
0.0
  9
$PUCSXDIR
 10
1.0
 20
0.0
 30
0.0
  9
$PUCSYDIR
 10
0.0
 20
1.0
 30
0.0
  9
$USERI1
 70
     0
  9
$USERI2
 70
     0
  9
$USERI3
 70
     0
  9
$USERI4
 70
     0
  9
$USERI5
 70
     0
  9
$USERR1
 40
0.0
  9
$USERR2
 40
0.0
  9
$USERR3
 40
0.0
  9
$USERR4
 40
0.0
  9
$USERR5
 40
0.0
  9
$WORLDVIEW
 70
     1
  9
$SHADEDGE
 70
     3
  9
$SHADEDIF
 70
    70
  9
$TILEMODE
 70
     1
  9
$MAXACTVP
 70
    64
  9
$PLIMCHECK
 70
     0
  9
$PEXTMIN
 10
1.0000000000000000E+20
 20
1.0000000000000000E+20
 30
1.0000000000000000E+20
  9
$PEXTMAX
 10
-1.0000000000000000E+20
 20
-1.0000000000000000E+20
 30
-1.0000000000000000E+20
  9
$PLIMMIN
 10
0.0
 20
0.0
  9
$PLIMMAX
 10
12.0
 20
9.0
  9
$UNITMODE
 70
     0
  9
$VISRETAIN
 70
     1
  9
$PLINEGEN
 70
     0
  9
$PSLTSCALE
 70
     1
  0
ENDSEC
  0
SECTION
  2
TABLES
  0
TABLE
  2
VPORT
 70
     1
  0
VPORT
  2
*ACTIVE
 70
     0
 10
0.0
 20
0.0
 11
1.0
 21
1.0
 12
51.7523571395353414
 22
36.5396064620121308
 13
0.0
 23
0.0
 14
1.0
 24
1.0
 15
0.0
 25
0.0
 16
0.0
 26
0.0
 36
17.1152628219792007
 17
3803.5440673828129547
 27
125.9952621967499056
 37
0.0
 40
43.1504165225554672
 41
2.7227011494252871
 42
50.0
 43
0.0
 44
0.0
 50
0.0
 51
0.0
 71
     0
 72
   100
 73
     1
 74
     1
 75
     0
 76
     0
 77
     0
 78
     0
  0
ENDTAB
  0
TABLE
  2
LTYPE
 70
     2
  0
LTYPE
  2
CONTINUOUS
 70
     0
  3
Solid line
 72
    65
 73
     0
 40
0.0
  0
LTYPE
  2
PHANTOM2
 70
     0
  3
___ _ _ ___ _ _ ___ _ _ ___ _ _
 72
    65
 73
     6
 40
1.25
 49
0.625
 49
-0.125
 49
0.125
 49
-0.125
 49
0.125
 49
-0.125
  0
ENDTAB
  0
TABLE
  2
LAYER
 70
     2
  0
LAYER
  2
0
 70
     0
 62
   255
  6
CONTINUOUS
  0
LAYER
  2
DEFPOINTS
 70
     0
 62
     7
  6
CONTINUOUS
  0
ENDTAB
  0
TABLE
  2
STYLE
 70
     1
  0
STYLE
  2
STANDARD
 70
     0
 40
0.0
 41
0.8
 50
0.0
 71
     0
 42
0.2
  3
txt
  4

  0
ENDTAB
  0
TABLE
  2
VIEW
 70
     0
  0
ENDTAB
  0
TABLE
  2
UCS
 70
     0
  0
ENDTAB
  0
TABLE
  2
APPID
 70
     9
  0
APPID
  2
ACAD
 70
     0
  0
APPID
  2
ACAD_MLEADERVER
 70
     0
  0
APPID
  2
ACAD_EXEMPT_FROM_CAD_STANDARDS
 70
     0
  0
APPID
  2
ACAD_NAV_VCDISPLAY
 70
     0
  0
APPID
  2
ACAECLAYERSTANDARD
 70
     0
  0
APPID
  2
ACCMTRANSPARENCY
 70
     0
  0
APPID
  2
ACAD_DSTYLE_DIMJAG
 70
     0
  0
APPID
  2
ACAD_DSTYLE_DIMTALN
 70
     0
  0
APPID
  2
ACDBATTR
 70
     0
  0
ENDTAB
  0
TABLE
  2
DIMSTYLE
 70
     1
  0
DIMSTYLE
  2
STANDARD
 70
     0
  3

  4

  5

  6

  7

 40
1.0
 41
0.1875
 42
0.0625
 43
0.38
 44
0.125
 45
0.0
 46
0.0
 47
0.01
 48
0.01
140
0.15625
141
0.09
142
0.0
143
25.3999999999999986
144
1.0
145
0.0
146
1.0
147
0.09
 71
     1
 72
     0
 73
     1
 74
     1
 75
     0
 76
     0
 77
     0
 78
     4
170
     0
171
     2
172
     0
173
     0
174
     0
175
     0
176
     0
177
     0
178
     0
  0
ENDTAB
  0
ENDSEC
  0
SECTION
  2
BLOCKS
  0
BLOCK
  8
0
  2
$MODEL_SPACE
 70
     0
 10
0.0
 20
0.0
 30
0.0
  3
$MODEL_SPACE
  1

  0
ENDBLK
  5
21
  8
0
  0
BLOCK
 67
     1
  8
0
  2
$PAPER_SPACE
 70
     0
 10
0.0
 20
0.0
 30
0.0
  3
$PAPER_SPACE
  1

  0
ENDBLK
  5
1D
 67
     1
  8
0
  0
BLOCK
  8
0
  2
_FILLED
 70
     0
 10
0.0
 20
0.0
 30
0.0
  3
_FILLED
  1

  0
SOLID
  5
13611
  8
0
  6
BYBLOCK
 62
     0
 10
0.0
 20
0.0
 30
0.0
 11
-1.0
 21
0.1666666667
 31
0.0
 12
-1.0
 22
-0.1666666667
 32
0.0
 13
-1.0
 23
-0.1666666667
 33
0.0
  0
ENDBLK
  5
13612
  8
0
  6
BYBLOCK
 62
     0
  0
ENDSEC
  0
SECTION
  2
ENTITIES
  0
ATTDEF
  5
1332C
  8
DEFPOINTS
 10
3845.8027661966389132
 20
170.7597601059663077
 30
0.0
 40
0.001
  1
K-8679-1A2
  3

  2
MODELNUMBER
 70
     0
1001
ACDBATTR
1070
     0
1070
     1
  0
ATTDEF
  5
1332D
  8
DEFPOINTS
 10
3845.8027661966389132
 20
170.7580934392996141
 30
0.0
 40
0.001
  1
RIVERBY
  3

  2
TRADENAME
 70
     0
1001
ACDBATTR
1070
     0
1070
     1
  0
ATTDEF
  5
1332E
  8
DEFPOINTS
 10
3845.8027661966389132
 20
170.7564267726330058
 30
0.0
 40
0.001
  1
KITCHEN SINK
  3

  2
PRODUCT
 70
     0
1001
ACDBATTR
1070
     0
1070
     1
  0
LINE
  5
15278
  8
0
 10
3829.8161972589778088
 20
171.3215366623877003
 30
0.0
 11
3861.7891982460068903
 21
171.3215366623877003
 31
0.0
  0
LINE
  5
15279
  8
0
 10
3831.9453200688071774
 20
161.5015366623877071
 30
0.0
 11
3832.463578134519139
 21
161.5015366623877071
 31
0.0
  0
LINE
  5
1527A
  8
0
 10
3843.3775512031188555
 20
161.5015366623877071
 30
0.0
 11
3843.8956493928189957
 21
161.5015366623877071
 31
0.0
  0
LINE
  5
1527B
  8
0
 10
3829.3237945908399524
 20
170.9083676039383022
 30
0.0
 11
3829.3030771372191339
 21
170.7908778667876959
 31
0.0
  0
ARC
  5
1527C
  8
0
 10
3829.8161972589778088
 20
170.8215366623877003
 30
0.0
 40
0.5
 50
90.0
 51
169.9992026215300882
  0
ARC
  5
1527D
  8
0
 10
3829.3275555570380675
 20
170.7864178661606047
 30
0.0
 40
0.0248814115845695
 50
169.6739047261368967
 51
270.2341722032768985
  0
ARC
  5
1527E
  8
0
 10
3830.0543294226449689
 20
170.5257552733889952
 30
0.0
 40
0.3692887536917133
 50
4.4885690686861599
 51
39.6781478606528211
  0
ARC
  5
1527F
  8
0
 10
360086.0604614263866097
 20
31337.0032483221002622
 30
0.0
 40
357616.3126976449275389
 50
184.9996997732849877
 51
185.0008751372706968
  0
ARC
  5
15280
  8
0
 10
3832.1964625317400532
 20
163.2061267696601874
 30
0.0
 40
1.1352705204457429
 50
177.9647854869832884
 51
252.0014967307569975
  0
ARC
  5
15281
  8
0
 10
3831.9453200688071774
 20
161.5615366623555076
 30
0.0
 40
0.0599999999678507
 50
183.9999999477765869
 51
270.000000012089572
  0
ARC
  5
15282
  8
0
 10
3832.4635781345309624
 20
161.5615366623555076
 30
0.0
 40
0.0599999999678511
 50
269.999999987910428
 51
356.0000000522232995
  0
ARC
  5
15283
  8
0
 10
4176.3961779354185637
 20
137.8561084708910016
 30
0.0
 40
344.688575852212125
 50
175.9844142429884073
 51
176.0571551349190997
  0
ARC
  5
15284
  8
0
 10
3832.8042268740850886
 20
161.9760057042722963
 30
0.0
 40
0.2510660770346066
 50
160.4039838943010068
 51
175.9124405694574023
  0
ARC
  5
15285
  8
0
 10
7222.2421163411272573
 20
398.925037274934482
 30
0.0
 40
3398.6558568555510647
 50
183.995108635488009
 51
184.0048913803287007
  0
ARC
  5
15286
  8
0
 10
3831.6222765472411993
 20
162.1280889551869961
 30
0.0
 40
0.2228593478076444
 50
2.0929590219128129
 51
65.460658501366936
  0
ARC
  5
15287
  8
0
 10
3832.1671369718351343
 20
163.3439638433999903
 30
0.0
 40
1.109522768474108
 50
185.0424098770002104
 51
245.942365185057497
  0
ARC
  5
15288
  8
0
 10
5628.2011310611869703
 20
51553.3095459506002953
 30
0.0
 40
51422.6098884915118106
 50
267.9988737075042877
 51
268.0011262939573271
  0
ARC
  5
15289
  8
0
 10
3834.5454215821800972
 20
160.7427408440609042
 30
0.0
 40
1.247645215310301
 50
49.9606496006890382
 51
88.0372416700372327
  0
ARC
  5
1528A
  8
0
 10
3835.3930771538239242
 20
161.7515367565509905
 30
0.0
 40
0.0700000941633073
 50
229.9644342076655903
 51
269.9999864084853129
  0
LINE
  5
1528B
  8
0
 10
3835.3930771372188246
 20
161.6815366623877139
 30
0.0
 11
3840.4530771372192248
 21
161.6815366623877139
 31
0.0
  0
ARC
  5
1528C
  8
0
 10
3840.4530807141582045
 20
161.7515163785728873
 30
0.0
 40
0.0699797162765989
 50
269.9970713875028991
 51
310.0099299922867999
  0
ARC
  5
1528D
  8
0
 10
3841.3012886474430161
 20
160.7412820885460008
 30
0.0
 40
1.2491222587276489
 50
91.9859526783375401
 51
130.0177402819585097
  0
ARC
  5
1528E
  8
0
 10
506.3181872045265095
 20
95691.0605680919543374
 30
0.0
 40
95587.2649114850646583
 50
271.9993956546961726
 51
272.0006042246163815
  0
ARC
  5
1528F
  8
0
 10
3832.8081140521999259
 20
161.9722925238023947
 30
0.0
 40
0.2559828677748577
 50
90.9069202759990134
 51
159.912810385609589
  0
ARC
  5
15290
  8
0
 10
3831.7313948448868359
 20
162.3635164905882107
 30
0.0
 40
0.0366523902697604
 50
218.659765588198411
 51
243.1385664570547078
  0
ARC
  5
15291
  8
0
 10
3831.7085128673188592
 20
162.3450605203292127
 30
0.0
 40
0.0072561652437044
 50
137.7811058494341978
 51
217.7322798546337879
  0
ARC
  5
15292
  8
0
 10
3831.7303663747838982
 20
162.3194628907280048
 30
0.0
 40
0.0408651582664583
 50
102.0858144866146944
 51
131.7799645313754979
  0
ARC
  5
15293
  8
0
 10
3831.8332016435069818
 20
161.8325815224202131
 30
0.0
 40
0.5384879206150464
 50
89.7601874513178046
 51
101.9383881869871971
  0
ARC
  5
15294
  8
0
 10
3831.8433296845200857
 20
158.6380332470563985
 30
0.0
 40
3.733039783848954
 50
82.2230786731094696
 51
90.1208555445111585
  0
ARC
  5
15295
  8
0
 10
3832.0814758671999698
 20
160.2047665787235928
 30
0.0
 40
2.1486249884351341
 50
70.3482803763791509
 51
82.8617743183040858
  0
ARC
  5
15296
  8
0
 10
3837.9229238038828953
 20
433.7498417120385739
 30
0.0
 40
271.56984577432371
 50
268.9199591463133743
 51
271.0791609391641259
  0
ARC
  5
15297
  8
0
 10
3843.0341534138310635
 20
161.9744249164390055
 30
0.0
 40
0.253763443629361
 50
4.3128451747779311
 51
89.2183125667529566
  0
ARC
  5
15298
  8
0
 10
24659.8680751185311237
 20
1617.411501479097069
 30
0.0
 40
20867.3975602235586848
 50
183.999399762189114
 51
184.0006002468959991
  0
ARC
  5
15299
  8
0
 10
3843.3768543441369729
 20
161.5607893726235034
 30
0.0
 40
0.0592568079019095
 50
183.3261871413546089
 51
270.6738128553147931
  0
ARC
  5
1529A
  8
0
 10
3843.8956493928189957
 20
161.5615366623877094
 30
0.0
 40
0.0600000000000005
 50
270.0
 51
355.9999999996995257
  0
ARC
  5
1529B
  8
0
 10
3341.1249478273248315
 20
197.003688053629503
 30
0.0
 40
504.0783770838892224
 50
355.9676846507803134
 51
356.0323153533976779
  0
ARC
  5
1529C
  8
0
 10
3844.2365583714608874
 20
162.1148608014790113
 30
0.0
 40
0.2415863452012054
 50
114.0337027402052001
 51
177.6952982484444874
  0
ARC
  5
1529D
  8
0
 10
3843.672504603690868
 20
163.3513689362748948
 30
0.0
 40
1.1175081663511071
 50
294.6262101388924179
 51
355.0226520013522986
  0
ARC
  5
1529E
  8
0
 10
3843.6494830712581461
 20
163.2080273847836906
 30
0.0
 40
1.1372619748127919
 50
287.695723609078982
 51
2.3375173616413312
  0
ARC
  5
1529F
  8
0
 10
4939.8319909039000777
 20
70.3913568231722877
 30
0.0
 40
1098.9766648888639793
 50
174.8472487809929987
 51
175.1527512191588016
  0
ARC
  5
152A0
  8
0
 10
3845.6890113862191356
 20
169.0575366623876903
 30
0.0
 40
0.3940000000000001
 50
90.0
 51
174.9999999999994031
  0
LINE
  5
152A1
  8
0
 10
3845.6890113862191356
 20
169.4515366623876957
 30
0.0
 11
3845.9163832758190438
 21
169.4515366623876957
 31
0.0
  0
LINE
  5
152A2
  8
0
 10
3859.6598694893500578
 20
161.5012460493996116
 30
0.0
 11
3859.1416114237508737
 21
161.5012569182412108
 31
0.0
  0
LINE
  5
152A3
  8
0
 10
3848.2276383575522232
 20
161.5014858046847905
 30
0.0
 11
3847.7095401679648603
 21
161.5014966701735943
 31
0.0
  0
LINE
  5
152A4
  8
0
 10
3862.2815922455929467
 20
170.9080220105853982
 30
0.0
 11
3862.3023072352289091
 21
170.7905318389769036
 31
0.0
  0
ARC
  5
152A5
  8
0
 10
3861.7885266684997987
 20
170.8208197255777918
 30
0.0
 40
0.5007173871803023
 50
10.0294704785789897
 51
89.9231531212678732
  0
ARC
  5
152A6
  8
0
 10
3862.2778287218798141
 20
170.7860723517090946
 30
0.0
 40
0.0248814115845695
 50
279.5624230158904879
 51
10.3248936741230697
  0
ARC
  5
152A7
  8
0
 10
3861.5510493898509594
 20
170.5254250008030112
 30
0.0
 40
0.3692887536917132
 50
140.3206505395964996
 51
175.5102293315723045
  0
ARC
  5
152A8
  8
0
 10
-352393.8013849006965756
 20
31344.4742664680197777
 30
0.0
 40
357616.3126976448111236
 50
354.9979232629893886
 51
354.9990986269733071
  0
ARC
  5
152A9
  8
0
 10
3859.4087627749158855
 20
163.2058414232247969
 30
0.0
 40
1.1352705204457429
 50
287.9973016695211072
 51
2.0340129132756282
  0
ARC
  5
152AA
  8
0
 10
3859.6598707476628078
 20
161.561246049354196
 30
0.0
 40
0.0599999999678507
 50
269.9987983881625269
 51
355.9987984524825038
  0
ARC
  5
152AB
  8
0
 10
3859.1416126820508907
 20
161.5612569181959088
 30
0.0
 40
0.0599999999678511
 50
183.9987983480368996
 51
269.998798412341614
  0
ARC
  5
152AC
  8
0
 10
3515.2085158095978841
 20
137.8630416423195868
 30
0.0
 40
344.6885758522120113
 50
3.9416432653390499
 51
4.0143841572722181
  0
ARC
  5
152AD
  8
0
 10
3858.8009726347640935
 20
161.9757331040632096
 30
0.0
 40
0.2510660770346065
 50
4.0863578308034434
 51
19.5948145059597003
  0
ARC
  5
152AE
  8
0
 10
469.3680531777953888
 20
398.9958474793552909
 30
0.0
 40
3398.6558568555501552
 50
355.9939070199321236
 51
356.0036897647705132
  0
ARC
  5
152AF
  8
0
 10
3859.982926150818912
 20
162.1277915672337997
 30
0.0
 40
0.2228593478076443
 50
114.5381398989113961
 51
177.9058393783469967
  0
ARC
  5
152B0
  8
0
 10
3859.4380912255178373
 20
163.3436778819223889
 30
0.0
 40
1.109522768474108
 50
294.0564332151997178
 51
354.9563885232574876
  0
ARC
  5
152B1
  8
0
 10
2064.4818412987788179
 20
51553.346914882560668
 30
0.0
 40
51422.6098884914972587
 50
271.9976721062917022
 51
271.9999246927638978
  0
ARC
  5
152B2
  8
0
 10
3857.0604780470898731
 20
160.7406134929643997
 30
0.0
 40
1.249560398725782
 50
91.9918572567331552
 51
130.0078482730392864
  0
ARC
  5
152B3
  8
0
 10
3856.2121176480609392
 20
161.7513184494272878
 30
0.0
 40
0.0700000941633072
 50
269.9988119917667859
 51
310.0343641925978204
  0
LINE
  5
152B4
  8
0
 10
3856.212116196631996
 20
161.6813183552791031
 30
0.0
 11
3851.1521161977448173
 21
161.6814244729501979
 31
0.0
  0
ARC
  5
152B5
  8
0
 10
3851.1521140884128727
 20
161.7514041891950001
 30
0.0
 40
0.0699797162765989
 50
229.9888684079726033
 51
270.0017270127743245
  0
ARC
  5
152B6
  8
0
 10
3850.3038849688091432
 20
160.74118768789819
 30
0.0
 40
1.2491222587276489
 50
49.9810581182983711
 51
88.0128457219363725
  0
ARC
  5
152B7
  8
0
 10
7187.2904352830491916
 20
95690.990511845346191
 30
0.0
 40
95587.2649114850501064
 50
267.9981941756233823
 51
267.9994027455684886
  0
ARC
  5
152B8
  8
0
 10
3858.7970853787769556
 20
161.9720200051154961
 30
0.0
 40
0.2559828677748576
 50
20.0859880146523793
 51
89.0918781242556861
  0
ARC
  5
152B9
  8
0
 10
3859.8738127905530746
 20
162.3632213909982056
 30
0.0
 40
0.0366523902697604
 50
296.8602319431961973
 51
321.3390328120640902
  0
ARC
  5
152BA
  8
0
 10
3859.8966943810601151
 20
162.3447649408653035
 30
0.0
 40
0.0072561652437044
 50
322.2665185456218069
 51
42.2176925508147818
  0
ARC
  5
152BB
  8
0
 10
3859.8748403367699211
 20
162.3191677695787121
 30
0.0
 40
0.0408651582664583
 50
48.2188338688792584
 51
77.9129839136434867
  0
ARC
  5
152BC
  8
0
 10
3859.7719948572557769
 20
161.8322885580259936
 30
0.0
 40
0.5384879206150462
 50
78.0604102132806759
 51
90.2386109489360138
  0
ARC
  5
152BD
  8
0
 10
3859.7617998205869299
 20
158.6377404957686963
 30
0.0
 40
3.7330397838489531
 50
89.8779428557509732
 51
97.7757197271710936
  0
ARC
  5
152BE
  8
0
 10
3859.5236864952921678
 20
160.204478821462601
 30
0.0
 40
2.1486249884351332
 50
97.1370240819496473
 51
109.6505180238762023
  0
ARC
  5
152BF
  8
0
 10
3853.6879753121270369
 20
433.7496764007194088
 30
0.0
 40
271.5698457743235963
 50
268.9196374610860971
 51
271.0788392539337224
  0
ARC
  5
152C0
  8
0
 10
3848.5710460641162172
 20
161.9743668569377064
 30
0.0
 40
0.253763443629361
 50
90.7804858335168916
 51
175.6859532254827059
  0
ARC
  5
152C1
  8
0
 10
-16968.2323478230391629
 20
1617.8480110708690063
 30
0.0
 40
20867.3975602235586848
 50
355.9981981533633189
 51
355.9993986380704882
  0
ARC
  5
152C2
  8
0
 10
3848.2283364591739883
 20
161.5607385002930982
 30
0.0
 40
0.0592568079019095
 50
269.3249855449432744
 51
356.6726112589058175
  0
ARC
  5
152C3
  8
0
 10
3847.709541426278065
 20
161.5614966701604089
 30
0.0
 40
0.0600000000000005
 50
183.9987984005607871
 51
269.9987984002520989
  0
ARC
  5
152C4
  8
0
 10
4350.480986169460266
 20
196.9931040109329956
 30
0.0
 40
504.0783770838891087
 50
183.9664830468622085
 51
184.0311137494790898
  0
ARC
  5
152C5
  8
0
 10
3847.3686440519541065
 20
162.1148279586294052
 30
0.0
 40
0.2415863452012054
 50
2.3035001518154701
 51
65.9650956600499256
  0
ARC
  5
152C6
  8
0
 10
3847.9327237514899025
 20
163.351324263890092
 30
0.0
 40
1.1175081663511071
 50
184.9761463989073889
 51
245.3725882613626936
  0
ARC
  5
152C7
  8
0
 10
3847.955742277777972
 20
163.2079822296257987
 30
0.0
 40
1.1372619748127919
 50
177.6612810386187107
 51
252.3030747911718095
  0
ARC
  5
152C8
  8
0
 10
2751.771288146886036
 20
70.4143006873993045
 30
0.0
 40
1098.9766648888630698
 50
4.8460471811020804
 51
5.1515496192684038
  0
ARC
  5
152C9
  8
0
 10
3845.9163322669592162
 20
169.0575321230165002
 30
0.0
 40
0.3940045426730669
 50
4.9990552899644021
 51
89.9925823384076438
  0
LINE
  5
152CA
  8
0
 10
3829.327657248973992
 20
170.761536662387698
 30
0.0
 11
3862.2819620730601855
 21
170.761536662387698
 31
0.0
  0
ENDSEC
  0
EOF
