  0
SECTION
  2
HEADER
  9
$ACADVER
  1
AC1009
  9
$INSBASE
 10
6515.4838353429850031
 20
274.6229731656267745
 30
0.0
  9
$EXTMIN
 10
6498.7489486039148687
 20
265.3608180651121984
 30
-0.0000000349181948
  9
$EXTMAX
 10
6532.3658872233863804
 20
275.1939872276054757
 30
0.0000000814935746
  9
$LIMMIN
 10
0.0
 20
0.0
  9
$LIMMAX
 10
11.6929133858000007
 20
8.2677165353999982
  9
$ORTHOMODE
 70
     0
  9
$REGENMODE
 70
     1
  9
$FILLMODE
 70
     1
  9
$QTEXTMODE
 70
     0
  9
$MIRRTEXT
 70
     0
  9
$DRAGMODE
 70
     2
  9
$LTSCALE
 40
0.6431102362
  9
$OSMODE
 70
  4095
  9
$ATTMODE
 70
     1
  9
$TEXTSIZE
 40
0.2
  9
$TRACEWID
 40
0.05
  9
$TEXTSTYLE
  7
STANDARD
  9
$CLAYER
  8
0
  9
$CELTYPE
  6
BYLAYER
  9
$CECOLOR
 62
   256
  9
$DIMSCALE
 40
1.0
  9
$DIMASZ
 40
0.1875
  9
$DIMEXO
 40
0.0625
  9
$DIMDLI
 40
0.4443307087
  9
$DIMRND
 40
0.0
  9
$DIMDLE
 40
0.0
  9
$DIMEXE
 40
0.125
  9
$DIMTP
 40
0.01
  9
$DIMTM
 40
0.01
  9
$DIMTXT
 40
2.0
  9
$DIMCEN
 40
0.1052362205
  9
$DIMTSZ
 40
0.0
  9
$DIMTOL
 70
     1
  9
$DIMLIM
 70
     0
  9
$DIMTIH
 70
     1
  9
$DIMTOH
 70
     1
  9
$DIMSE1
 70
     0
  9
$DIMSE2
 70
     0
  9
$DIMTAD
 70
     0
  9
$DIMZIN
 70
     0
  9
$DIMBLK
  1

  9
$DIMASO
 70
     1
  9
$DIMSHO
 70
     1
  9
$DIMPOST
  1
\X
  9
$DIMAPOST
  1

  9
$DIMALT
 70
     1
  9
$DIMALTD
 70
     2
  9
$DIMALTF
 40
25.3999999999999986
  9
$DIMLFAC
 40
1.0
  9
$DIMTOFL
 70
     0
  9
$DIMTVP
 40
0.0
  9
$DIMTIX
 70
     0
  9
$DIMSOXD
 70
     0
  9
$DIMSAH
 70
     0
  9
$DIMBLK1
  1

  9
$DIMBLK2
  1

  9
$DIMSTYLE
  2
STANDARD
  9
$DIMCLRD
 70
     0
  9
$DIMCLRE
 70
     0
  9
$DIMCLRT
 70
     0
  9
$DIMTFAC
 40
1.0
  9
$DIMGAP
 40
0.09
  9
$LUNITS
 70
     2
  9
$LUPREC
 70
     4
  9
$SKETCHINC
 40
0.1
  9
$FILLETRAD
 40
0.0
  9
$AUNITS
 70
     0
  9
$AUPREC
 70
     0
  9
$MENU
  1
.
  9
$ELEVATION
 40
0.0
  9
$PELEVATION
 40
0.0
  9
$THICKNESS
 40
0.0
  9
$LIMCHECK
 70
     0
  9
$BLIPMODE
 70
     0
  9
$CHAMFERA
 40
0.0
  9
$CHAMFERB
 40
0.0
  9
$SKPOLY
 70
     0
  9
$TDCREATE
 40
2458060.468368056230247
  9
$TDUPDATE
 40
2460472.6305208331905305
  9
$TDINDWG
 40
0.7624491898
  9
$TDUSRTIMER
 40
0.7624491898
  9
$USRTIMER
 70
     1
  9
$ANGBASE
 50
0.0
  9
$ANGDIR
 70
     0
  9
$PDMODE
 70
     0
  9
$PDSIZE
 40
0.3125
  9
$PLINEWID
 40
0.0
  9
$COORDS
 70
     1
  9
$SPLFRAME
 70
     0
  9
$SPLINETYPE
 70
     6
  9
$SPLINESEGS
 70
     8
  9
$ATTDIA
 70
     1
  9
$ATTREQ
 70
     1
  9
$HANDLING
 70
     1
  9
$HANDSEED
  5
339F5
  9
$SURFTAB1
 70
     6
  9
$SURFTAB2
 70
     6
  9
$SURFTYPE
 70
     6
  9
$SURFU
 70
     6
  9
$SURFV
 70
     6
  9
$UCSNAME
  2

  9
$UCSORG
 10
0.0
 20
0.0
 30
0.0
  9
$UCSXDIR
 10
1.0
 20
0.0
 30
0.0
  9
$UCSYDIR
 10
0.0
 20
1.0
 30
0.0
  9
$PUCSNAME
  2

  9
$PUCSORG
 10
0.0
 20
0.0
 30
0.0
  9
$PUCSXDIR
 10
1.0
 20
0.0
 30
0.0
  9
$PUCSYDIR
 10
0.0
 20
1.0
 30
0.0
  9
$USERI1
 70
     0
  9
$USERI2
 70
     0
  9
$USERI3
 70
     0
  9
$USERI4
 70
     0
  9
$USERI5
 70
     0
  9
$USERR1
 40
0.0
  9
$USERR2
 40
0.0
  9
$USERR3
 40
0.0
  9
$USERR4
 40
0.0
  9
$USERR5
 40
0.0
  9
$WORLDVIEW
 70
     1
  9
$SHADEDGE
 70
     3
  9
$SHADEDIF
 70
    70
  9
$TILEMODE
 70
     1
  9
$MAXACTVP
 70
    64
  9
$PLIMCHECK
 70
     0
  9
$PEXTMIN
 10
1.0000000000000000E+20
 20
1.0000000000000000E+20
 30
1.0000000000000000E+20
  9
$PEXTMAX
 10
-1.0000000000000000E+20
 20
-1.0000000000000000E+20
 30
-1.0000000000000000E+20
  9
$PLIMMIN
 10
0.0
 20
0.0
  9
$PLIMMAX
 10
12.0
 20
9.0
  9
$UNITMODE
 70
     0
  9
$VISRETAIN
 70
     1
  9
$PLINEGEN
 70
     0
  9
$PSLTSCALE
 70
     1
  0
ENDSEC
  0
SECTION
  2
TABLES
  0
TABLE
  2
VPORT
 70
     1
  0
VPORT
  2
*ACTIVE
 70
     0
 10
0.0
 20
0.0
 11
1.0
 21
1.0
 12
2604.192061468339034
 22
137.6977975438196893
 13
0.0
 23
0.0
 14
1.0
 24
1.0
 15
0.0
 25
0.0
 16
0.0
 26
0.0
 36
60.4960186965801583
 17
3911.3653564453120453
 27
132.5796051025390057
 37
0.0
 40
11.8876569254446594
 41
2.8368263473053892
 42
50.0
 43
0.0
 44
0.0
 50
0.0
 51
0.0
 71
     0
 72
   100
 73
     1
 74
     1
 75
     0
 76
     0
 77
     0
 78
     0
  0
ENDTAB
  0
TABLE
  2
LTYPE
 70
     2
  0
LTYPE
  2
CONTINUOUS
 70
     0
  3
Solid line
 72
    65
 73
     0
 40
0.0
  0
LTYPE
  2
PHANTOM2
 70
     0
  3
___ _ _ ___ _ _ ___ _ _ ___ _ _
 72
    65
 73
     6
 40
1.25
 49
0.625
 49
-0.125
 49
0.125
 49
-0.125
 49
0.125
 49
-0.125
  0
ENDTAB
  0
TABLE
  2
LAYER
 70
     2
  0
LAYER
  2
0
 70
     0
 62
   255
  6
CONTINUOUS
  0
LAYER
  2
DEFPOINTS
 70
     0
 62
     7
  6
CONTINUOUS
  0
ENDTAB
  0
TABLE
  2
STYLE
 70
     1
  0
STYLE
  2
STANDARD
 70
     0
 40
0.0
 41
0.8
 50
0.0
 71
     0
 42
0.2
  3
txt
  4

  0
ENDTAB
  0
TABLE
  2
VIEW
 70
     0
  0
ENDTAB
  0
TABLE
  2
UCS
 70
     0
  0
ENDTAB
  0
TABLE
  2
APPID
 70
    11
  0
APPID
  2
ACAD
 70
     0
  0
APPID
  2
ACAD_MLEADERVER
 70
     0
  0
APPID
  2
ACAD_EXEMPT_FROM_CAD_STANDARDS
 70
     0
  0
APPID
  2
ACAD_NAV_VCDISPLAY
 70
     0
  0
APPID
  2
ACAECLAYERSTANDARD
 70
     0
  0
APPID
  2
ACCMTRANSPARENCY
 70
     0
  0
APPID
  2
ACAD_DSTYLE_DIMJAG
 70
     0
  0
APPID
  2
ACAD_DSTYLE_DIMTALN
 70
     0
  0
APPID
  2
ACDBATTR
 70
     0
  0
APPID
  2
ACADANNOTATIVE
 70
     0
  0
APPID
  2
DCO15
 70
     0
  0
ENDTAB
  0
TABLE
  2
DIMSTYLE
 70
     1
  0
DIMSTYLE
  2
STANDARD
 70
     0
  3

  4

  5

  6

  7

 40
1.0
 41
0.1875
 42
0.0625
 43
0.38
 44
0.125
 45
0.0
 46
0.0
 47
0.01
 48
0.01
140
0.15625
141
0.09
142
0.0
143
25.3999999999999986
144
1.0
145
0.0
146
1.0
147
0.09
 71
     1
 72
     0
 73
     1
 74
     1
 75
     0
 76
     0
 77
     0
 78
     4
170
     0
171
     2
172
     0
173
     0
174
     0
175
     0
176
     0
177
     0
178
     0
  0
ENDTAB
  0
ENDSEC
  0
SECTION
  2
BLOCKS
  0
BLOCK
  8
0
  2
$MODEL_SPACE
 70
     0
 10
0.0
 20
0.0
 30
0.0
  3
$MODEL_SPACE
  1

  0
ENDBLK
  5
21
  8
0
  0
BLOCK
 67
     1
  8
0
  2
$PAPER_SPACE
 70
     0
 10
0.0
 20
0.0
 30
0.0
  3
$PAPER_SPACE
  1

  0
ENDBLK
  5
1D
 67
     1
  8
0
  0
BLOCK
  8
0
  2
_FILLED
 70
     0
 10
0.0
 20
0.0
 30
0.0
  3
_FILLED
  1

  0
SOLID
  5
2853B
  8
0
  6
BYBLOCK
 62
     0
 10
0.0
 20
0.0
 30
0.0
 11
-1.0
 21
0.1666666667
 31
0.0
 12
-1.0
 22
-0.1666666667
 32
0.0
 13
-1.0
 23
-0.1666666667
 33
0.0
  0
ENDBLK
  5
2853C
  8
0
  6
BYBLOCK
 62
     0
  0
ENDSEC
  0
SECTION
  2
ENTITIES
  0
ATTDEF
  5
2842F
  8
DEFPOINTS
 10
6515.4845307613395562
 20
274.6212201845131062
 30
0.0
 40
0.001
  1
K-8679-4A1
  3

  2
MODELNUMBER
 70
     0
1001
ACDBATTR
1070
     0
1070
     1
  0
ATTDEF
  5
28430
  8
DEFPOINTS
 10
6515.4844049516841551
 20
274.6195533441339194
 30
0.0
 40
0.001
  1
RIVERBY
  3

  2
TRADENAME
 70
     0
1001
ACDBATTR
1070
     0
1070
     1
  0
ATTDEF
  5
28431
  8
DEFPOINTS
 10
6515.4845307613395562
 20
274.6178868511797191
 30
0.0
 40
0.001
  1
KITCHEN SINK
  3

  2
PRODUCT
 70
     0
1001
ACDBATTR
1070
     0
1070
     1
  0
LINE
  5
3383A
  8
0
 10
6499.4969546217789684
 20
275.1829731656267768
 30
0.0
 11
6531.4707160641901282
 21
275.1829731656267768
 31
0.0
  0
LINE
  5
3383B
  8
0
 10
6499.0084555368002839
 20
274.6229731656267745
 30
0.0
 11
6531.9592151491697223
 21
274.6229731656267745
 31
0.0
  0
LINE
  5
3383C
  8
0
 10
6498.9838353429749986
 20
274.6523143700702008
 30
0.0
 11
6499.0045507452787206
 21
274.7697972544960976
 31
0.0
  0
ARC
  5
3383D
  8
0
 10
6499.0084555368002839
 20
274.6479731656266949
 30
0.0
 40
0.025
 50
169.9999999958216108
 51
270.0
  0
ARC
  5
3383E
  8
0
 10
6499.4969546217789684
 20
274.6829731656267768
 30
0.0
 40
0.5
 50
90.0
 51
169.999999995828091
  0
ARC
  5
3383F
  8
0
 10
6499.724689779685832
 20
274.3829731656268223
 30
0.0
 40
0.3799999999999817
 50
4.999999999998324
 51
39.1667107161226511
  0
ARC
  5
33840
  8
0
 10
2458851.2762370188720524
 20
214827.3427137382968795
 30
0.0
 40
2461718.7560733240097761
 50
184.9999999999982947
 51
185.0001734196239056
  0
ARC
  5
33841
  8
0
 10
6501.8638322004735528
 20
267.0479595424873196
 30
0.0
 40
1.1125164595296311
 50
182.8081446788488904
 51
252.3455148365598006
  0
LINE
  5
33842
  8
0
 10
6502.1443363403550393
 20
265.3629731656267836
 30
0.0
 11
6501.626078274601241
 21
265.3629731656267836
 31
0.0
  0
LINE
  5
33843
  8
0
 10
6501.5662244315863063
 20
265.4187877772042725
 30
0.0
 11
6501.5245968051867749
 21
266.0140905696861182
 31
0.0
  0
LINE
  5
33844
  8
0
 10
6502.204190183371793
 20
265.4187877772060915
 30
0.0
 11
6502.2351679911771498
 21
265.8617910684174035
 31
0.0
  0
ARC
  5
33845
  8
0
 10
6501.626078274601241
 20
265.4229731656267859
 30
0.0
 40
0.06
 50
183.9999999980167047
 51
270.0
  0
ARC
  5
33846
  8
0
 10
6502.1443363403550393
 20
265.4229731656267859
 30
0.0
 40
0.06
 50
270.0
 51
356.0000000037970267
  0
ARC
  5
33847
  8
0
 10
6501.2921831260537147
 20
265.8664037906959265
 30
0.0
 40
0.2423515880873108
 50
6.3391858097369571
 51
32.9308890802959411
  0
ARC
  5
33848
  8
0
 10
6501.3111905085197577
 20
266.0009811830583999
 30
0.0
 40
0.2090394629336556
 50
30.4821550423672107
 51
66.190384805552867
  0
ARC
  5
33849
  8
0
 10
6501.2772886079719683
 20
265.9779978923103272
 30
0.0
 40
0.2499280411849113
 50
8.3032469085414373
 51
31.080343114109489
  0
ARC
  5
3384A
  8
0
 10
6501.4131985869516939
 20
266.226291134898986
 30
0.0
 40
0.0383485801571457
 50
219.9126635088043997
 51
242.6486542488088958
  0
ARC
  5
3384B
  8
0
 10
6501.3895712393323265
 20
266.2065756053090126
 30
0.0
 40
0.0075760835228529
 50
123.9732701882556967
 51
220.1961722721360104
  0
ARC
  5
3384C
  8
0
 10
6501.4598068123559642
 20
266.0536092600739835
 30
0.0
 40
0.1758008901246185
 50
91.3472180041461286
 51
115.0620360252979992
  0
ARC
  5
3384D
  8
0
 10
6501.5561531233943242
 20
262.7863014009994913
 30
0.0
 40
3.4445260005953919
 50
82.1059532094402584
 51
91.6716012850198609
  0
ARC
  5
3384E
  8
0
 10
6501.8369041449695942
 20
264.4811964336223014
 30
0.0
 40
1.727727691412225
 50
76.4413179491406112
 51
83.6087487583967857
  0
ARC
  5
3384F
  8
0
 10
6501.4856910450653231
 20
263.1268297551221735
 30
0.0
 40
3.1267787844765991
 50
71.3648700209758857
 51
76.0032615478903182
  0
ARC
  5
33850
  8
0
 10
6502.4835855986775641
 20
266.083509615810101
 30
0.0
 40
0.0062931161297961
 50
40.9758128026046009
 51
78.6596355146029254
  0
ARC
  5
33851
  8
0
 10
6502.4328715077936067
 20
266.3177196838702798
 30
0.0
 40
0.2366744167742451
 50
269.7047595875852153
 51
283.5534746670668937
  0
ARC
  5
33852
  8
0
 10
6502.4813065591661143
 20
265.83888457678961
 30
0.0
 40
0.2472021480700665
 50
101.5876292838840982
 51
174.6831740665564041
  0
ARC
  5
33853
  8
0
 10
6501.8646859786658752
 20
267.2272202354536716
 30
0.0
 40
1.1363389886709729
 50
191.8715043727098077
 51
245.6177264374809965
  0
LINE
  5
33854
  8
0
 10
6510.9387591803870237
 20
265.8510905694269013
 30
0.0
 11
6504.2689115055891307
 21
265.8510905694269013
 31
0.0
  0
LINE
  5
33855
  8
0
 10
6505.0738353429851486
 20
265.5429731656269041
 30
0.0
 11
6510.1338353429846393
 21
265.5429731656269041
 31
0.0
  0
ARC
  5
33856
  8
0
 10
6504.2252871355012758
 20
264.6018520356893191
 30
0.0
 40
1.249999999936086
 50
49.9961149621887486
 51
88.0000000360786032
  0
ARC
  5
33857
  8
0
 10
6505.0738353429851486
 20
265.6129731656267836
 30
0.0
 40
0.07
 50
229.9961149621803997
 51
270.0
  0
ARC
  5
33858
  8
0
 10
6510.9823835504666931
 20
264.6018520356950035
 30
0.0
 40
1.2499999999300619
 50
91.9999999635042656
 51
130.0038850362431049
  0
ARC
  5
33859
  8
0
 10
6510.1338353429846393
 20
265.6129731656267836
 30
0.0
 40
0.07
 50
270.0
 51
310.0038850378920188
  0
LINE
  5
3385A
  8
0
 10
6502.2483711875547669
 20
265.9216493921585993
 30
0.0
 11
6504.2689115055891307
 21
265.8510905694269013
 31
0.0
  0
LINE
  5
3385B
  8
0
 10
6512.9592994984013785
 20
265.921649392197196
 30
0.0
 11
6510.9387591803870237
 21
265.8510905694269013
 31
0.0
  0
ARC
  5
3385C
  8
0
 10
-2445836.0685663330368698
 20
214827.3427137382968795
 30
0.0
 40
2461718.7560733240097761
 50
354.9998265803761228
 51
354.9999658241908946
  0
ARC
  5
3385D
  8
0
 10
6513.3438384854962351
 20
267.0479595424873196
 30
0.0
 40
1.1125164595296311
 50
287.6544851634401994
 51
357.1918553211510812
  0
LINE
  5
3385E
  8
0
 10
6513.0633343456138391
 20
265.3629731656267836
 30
0.0
 11
6513.5815924113667279
 21
265.3629731656267836
 31
0.0
  0
LINE
  5
3385F
  8
0
 10
6513.6414462543843911
 20
265.4187877772042725
 30
0.0
 11
6513.683073880781194
 21
266.0140905696861182
 31
0.0
  0
LINE
  5
33860
  8
0
 10
6513.0034805025979949
 20
265.4187877772060915
 30
0.0
 11
6512.9725026947917286
 21
265.8617910684174035
 31
0.0
  0
ARC
  5
33861
  8
0
 10
6513.5815924113667279
 20
265.4229731656267859
 30
0.0
 40
0.06
 50
270.0
 51
356.00000000198321
  0
ARC
  5
33862
  8
0
 10
6513.0633343456138391
 20
265.4229731656267859
 30
0.0
 40
0.06
 50
183.9999999962030017
 51
270.0
  0
ARC
  5
33863
  8
0
 10
6513.9154875599151637
 20
265.8664037906959265
 30
0.0
 40
0.2423515880873108
 50
147.0691109197040873
 51
173.6608141902630109
  0
ARC
  5
33864
  8
0
 10
6513.8964801774491207
 20
266.0009811830583999
 30
0.0
 40
0.2090394629336556
 50
113.8096151944471046
 51
149.5178449576328035
  0
ARC
  5
33865
  8
0
 10
6513.9303820779978196
 20
265.9779978923103272
 30
0.0
 40
0.2499280411849113
 50
148.9196568858905039
 51
171.6967530914585041
  0
ARC
  5
33866
  8
0
 10
6513.794472099018094
 20
266.226291134898986
 30
0.0
 40
0.0383485801571457
 50
297.3513457511911042
 51
320.0873364911955719
  0
ARC
  5
33867
  8
0
 10
6513.8180994466365519
 20
266.2065756053090126
 30
0.0
 40
0.0075760835228529
 50
319.8038277278639043
 51
56.026729811744282
  0
ARC
  5
33868
  8
0
 10
6513.7478638736138237
 20
266.0536092600739835
 30
0.0
 40
0.1758008901246185
 50
64.937963974702015
 51
88.6527819958538856
  0
ARC
  5
33869
  8
0
 10
6513.6515175625763732
 20
262.7863014009994913
 30
0.0
 40
3.4445260005953919
 50
88.3283987149801391
 51
97.8940467905597558
  0
ARC
  5
3386A
  8
0
 10
6513.3707665410001937
 20
264.4811964336223014
 30
0.0
 40
1.727727691412225
 50
96.3912512416032143
 51
103.558682050859403
  0
ARC
  5
3386B
  8
0
 10
6513.7219796409035553
 20
263.1268297551221735
 30
0.0
 40
3.1267787844765991
 50
103.996738452109696
 51
108.6351299790241001
  0
ARC
  5
3386C
  8
0
 10
6512.7240850872913143
 20
266.083509615810101
 30
0.0
 40
0.0062931161297961
 50
101.3403644853970036
 51
139.0241871973954062
  0
ARC
  5
3386D
  8
0
 10
6512.7747991781761812
 20
266.3177196838702798
 30
0.0
 40
0.2366744167742451
 50
256.4465253329331063
 51
270.2952404124148984
  0
ARC
  5
3386E
  8
0
 10
6512.7263641268036736
 20
265.83888457678961
 30
0.0
 40
0.2472021480700665
 50
5.3168259334435231
 51
78.412370716115845
  0
ARC
  5
3386F
  8
0
 10
6513.3429847073030032
 20
267.2272202354536716
 30
0.0
 40
1.1363389886709729
 50
294.3822735625190035
 51
348.1284956272901923
  0
LINE
  5
33870
  8
0
 10
6515.3689505405327509
 20
273.3129731656267722
 30
0.0
 11
6515.5987201448142514
 21
273.3129731656267722
 31
0.0
  0
ARC
  5
33871
  8
0
 10
6515.3689505402107898
 20
272.9189731664699252
 30
0.0
 40
0.394
 50
89.9999999532571451
 51
174.9999660537523027
  0
ARC
  5
33872
  8
0
 10
6502.4850290517324538
 20
265.7065146174854249
 30
0.0
 40
0.2629305364299445
 50
126.1581515974609999
 51
167.561369670922403
  0
ARC
  5
33873
  8
0
 10
6512.7226416342382436
 20
265.7065146174854249
 30
0.0
 40
0.2629305364299445
 50
12.4386303290712306
 51
53.841848415718438
  0
LINE
  5
33874
  8
0
 10
6531.9838353429950075
 20
274.6523143700702008
 30
0.0
 11
6531.9631199406903761
 21
274.7697972544960976
 31
0.0
  0
ARC
  5
33875
  8
0
 10
6531.9592151491697223
 20
274.6479731656266949
 30
0.0
 40
0.025
 50
270.0
 51
10.0000000041783199
  0
ARC
  5
33876
  8
0
 10
6531.4707160641901282
 20
274.6829731656267768
 30
0.0
 40
0.5
 50
10.0000000041719108
 51
90.0
  0
ARC
  5
33877
  8
0
 10
6531.2429809062841741
 20
274.3829731656268223
 30
0.0
 40
0.3799999999999817
 50
140.8332892838772921
 51
175.0000000000017053
  0
ARC
  5
33878
  8
0
 10
-2445820.3085663327947259
 20
214827.3427137382968795
 30
0.0
 40
2461718.7560733240097761
 50
354.9998265803761228
 51
355.0000000000017053
  0
ARC
  5
33879
  8
0
 10
6529.1038384854964534
 20
267.0479595424873196
 30
0.0
 40
1.1125164595296311
 50
287.6544851634401994
 51
357.1918553211510812
  0
LINE
  5
3387A
  8
0
 10
6528.8233343456140574
 20
265.3629731656267836
 30
0.0
 11
6529.3415924113669462
 21
265.3629731656267836
 31
0.0
  0
LINE
  5
3387B
  8
0
 10
6529.4014462543818809
 20
265.4187877772042725
 30
0.0
 11
6529.4430738807823218
 21
266.0140905696861182
 31
0.0
  0
LINE
  5
3387C
  8
0
 10
6528.7634805025991227
 20
265.4187877772060915
 30
0.0
 11
6528.7325026947928563
 21
265.8617910684174035
 31
0.0
  0
ARC
  5
3387D
  8
0
 10
6529.3415924113669462
 20
265.4229731656267859
 30
0.0
 40
0.06
 50
270.0
 51
356.00000000198321
  0
ARC
  5
3387E
  8
0
 10
6528.8233343456140574
 20
265.4229731656267859
 30
0.0
 40
0.06
 50
183.9999999962030017
 51
270.0
  0
ARC
  5
3387F
  8
0
 10
6529.675487559915382
 20
265.8664037906959265
 30
0.0
 40
0.2423515880873108
 50
147.0691109197040873
 51
173.6608141902630109
  0
ARC
  5
33880
  8
0
 10
6529.656480177449339
 20
266.0009811830583999
 30
0.0
 40
0.2090394629336556
 50
113.8096151944471046
 51
149.5178449576328035
  0
ARC
  5
33881
  8
0
 10
6529.6903820779989474
 20
265.9779978923103272
 30
0.0
 40
0.2499280411849113
 50
148.9196568858905039
 51
171.6967530914585041
  0
ARC
  5
33882
  8
0
 10
6529.5544720990183123
 20
266.226291134898986
 30
0.0
 40
0.0383485801571457
 50
297.3513457511911042
 51
320.0873364911955719
  0
ARC
  5
33883
  8
0
 10
6529.5780994466367702
 20
266.2065756053090126
 30
0.0
 40
0.0075760835228529
 50
319.8038277278639043
 51
56.026729811744282
  0
ARC
  5
33884
  8
0
 10
6529.5078638736149514
 20
266.0536092600739835
 30
0.0
 40
0.1758008901246185
 50
64.937963974702015
 51
88.6527819958538856
  0
ARC
  5
33885
  8
0
 10
6529.4115175625756819
 20
262.7863014009994913
 30
0.0
 40
3.4445260005953919
 50
88.3283987149801391
 51
97.8940467905597558
  0
ARC
  5
33886
  8
0
 10
6529.1307665409976835
 20
264.4811964336223014
 30
0.0
 40
1.727727691412225
 50
96.3912512416032143
 51
103.558682050859403
  0
ARC
  5
33887
  8
0
 10
6529.4819796409037735
 20
263.1268297551221735
 30
0.0
 40
3.1267787844765991
 50
103.996738452109696
 51
108.6351299790241001
  0
ARC
  5
33888
  8
0
 10
6528.4840850872906231
 20
266.083509615810101
 30
0.0
 40
0.0062931161297961
 50
101.3403644853970036
 51
139.0241871973954062
  0
ARC
  5
33889
  8
0
 10
6528.5347991781763994
 20
266.3177196838702798
 30
0.0
 40
0.2366744167742451
 50
256.4465253329331063
 51
270.2952404124148984
  0
ARC
  5
3388A
  8
0
 10
6528.4863641268029824
 20
265.83888457678961
 30
0.0
 40
0.2472021480700665
 50
5.3168259334435231
 51
78.412370716115845
  0
ARC
  5
3388B
  8
0
 10
6529.102984707304131
 20
267.2272202354536716
 30
0.0
 40
1.1363389886709729
 50
294.3822735625190035
 51
348.1284956272901923
  0
LINE
  5
3388C
  8
0
 10
6520.028911505582073
 20
265.8510905694269013
 30
0.0
 11
6526.698759180379966
 21
265.8510905694269013
 31
0.0
  0
LINE
  5
3388D
  8
0
 10
6525.8938353429848576
 20
265.5429731656269041
 30
0.0
 11
6520.8338353429853669
 21
265.5429731656269041
 31
0.0
  0
ARC
  5
3388E
  8
0
 10
6526.7423835504687304
 20
264.6018520356893191
 30
0.0
 40
1.249999999936086
 50
91.9999999639213968
 51
130.0038850378111874
  0
ARC
  5
3388F
  8
0
 10
6525.8938353429848576
 20
265.6129731656267836
 30
0.0
 40
0.07
 50
270.0
 51
310.0038850378196003
  0
ARC
  5
33890
  8
0
 10
6519.9852871355024035
 20
264.6018520356950035
 30
0.0
 40
1.2499999999300619
 50
49.9961149637569093
 51
88.0000000364957486
  0
ARC
  5
33891
  8
0
 10
6520.8338353429853669
 20
265.6129731656267836
 30
0.0
 40
0.07
 50
229.9961149621080096
 51
270.0
  0
LINE
  5
33892
  8
0
 10
6528.7192994984143297
 20
265.9216493921585993
 30
0.0
 11
6526.698759180379966
 21
265.8510905694269013
 31
0.0
  0
LINE
  5
33893
  8
0
 10
6518.0083711875677182
 20
265.921649392197196
 30
0.0
 11
6520.028911505582073
 21
265.8510905694269013
 31
0.0
  0
ARC
  5
33894
  8
0
 10
2458867.0362370191141963
 20
214827.3427137382968795
 30
0.0
 40
2461718.7560733240097761
 50
185.0000341758091054
 51
185.0001734196239056
  0
ARC
  5
33895
  8
0
 10
6515.5987201448142514
 20
272.9189731656210256
 30
0.0
 40
0.394
 50
5.0000341916415803
 51
90.0
  0
ARC
  5
33896
  8
0
 10
6517.6238322004737711
 20
267.0479595424873196
 30
0.0
 40
1.1125164595296311
 50
182.8081446788488904
 51
252.3455148365598006
  0
LINE
  5
33897
  8
0
 10
6517.9043363403552576
 20
265.3629731656267836
 30
0.0
 11
6517.3860782746023688
 21
265.3629731656267836
 31
0.0
  0
LINE
  5
33898
  8
0
 10
6517.3262244315856151
 20
265.4187877772042725
 30
0.0
 11
6517.2845968051869932
 21
266.0140905696861182
 31
0.0
  0
LINE
  5
33899
  8
0
 10
6517.9641901833720112
 20
265.4187877772060915
 30
0.0
 11
6517.9951679911773681
 21
265.8617910684174035
 31
0.0
  0
ARC
  5
3389A
  8
0
 10
6517.3860782746023688
 20
265.4229731656267859
 30
0.0
 40
0.06
 50
183.9999999980167047
 51
270.0
  0
ARC
  5
3389B
  8
0
 10
6517.9043363403552576
 20
265.4229731656267859
 30
0.0
 40
0.06
 50
270.0
 51
356.0000000037970267
  0
ARC
  5
3389C
  8
0
 10
6517.0521831260539329
 20
265.8664037906959265
 30
0.0
 40
0.2423515880873108
 50
6.3391858097369571
 51
32.9308890802959411
  0
ARC
  5
3389D
  8
0
 10
6517.071190508519976
 20
266.0009811830583999
 30
0.0
 40
0.2090394629336556
 50
30.4821550423672107
 51
66.190384805552867
  0
ARC
  5
3389E
  8
0
 10
6517.0372886079721866
 20
265.9779978923103272
 30
0.0
 40
0.2499280411849113
 50
8.3032469085414373
 51
31.080343114109489
  0
ARC
  5
3389F
  8
0
 10
6517.1731985869510027
 20
266.226291134898986
 30
0.0
 40
0.0383485801571457
 50
219.9126635088043997
 51
242.6486542488088958
  0
ARC
  5
338A0
  8
0
 10
6517.1495712393334543
 20
266.2065756053090126
 30
0.0
 40
0.0075760835228529
 50
123.9732701882556967
 51
220.1961722721360104
  0
ARC
  5
338A1
  8
0
 10
6517.219806812355273
 20
266.0536092600739835
 30
0.0
 40
0.1758008901246185
 50
91.3472180041461286
 51
115.0620360252979992
  0
ARC
  5
338A2
  8
0
 10
6517.316153123393633
 20
262.7863014009994913
 30
0.0
 40
3.4445260005953919
 50
82.1059532094402584
 51
91.6716012850198609
  0
ARC
  5
338A3
  8
0
 10
6517.5969041449698125
 20
264.4811964336223014
 30
0.0
 40
1.727727691412225
 50
76.4413179491406112
 51
83.6087487583967857
  0
ARC
  5
338A4
  8
0
 10
6517.2456910450646319
 20
263.1268297551221735
 30
0.0
 40
3.1267787844765991
 50
71.3648700209758857
 51
76.0032615478903182
  0
ARC
  5
338A5
  8
0
 10
6518.2435855986777824
 20
266.083509615810101
 30
0.0
 40
0.0062931161297961
 50
40.9758128026046009
 51
78.6596355146029254
  0
ARC
  5
338A6
  8
0
 10
6518.192871507793825
 20
266.3177196838702798
 30
0.0
 40
0.2366744167742451
 50
269.7047595875852153
 51
283.5534746670668937
  0
ARC
  5
338A7
  8
0
 10
6518.2413065591663326
 20
265.83888457678961
 30
0.0
 40
0.2472021480700665
 50
101.5876292838840982
 51
174.6831740665564041
  0
ARC
  5
338A8
  8
0
 10
6517.6246859786660934
 20
267.2272202354536716
 30
0.0
 40
1.1363389886709729
 50
191.8715043727098077
 51
245.6177264374809965
  0
ARC
  5
338A9
  8
0
 10
6528.4826416342375524
 20
265.7065146174854249
 30
0.0
 40
0.2629305364299445
 50
12.4386303290775899
 51
53.8418484025389574
  0
ARC
  5
338AA
  8
0
 10
6518.2450290517308531
 20
265.7065146174854249
 30
0.0
 40
0.2629305364299445
 50
126.158151584281498
 51
167.5613696709287979
  0
ARC
  5
338AC
  8
0
 10
6507.603647109852318
 20
537.3802968236976767
 30
0.0
 40
271.3388647271555101
 50
268.9190210093827886
 51
271.0810632126808741
  0
ARC
  5
338AD
  8
0
 10
6520.8562191661940233
 20
19830.204762387820665
 30
0.0
 40
19564.1170282852217497
 50
269.9923617817423178
 51
270.0223313431915244
  0
ENDSEC
  0
EOF
