  0
SECTION
  2
HEADER
  9
$ACADVER
  1
AC1009
  9
$INSBASE
 10
6714.1391330426276909
 20
134.1267806177478974
 30
0.0
  9
$EXTMIN
 10
6697.3436568723045639
 20
123.1249587252551976
 30
-0.0000000349181948
  9
$EXTMAX
 10
6730.7235515542997746
 20
145.137658408273893
 30
0.0000000814935746
  9
$LIMMIN
 10
0.0
 20
0.0
  9
$LIMMAX
 10
11.6929133858000007
 20
8.2677165353999982
  9
$ORTHOMODE
 70
     0
  9
$REGENMODE
 70
     1
  9
$FILLMODE
 70
     1
  9
$QTEXTMODE
 70
     0
  9
$MIRRTEXT
 70
     0
  9
$DRAGMODE
 70
     2
  9
$LTSCALE
 40
0.6431102362
  9
$OSMODE
 70
  4095
  9
$ATTMODE
 70
     1
  9
$TEXTSIZE
 40
0.2
  9
$TRACEWID
 40
0.05
  9
$TEXTSTYLE
  7
STANDARD
  9
$CLAYER
  8
0
  9
$CELTYPE
  6
BYLAYER
  9
$CECOLOR
 62
   256
  9
$DIMSCALE
 40
1.0
  9
$DIMASZ
 40
0.1875
  9
$DIMEXO
 40
0.0625
  9
$DIMDLI
 40
0.4443307087
  9
$DIMRND
 40
0.0
  9
$DIMDLE
 40
0.0
  9
$DIMEXE
 40
0.125
  9
$DIMTP
 40
0.01
  9
$DIMTM
 40
0.01
  9
$DIMTXT
 40
2.0
  9
$DIMCEN
 40
0.1052362205
  9
$DIMTSZ
 40
0.0
  9
$DIMTOL
 70
     1
  9
$DIMLIM
 70
     0
  9
$DIMTIH
 70
     1
  9
$DIMTOH
 70
     1
  9
$DIMSE1
 70
     0
  9
$DIMSE2
 70
     0
  9
$DIMTAD
 70
     0
  9
$DIMZIN
 70
     0
  9
$DIMBLK
  1

  9
$DIMASO
 70
     1
  9
$DIMSHO
 70
     1
  9
$DIMPOST
  1
\X
  9
$DIMAPOST
  1

  9
$DIMALT
 70
     1
  9
$DIMALTD
 70
     2
  9
$DIMALTF
 40
25.3999999999999986
  9
$DIMLFAC
 40
1.0
  9
$DIMTOFL
 70
     0
  9
$DIMTVP
 40
0.0
  9
$DIMTIX
 70
     0
  9
$DIMSOXD
 70
     0
  9
$DIMSAH
 70
     0
  9
$DIMBLK1
  1

  9
$DIMBLK2
  1

  9
$DIMSTYLE
  2
STANDARD
  9
$DIMCLRD
 70
     0
  9
$DIMCLRE
 70
     0
  9
$DIMCLRT
 70
     0
  9
$DIMTFAC
 40
1.0
  9
$DIMGAP
 40
0.09
  9
$LUNITS
 70
     2
  9
$LUPREC
 70
     4
  9
$SKETCHINC
 40
0.1
  9
$FILLETRAD
 40
0.0
  9
$AUNITS
 70
     0
  9
$AUPREC
 70
     0
  9
$MENU
  1
.
  9
$ELEVATION
 40
0.0
  9
$PELEVATION
 40
0.0
  9
$THICKNESS
 40
0.0
  9
$LIMCHECK
 70
     0
  9
$BLIPMODE
 70
     0
  9
$CHAMFERA
 40
0.0
  9
$CHAMFERB
 40
0.0
  9
$SKPOLY
 70
     0
  9
$TDCREATE
 40
2458060.468368056230247
  9
$TDUPDATE
 40
2460472.6306597217917442
  9
$TDINDWG
 40
0.7730510417000001
  9
$TDUSRTIMER
 40
0.7730510417000001
  9
$USRTIMER
 70
     1
  9
$ANGBASE
 50
0.0
  9
$ANGDIR
 70
     0
  9
$PDMODE
 70
     0
  9
$PDSIZE
 40
0.3125
  9
$PLINEWID
 40
0.0
  9
$COORDS
 70
     1
  9
$SPLFRAME
 70
     0
  9
$SPLINETYPE
 70
     6
  9
$SPLINESEGS
 70
     8
  9
$ATTDIA
 70
     1
  9
$ATTREQ
 70
     1
  9
$HANDLING
 70
     1
  9
$HANDSEED
  5
31212
  9
$SURFTAB1
 70
     6
  9
$SURFTAB2
 70
     6
  9
$SURFTYPE
 70
     6
  9
$SURFU
 70
     6
  9
$SURFV
 70
     6
  9
$UCSNAME
  2

  9
$UCSORG
 10
0.0
 20
0.0
 30
0.0
  9
$UCSXDIR
 10
1.0
 20
0.0
 30
0.0
  9
$UCSYDIR
 10
0.0
 20
1.0
 30
0.0
  9
$PUCSNAME
  2

  9
$PUCSORG
 10
0.0
 20
0.0
 30
0.0
  9
$PUCSXDIR
 10
1.0
 20
0.0
 30
0.0
  9
$PUCSYDIR
 10
0.0
 20
1.0
 30
0.0
  9
$USERI1
 70
     0
  9
$USERI2
 70
     0
  9
$USERI3
 70
     0
  9
$USERI4
 70
     0
  9
$USERI5
 70
     0
  9
$USERR1
 40
0.0
  9
$USERR2
 40
0.0
  9
$USERR3
 40
0.0
  9
$USERR4
 40
0.0
  9
$USERR5
 40
0.0
  9
$WORLDVIEW
 70
     1
  9
$SHADEDGE
 70
     3
  9
$SHADEDIF
 70
    70
  9
$TILEMODE
 70
     1
  9
$MAXACTVP
 70
    64
  9
$PLIMCHECK
 70
     0
  9
$PEXTMIN
 10
1.0000000000000000E+20
 20
1.0000000000000000E+20
 30
1.0000000000000000E+20
  9
$PEXTMAX
 10
-1.0000000000000000E+20
 20
-1.0000000000000000E+20
 30
-1.0000000000000000E+20
  9
$PLIMMIN
 10
0.0
 20
0.0
  9
$PLIMMAX
 10
12.0
 20
9.0
  9
$UNITMODE
 70
     0
  9
$VISRETAIN
 70
     1
  9
$PLINEGEN
 70
     0
  9
$PSLTSCALE
 70
     1
  0
ENDSEC
  0
SECTION
  2
TABLES
  0
TABLE
  2
VPORT
 70
     1
  0
VPORT
  2
*ACTIVE
 70
     0
 10
0.0
 20
0.0
 11
1.0
 21
1.0
 12
2802.668247767990124
 22
1.551703464225539
 13
0.0
 23
0.0
 14
1.0
 24
1.0
 15
0.0
 25
0.0
 16
0.0
 26
0.0
 36
60.4960186965801583
 17
3911.3653564453120453
 27
132.5796051025390057
 37
0.0
 40
22.2101229985615198
 41
2.8368263473053892
 42
50.0
 43
0.0
 44
0.0
 50
0.0
 51
0.0
 71
     0
 72
   100
 73
     1
 74
     1
 75
     0
 76
     0
 77
     0
 78
     0
  0
ENDTAB
  0
TABLE
  2
LTYPE
 70
     2
  0
LTYPE
  2
CONTINUOUS
 70
     0
  3
Solid line
 72
    65
 73
     0
 40
0.0
  0
LTYPE
  2
PHANTOM2
 70
     0
  3
___ _ _ ___ _ _ ___ _ _ ___ _ _
 72
    65
 73
     6
 40
1.25
 49
0.625
 49
-0.125
 49
0.125
 49
-0.125
 49
0.125
 49
-0.125
  0
ENDTAB
  0
TABLE
  2
LAYER
 70
     2
  0
LAYER
  2
0
 70
     0
 62
   255
  6
CONTINUOUS
  0
LAYER
  2
DEFPOINTS
 70
     0
 62
     7
  6
CONTINUOUS
  0
ENDTAB
  0
TABLE
  2
STYLE
 70
     1
  0
STYLE
  2
STANDARD
 70
     0
 40
0.0
 41
0.8
 50
0.0
 71
     0
 42
0.2
  3
txt
  4

  0
ENDTAB
  0
TABLE
  2
VIEW
 70
     0
  0
ENDTAB
  0
TABLE
  2
UCS
 70
     0
  0
ENDTAB
  0
TABLE
  2
APPID
 70
    11
  0
APPID
  2
ACAD
 70
     0
  0
APPID
  2
ACAD_MLEADERVER
 70
     0
  0
APPID
  2
ACAD_EXEMPT_FROM_CAD_STANDARDS
 70
     0
  0
APPID
  2
ACAD_NAV_VCDISPLAY
 70
     0
  0
APPID
  2
ACAECLAYERSTANDARD
 70
     0
  0
APPID
  2
ACCMTRANSPARENCY
 70
     0
  0
APPID
  2
ACAD_DSTYLE_DIMJAG
 70
     0
  0
APPID
  2
ACAD_DSTYLE_DIMTALN
 70
     0
  0
APPID
  2
ACDBATTR
 70
     0
  0
APPID
  2
ACADANNOTATIVE
 70
     0
  0
APPID
  2
DCO15
 70
     0
  0
ENDTAB
  0
TABLE
  2
DIMSTYLE
 70
     1
  0
DIMSTYLE
  2
STANDARD
 70
     0
  3

  4

  5

  6

  7

 40
1.0
 41
0.1875
 42
0.0625
 43
0.38
 44
0.125
 45
0.0
 46
0.0
 47
0.01
 48
0.01
140
0.15625
141
0.09
142
0.0
143
25.3999999999999986
144
1.0
145
0.0
146
1.0
147
0.09
 71
     1
 72
     0
 73
     1
 74
     1
 75
     0
 76
     0
 77
     0
 78
     4
170
     0
171
     2
172
     0
173
     0
174
     0
175
     0
176
     0
177
     0
178
     0
  0
ENDTAB
  0
ENDSEC
  0
SECTION
  2
BLOCKS
  0
BLOCK
  8
0
  2
$MODEL_SPACE
 70
     0
 10
0.0
 20
0.0
 30
0.0
  3
$MODEL_SPACE
  1

  0
ENDBLK
  5
21
  8
0
  0
BLOCK
 67
     1
  8
0
  2
$PAPER_SPACE
 70
     0
 10
0.0
 20
0.0
 30
0.0
  3
$PAPER_SPACE
  1

  0
ENDBLK
  5
1D
 67
     1
  8
0
  0
BLOCK
  8
0
  2
_FILLED
 70
     0
 10
0.0
 20
0.0
 30
0.0
  3
_FILLED
  1

  0
SOLID
  5
257AF
  8
0
  6
BYBLOCK
 62
     0
 10
0.0
 20
0.0
 30
0.0
 11
-1.0
 21
0.1666666667
 31
0.0
 12
-1.0
 22
-0.1666666667
 32
0.0
 13
-1.0
 23
-0.1666666667
 33
0.0
  0
ENDBLK
  5
257B0
  8
0
  6
BYBLOCK
 62
     0
  0
ENDSEC
  0
SECTION
  2
ENTITIES
  0
ATTDEF
  5
256E4
  8
DEFPOINTS
 10
6714.1285825432851198
 20
134.1301409682718031
 30
0.0
 40
0.001
  1
K-8679-4A1
  3

  2
MODELNUMBER
 70
     0
1001
ACDBATTR
1070
     0
1070
     1
  0
ATTDEF
  5
256E5
  8
DEFPOINTS
 10
6714.1284567336269902
 20
134.1284741278927015
 30
0.0
 40
0.001
  1
RIVERBY
  3

  2
TRADENAME
 70
     0
1001
ACDBATTR
1070
     0
1070
     1
  0
ATTDEF
  5
256E6
  8
DEFPOINTS
 10
6714.1285825432851198
 20
134.1268076349385012
 30
0.0
 40
0.001
  1
KITCHEN SINK
  3

  2
PRODUCT
 70
     0
1001
ACDBATTR
1070
     0
1070
     1
  0
LINE
  5
3045C
  8
0
 10
6697.638753236444245
 20
124.6267806178128978
 30
0.0
 11
6697.638753236444245
 21
143.6267806177827993
 31
0.0
  0
LINE
  5
3045D
  8
0
 10
6699.1387532364433355
 20
145.1267806177827993
 30
0.0
 11
6729.1395128488138653
 21
145.1267806177827993
 31
0.0
  0
ARC
  5
3045E
  8
0
 10
6699.1387532364433355
 20
143.6267806177829129
 30
0.0
 40
1.5
 50
90.0
 51
180.0
  0
LINE
  5
3045F
  8
0
 10
6700.3036299612285802
 20
141.6918885525828955
 30
0.0
 11
6727.974636124027711
 21
141.6918885525828955
 31
0.0
  0
LINE
  5
30460
  8
0
 10
6698.5536299612285802
 20
125.7916579901828982
 30
0.0
 11
6698.5536299612285802
 21
139.9418885525828102
 31
0.0
  0
LINE
  5
30461
  8
0
 10
6700.3036299612285802
 20
124.0416579901827987
 30
0.0
 11
6727.974636124027711
 21
124.0416579901827987
 31
0.0
  0
ARC
  5
30462
  8
0
 10
6700.3036299612285802
 20
125.7916579901828982
 30
0.0
 40
1.75
 50
180.0
 51
270.0
  0
ARC
  5
30463
  8
0
 10
6700.3036299612285802
 20
139.9418885525828102
 30
0.0
 40
1.75
 50
90.0
 51
180.0
  0
LINE
  5
30464
  8
0
 10
6700.0728156787290573
 20
140.7839977256828092
 30
0.0
 11
6728.2054504065281435
 21
140.7839977256828092
 31
0.0
  0
LINE
  5
30465
  8
0
 10
6700.0728156787290573
 20
124.9495488171828015
 30
0.0
 11
6728.2054504065281435
 21
124.9495488171828015
 31
0.0
  0
LINE
  5
30466
  8
0
 10
6699.0788156787293701
 20
125.9435488171829007
 30
0.0
 11
6699.0788156787293701
 21
139.7899977256828947
 31
0.0
  0
ARC
  5
30467
  8
0
 10
6700.0728156787290573
 20
125.9435488171829007
 30
0.0
 40
0.9939999999999999
 50
180.0
 51
270.0
  0
ARC
  5
30468
  8
0
 10
6700.0728156787290573
 20
139.7899977256828947
 30
0.0
 40
0.9939999999999999
 50
90.0
 51
180.0
  0
LINE
  5
30469
  8
0
 10
6700.6809193788285484
 20
140.0254946290828002
 30
0.0
 11
6711.8373467064284341
 21
140.0254946290828002
 31
0.0
  0
LINE
  5
3046A
  8
0
 10
6700.6809193788285484
 20
139.8379946290828002
 30
0.0
 11
6711.8373467064284341
 21
139.8379946290828002
 31
0.0
  0
LINE
  5
3046B
  8
0
 10
6700.0244193788294069
 20
126.5520519136829023
 30
0.0
 11
6700.0244193788294069
 21
139.1814946290828061
 31
0.0
  0
LINE
  5
3046C
  8
0
 10
6699.8369193788294069
 20
139.1814946290828061
 30
0.0
 11
6699.8369193788294069
 21
126.5520519136829023
 31
0.0
  0
LINE
  5
3046D
  8
0
 10
6700.6809193788285484
 20
125.895551913682894
 30
0.0
 11
6711.8373467064284341
 21
125.895551913682894
 31
0.0
  0
LINE
  5
3046E
  8
0
 10
6700.6809193788285484
 20
125.708051913682894
 30
0.0
 11
6711.8373467064284341
 21
125.708051913682894
 31
0.0
  0
ARC
  5
3046F
  8
0
 10
6700.6809193788285484
 20
126.5520519136829023
 30
0.0
 40
0.6565
 50
179.9999999999992042
 51
270.0
  0
ARC
  5
30470
  8
0
 10
6700.6809193788285484
 20
139.1814946290828061
 30
0.0
 40
0.6565
 50
90.0
 51
180.0000000000007958
  0
ARC
  5
30471
  8
0
 10
6700.6809193788285484
 20
139.1814946290828061
 30
0.0
 40
0.8439999999999999
 50
90.0
 51
180.0
  0
ARC
  5
30472
  8
0
 10
6700.6809193788285484
 20
126.5520519136829023
 30
0.0
 40
0.8439999999999999
 50
180.0
 51
270.0
  0
LINE
  5
30473
  8
0
 10
6712.4938467064275756
 20
126.5520519136829023
 30
0.0
 11
6712.4938467064275756
 21
139.1814946290828061
 31
0.0
  0
LINE
  5
30474
  8
0
 10
6712.6813467064275756
 20
139.1814946290828061
 30
0.0
 11
6712.6813467064275756
 21
126.5520519136829023
 31
0.0
  0
ARC
  5
30475
  8
0
 10
6711.8373467064284341
 20
139.1814946290828061
 30
0.0
 40
0.8439999999999999
 50
0.0
 51
90.0
  0
ARC
  5
30476
  8
0
 10
6711.8373467064284341
 20
126.5520519136829023
 30
0.0
 40
0.8439999999999999
 50
270.0
 51
0.0
  0
ARC
  5
30477
  8
0
 10
6711.8373467064284341
 20
126.5520519136829023
 30
0.0
 40
0.6565
 50
270.0
 51
0.0
  0
ARC
  5
30478
  8
0
 10
6711.8373467064284341
 20
139.1814946290828061
 30
0.0
 40
0.6565
 50
359.9999999999992042
 51
90.0
  0
LINE
  5
30479
  8
0
 10
6704.0403830426275817
 20
139.8379946290828002
 30
0.0
 11
6704.0403830426275817
 21
139.0221519651828999
 31
0.0
  0
LINE
  5
3047A
  8
0
 10
6704.0403830426275817
 20
138.9166519651828082
 30
0.0
 11
6704.0403830426275817
 21
138.1681519651828012
 31
0.0
  0
LINE
  5
3047B
  8
0
 10
6704.0403830426275817
 20
138.0626519651829085
 30
0.0
 11
6704.0403830426275817
 21
137.3141519651829014
 31
0.0
  0
LINE
  5
3047C
  8
0
 10
6704.0403830426275817
 20
137.2086519651828098
 30
0.0
 11
6704.0403830426275817
 21
136.4601519651828028
 31
0.0
  0
LINE
  5
3047D
  8
0
 10
6704.0403830426275817
 20
136.3546519651829101
 30
0.0
 11
6704.0403830426275817
 21
135.606151965182903
 31
0.0
  0
LINE
  5
3047E
  8
0
 10
6704.0403830426275817
 20
135.5006519651828114
 30
0.0
 11
6704.0403830426275817
 21
134.7521519651828044
 31
0.0
  0
LINE
  5
3047F
  8
0
 10
6704.0403830426275817
 20
134.6466519651829117
 30
0.0
 11
6704.0403830426275817
 21
133.8981519651829046
 31
0.0
  0
LINE
  5
30480
  8
0
 10
6704.0403830426275817
 20
133.792651965182813
 30
0.0
 11
6704.0403830426275817
 21
133.044151965182806
 31
0.0
  0
LINE
  5
30481
  8
0
 10
6704.0403830426275817
 20
132.9386519651829133
 30
0.0
 11
6704.0403830426275817
 21
132.1901519651829062
 31
0.0
  0
LINE
  5
30482
  8
0
 10
6704.0403830426275817
 20
132.0846519651827862
 30
0.0
 11
6704.0403830426275817
 21
131.3361519651828075
 31
0.0
  0
LINE
  5
30483
  8
0
 10
6704.0403830426275817
 20
131.2306519651828012
 30
0.0
 11
6704.0403830426275817
 21
130.4821519651829078
 31
0.0
  0
LINE
  5
30484
  8
0
 10
6704.0403830426275817
 20
130.3766519651827878
 30
0.0
 11
6704.0403830426275817
 21
129.6281519651828091
 31
0.0
  0
LINE
  5
30485
  8
0
 10
6704.0403830426275817
 20
129.522651965182888
 30
0.0
 11
6704.0403830426275817
 21
128.7741519651829094
 31
0.0
  0
LINE
  5
30486
  8
0
 10
6704.0403830426275817
 20
128.6686519651827894
 30
0.0
 11
6704.0403830426275817
 21
127.9201519651827965
 31
0.0
  0
LINE
  5
30487
  8
0
 10
6704.0403830426275817
 20
127.8146519651828044
 30
0.0
 11
6704.0403830426275817
 21
126.9561519651827979
 31
0.0
  0
LINE
  5
30488
  8
0
 10
6704.0403830426275817
 20
126.8506519651829052
 30
0.0
 11
6704.0403830426275817
 21
125.895551913682894
 31
0.0
  0
LINE
  5
30489
  8
0
 10
6704.2278830426275817
 20
139.8379946290828002
 30
0.0
 11
6704.2278830426275817
 21
139.0221519651828999
 31
0.0
  0
LINE
  5
3048A
  8
0
 10
6704.2278830426275817
 20
138.9166519651828082
 30
0.0
 11
6704.2278830426275817
 21
138.1681519651828012
 31
0.0
  0
LINE
  5
3048B
  8
0
 10
6704.2278830426275817
 20
138.0626519651829085
 30
0.0
 11
6704.2278830426275817
 21
137.3141519651829014
 31
0.0
  0
LINE
  5
3048C
  8
0
 10
6704.2278830426275817
 20
137.2086519651828098
 30
0.0
 11
6704.2278830426275817
 21
136.4601519651828028
 31
0.0
  0
LINE
  5
3048D
  8
0
 10
6704.2278830426275817
 20
136.3546519651829101
 30
0.0
 11
6704.2278830426275817
 21
135.9149106277585872
 31
0.0
  0
LINE
  5
3048E
  8
0
 10
6704.2278830426275817
 20
134.3378933026071138
 30
0.0
 11
6704.2278830426275817
 21
133.8981519651829046
 31
0.0
  0
LINE
  5
3048F
  8
0
 10
6704.2278830426275817
 20
133.792651965182813
 30
0.0
 11
6704.2278830426275817
 21
133.044151965182806
 31
0.0
  0
LINE
  5
30490
  8
0
 10
6704.2278830426275817
 20
132.9386519651829133
 30
0.0
 11
6704.2278830426275817
 21
132.1901519651829062
 31
0.0
  0
LINE
  5
30491
  8
0
 10
6704.2278830426275817
 20
132.0846519651827862
 30
0.0
 11
6704.2278830426275817
 21
131.3361519651828075
 31
0.0
  0
LINE
  5
30492
  8
0
 10
6704.2278830426275817
 20
131.2306519651828012
 30
0.0
 11
6704.2278830426275817
 21
130.4821519651829078
 31
0.0
  0
LINE
  5
30493
  8
0
 10
6704.2278830426275817
 20
130.3766519651827878
 30
0.0
 11
6704.2278830426275817
 21
129.6281519651828091
 31
0.0
  0
LINE
  5
30494
  8
0
 10
6704.2278830426275817
 20
129.522651965182888
 30
0.0
 11
6704.2278830426275817
 21
128.7741519651829094
 31
0.0
  0
LINE
  5
30495
  8
0
 10
6704.2278830426275817
 20
128.6686519651827894
 30
0.0
 11
6704.2278830426275817
 21
127.9201519651827965
 31
0.0
  0
LINE
  5
30496
  8
0
 10
6704.2278830426275817
 20
127.8146519651828044
 30
0.0
 11
6704.2278830426275817
 21
126.9561519651827979
 31
0.0
  0
LINE
  5
30497
  8
0
 10
6704.2278830426275817
 20
126.8506519651829052
 30
0.0
 11
6704.2278830426275817
 21
125.895551913682894
 31
0.0
  0
LINE
  5
30498
  8
0
 10
6700.0244193788294069
 20
139.0221519651828999
 30
0.0
 11
6701.3783830426273198
 21
139.0221519651828999
 31
0.0
  0
LINE
  5
30499
  8
0
 10
6701.6398830426278437
 20
139.0221519651828999
 30
0.0
 11
6712.4938467064275756
 21
139.0221519651828999
 31
0.0
  0
LINE
  5
3049A
  8
0
 10
6700.0244193788294069
 20
138.9166519651828082
 30
0.0
 11
6701.3783830426273198
 21
138.9166519651828082
 31
0.0
  0
LINE
  5
3049B
  8
0
 10
6701.6398830426278437
 20
138.9166519651828082
 30
0.0
 11
6712.4938467064275756
 21
138.9166519651828082
 31
0.0
  0
LINE
  5
3049C
  8
0
 10
6700.0244193788294069
 20
138.1681519651828012
 30
0.0
 11
6712.4938467064275756
 21
138.1681519651828012
 31
0.0
  0
LINE
  5
3049D
  8
0
 10
6700.0244193788294069
 20
138.0626519651829085
 30
0.0
 11
6712.4938467064275756
 21
138.0626519651829085
 31
0.0
  0
LINE
  5
3049E
  8
0
 10
6700.0244193788294069
 20
137.3141519651829014
 30
0.0
 11
6712.4938467064275756
 21
137.3141519651829014
 31
0.0
  0
LINE
  5
3049F
  8
0
 10
6700.0244193788294069
 20
137.2086519651828098
 30
0.0
 11
6705.6172939576881618
 21
137.2086519651828098
 31
0.0
  0
LINE
  5
304A0
  8
0
 10
6706.9009721275688207
 20
137.2086519651828098
 30
0.0
 11
6712.4938467064275756
 21
137.2086519651828098
 31
0.0
  0
LINE
  5
304A1
  8
0
 10
6700.0244193788294069
 20
136.4601519651828028
 30
0.0
 11
6704.5361027437211305
 21
136.4601519651828028
 31
0.0
  0
LINE
  5
304A2
  8
0
 10
6707.9821633415367614
 20
136.4601519651828028
 30
0.0
 11
6712.4938467064275756
 21
136.4601519651828028
 31
0.0
  0
LINE
  5
304A3
  8
0
 10
6700.0244193788294069
 20
136.3546519651829101
 30
0.0
 11
6704.4593762782405975
 21
136.3546519651829101
 31
0.0
  0
LINE
  5
304A4
  8
0
 10
6708.058889807016385
 20
136.3546519651829101
 30
0.0
 11
6712.4938467064275756
 21
136.3546519651829101
 31
0.0
  0
LINE
  5
304A5
  8
0
 10
6700.0244193788294069
 20
135.606151965182903
 30
0.0
 11
6704.1336772301137898
 21
135.606151965182903
 31
0.0
  0
LINE
  5
304A6
  8
0
 10
6708.3845888551431926
 20
135.606151965182903
 30
0.0
 11
6712.4938467064275756
 21
135.606151965182903
 31
0.0
  0
LINE
  5
304A7
  8
0
 10
6700.0244193788294069
 20
135.5006519651828114
 30
0.0
 11
6704.1125871169706443
 21
135.5006519651828114
 31
0.0
  0
LINE
  5
304A8
  8
0
 10
6708.4056789682863382
 20
135.5006519651828114
 30
0.0
 11
6712.4938467064275756
 21
135.5006519651828114
 31
0.0
  0
LINE
  5
304A9
  8
0
 10
6700.0244193788294069
 20
134.7521519651828044
 30
0.0
 11
6704.1125871169706443
 21
134.7521519651828044
 31
0.0
  0
LINE
  5
304AA
  8
0
 10
6708.4056789682863382
 20
134.7521519651828044
 30
0.0
 11
6712.4938467064275756
 21
134.7521519651828044
 31
0.0
  0
LINE
  5
304AB
  8
0
 10
6700.0244193788294069
 20
134.6466519651829117
 30
0.0
 11
6704.1336772301137898
 21
134.6466519651829117
 31
0.0
  0
LINE
  5
304AC
  8
0
 10
6708.3845888551431926
 20
134.6466519651829117
 30
0.0
 11
6712.4938467064275756
 21
134.6466519651829117
 31
0.0
  0
LINE
  5
304AD
  8
0
 10
6700.0244193788294069
 20
133.8981519651829046
 30
0.0
 11
6704.4593762782405975
 21
133.8981519651829046
 31
0.0
  0
LINE
  5
304AE
  8
0
 10
6708.058889807016385
 20
133.8981519651829046
 30
0.0
 11
6712.4938467064275756
 21
133.8981519651829046
 31
0.0
  0
LINE
  5
304AF
  8
0
 10
6700.0244193788294069
 20
133.792651965182813
 30
0.0
 11
6704.5361027437211305
 21
133.792651965182813
 31
0.0
  0
LINE
  5
304B0
  8
0
 10
6707.9821633415367614
 20
133.792651965182813
 30
0.0
 11
6712.4938467064275756
 21
133.792651965182813
 31
0.0
  0
LINE
  5
304B1
  8
0
 10
6700.0244193788294069
 20
133.044151965182806
 30
0.0
 11
6705.6172939576881618
 21
133.044151965182806
 31
0.0
  0
LINE
  5
304B2
  8
0
 10
6706.9009721275688207
 20
133.044151965182806
 30
0.0
 11
6712.4938467064275756
 21
133.044151965182806
 31
0.0
  0
LINE
  5
304B3
  8
0
 10
6700.0244193788294069
 20
132.9386519651829133
 30
0.0
 11
6712.4938467064275756
 21
132.9386519651829133
 31
0.0
  0
LINE
  5
304B4
  8
0
 10
6700.0244193788294069
 20
132.1901519651829062
 30
0.0
 11
6712.4938467064275756
 21
132.1901519651829062
 31
0.0
  0
LINE
  5
304B5
  8
0
 10
6700.0244193788294069
 20
132.0846519651827862
 30
0.0
 11
6712.4938467064275756
 21
132.0846519651827862
 31
0.0
  0
LINE
  5
304B6
  8
0
 10
6700.0244193788294069
 20
131.3361519651828075
 30
0.0
 11
6712.4938467064275756
 21
131.3361519651828075
 31
0.0
  0
LINE
  5
304B7
  8
0
 10
6700.0244193788294069
 20
131.2306519651828012
 30
0.0
 11
6712.4938467064275756
 21
131.2306519651828012
 31
0.0
  0
LINE
  5
304B8
  8
0
 10
6700.0244193788294069
 20
130.4821519651829078
 30
0.0
 11
6712.4938467064275756
 21
130.4821519651829078
 31
0.0
  0
LINE
  5
304B9
  8
0
 10
6700.0244193788294069
 20
130.3766519651827878
 30
0.0
 11
6712.4938467064275756
 21
130.3766519651827878
 31
0.0
  0
LINE
  5
304BA
  8
0
 10
6700.0244193788294069
 20
129.6281519651828091
 30
0.0
 11
6712.4938467064275756
 21
129.6281519651828091
 31
0.0
  0
LINE
  5
304BB
  8
0
 10
6700.0244193788294069
 20
129.522651965182888
 30
0.0
 11
6712.4938467064275756
 21
129.522651965182888
 31
0.0
  0
LINE
  5
304BC
  8
0
 10
6700.0244193788294069
 20
128.7741519651829094
 30
0.0
 11
6712.4938467064275756
 21
128.7741519651829094
 31
0.0
  0
LINE
  5
304BD
  8
0
 10
6700.0244193788294069
 20
128.6686519651827894
 30
0.0
 11
6712.4938467064275756
 21
128.6686519651827894
 31
0.0
  0
LINE
  5
304BE
  8
0
 10
6700.0244193788294069
 20
127.9201519651827965
 30
0.0
 11
6712.4938467064275756
 21
127.9201519651827965
 31
0.0
  0
LINE
  5
304BF
  8
0
 10
6700.0244193788294069
 20
127.8146519651828044
 30
0.0
 11
6712.4938467064275756
 21
127.8146519651828044
 31
0.0
  0
LINE
  5
304C0
  8
0
 10
6700.0244193788294069
 20
126.9561519651827979
 30
0.0
 11
6701.3783830426273198
 21
126.9561519651827979
 31
0.0
  0
LINE
  5
304C1
  8
0
 10
6701.6398830426278437
 20
126.9561519651827979
 30
0.0
 11
6712.4938467064275756
 21
126.9561519651827979
 31
0.0
  0
LINE
  5
304C2
  8
0
 10
6700.0244193788294069
 20
126.8506519651829052
 30
0.0
 11
6701.3783830426273198
 21
126.8506519651829052
 31
0.0
  0
LINE
  5
304C3
  8
0
 10
6701.6398830426278437
 20
126.8506519651829052
 30
0.0
 11
6712.4938467064275756
 21
126.8506519651829052
 31
0.0
  0
LINE
  5
304C4
  8
0
 10
6701.3681116629977623
 20
139.0244019651829035
 30
0.0
 11
6701.4216258748938344
 21
139.0244019651829035
 31
0.0
  0
ARC
  5
304C5
  8
0
 10
6701.368161981128651
 20
138.9683861319840048
 30
0.0
 40
0.0560158557988033
 50
90.0514678718313206
 51
106.2944656102044974
  0
LINE
  5
304C6
  8
0
 10
6701.596167518445327
 20
139.0194019651827944
 30
0.0
 11
6701.6230734471546384
 21
139.0194019651827944
 31
0.0
  0
ARC
  5
304C7
  8
0
 10
6701.4211945055749311
 20
139.0219732356499094
 30
0.0
 40
0.0024667400823167
 50
42.039126594440809
 51
79.9286597381660613
  0
ARC
  5
304C8
  8
0
 10
6701.4144566025115637
 20
139.0158980637766035
 30
0.0
 40
0.0115390634330325
 50
33.7590050365169532
 51
42.0391265944492716
  0
ARC
  5
304C9
  8
0
 10
6701.3572423365912982
 20
138.9826561267487079
 30
0.0
 40
0.0776898743978909
 50
28.8755942616365608
 51
30.6915862357214699
  0
ARC
  5
304CA
  8
0
 10
6701.4266089017746708
 20
139.020887632529309
 30
0.0
 40
0.0015148479970617
 50
208.1352382961067065
 51
258.7358035255269897
  0
ARC
  5
304CB
  8
0
 10
6701.3783830426273198
 20
138.9694019651828967
 30
0.0
 40
0.0527500000000032
 50
270.0
 51
90.0
  0
ARC
  5
304CC
  8
0
 10
6701.5091330426294007
 20
139.1051162509828032
 30
0.0
 40
0.1207142856999965
 50
226.1859855819051006
 51
313.8140144180961215
  0
ARC
  5
304CD
  8
0
 10
6701.4220985668098365
 20
139.0144019651827989
 30
0.0
 40
0.005
 50
46.1859855818920906
 51
90.0
  0
LINE
  5
304CE
  8
0
 10
6701.3951926381023441
 20
139.0194019651827944
 30
0.0
 11
6701.4220985668098365
 21
139.0194019651827944
 31
0.0
  0
LINE
  5
304CF
  8
0
 10
6701.4263130014705894
 20
139.0194019651827944
 30
0.0
 11
6701.5919530837863931
 21
139.0194019651827944
 31
0.0
  0
ARC
  5
304D0
  8
0
 10
6701.596167518445327
 20
139.0144019651820884
 30
0.0
 40
0.005
 50
90.0000000017196555
 51
133.8140144136085894
  0
LINE
  5
304D1
  8
0
 10
6701.6501544222592202
 20
139.0244019651829035
 30
0.0
 11
6701.5966402103631481
 21
139.0244019651829035
 31
0.0
  0
ARC
  5
304D2
  8
0
 10
6701.6501041041283315
 20
138.9683861319840048
 30
0.0
 40
0.0560158557988033
 50
73.7055343897955169
 51
89.9485321281686936
  0
ARC
  5
304D3
  8
0
 10
6701.5970715796829609
 20
139.0219732356499094
 30
0.0
 40
0.0024667400823167
 50
100.0713402618338961
 51
137.9608734055591981
  0
ARC
  5
304D4
  8
0
 10
6701.6038094827454188
 20
139.0158980637766035
 30
0.0
 40
0.0115390634330325
 50
137.9608734055507
 51
146.2409949634831037
  0
ARC
  5
304D5
  8
0
 10
6701.6610237486665937
 20
138.9826561267487079
 30
0.0
 40
0.0776898743978909
 50
149.3084137642784981
 51
151.1244057383634924
  0
ARC
  5
304D6
  8
0
 10
6701.5916571834823117
 20
139.020887632529309
 30
0.0
 40
0.0015148479970617
 50
281.2641964744728966
 51
331.8647617038932935
  0
ARC
  5
304D7
  8
0
 10
6701.6398830426278437
 20
138.9694019651828967
 30
0.0
 40
0.0527500000000032
 50
90.0
 51
270.0
  0
LINE
  5
304D8
  8
0
 10
6701.3681116629977623
 20
138.9144019651828899
 30
0.0
 11
6701.4216258748938344
 21
138.9144019651828899
 31
0.0
  0
ARC
  5
304D9
  8
0
 10
6701.368161981128651
 20
138.9704177983817033
 30
0.0
 40
0.0560158557988033
 50
253.7055343897955026
 51
269.948532128168722
  0
LINE
  5
304DA
  8
0
 10
6701.596167518445327
 20
138.9194019651829137
 30
0.0
 11
6701.6230734471546384
 21
138.9194019651829137
 31
0.0
  0
ARC
  5
304DB
  8
0
 10
6701.4211945055749311
 20
138.9168306947157134
 30
0.0
 40
0.0024667400823167
 50
280.0713402618339956
 51
317.9608734055591981
  0
ARC
  5
304DC
  8
0
 10
6701.4144566025115637
 20
138.9229058665891898
 30
0.0
 40
0.0115390634330325
 50
317.9608734055507284
 51
326.2409949634831037
  0
ARC
  5
304DD
  8
0
 10
6701.3572423365912982
 20
138.9561478036170001
 30
0.0
 40
0.0776898743978909
 50
329.3084137642778728
 51
331.1244057383634072
  0
ARC
  5
304DE
  8
0
 10
6701.4266089017746708
 20
138.9179162978365127
 30
0.0
 40
0.0015148479970617
 50
101.2641964744728966
 51
151.8647617038932083
  0
ARC
  5
304DF
  8
0
 10
6701.5091330426294007
 20
138.8336876793829049
 30
0.0
 40
0.1207142856999965
 50
46.1859855819039211
 51
133.8140144180948994
  0
ARC
  5
304E0
  8
0
 10
6701.4220985668098365
 20
138.9244019651827955
 30
0.0
 40
0.005
 50
270.0
 51
313.8140144181078881
  0
LINE
  5
304E1
  8
0
 10
6701.3951926381023441
 20
138.9194019651829137
 30
0.0
 11
6701.4220985668098365
 21
138.9194019651829137
 31
0.0
  0
LINE
  5
304E2
  8
0
 10
6701.4263130014705894
 20
138.9194019651829137
 30
0.0
 11
6701.5919530837863931
 21
138.9194019651829137
 31
0.0
  0
ARC
  5
304E3
  8
0
 10
6701.596167518445327
 20
138.9244019651835913
 30
0.0
 40
0.005
 50
226.1859855863914106
 51
269.9999999982803729
  0
LINE
  5
304E4
  8
0
 10
6701.6501544222592202
 20
138.9144019651828899
 30
0.0
 11
6701.5966402103631481
 21
138.9144019651828899
 31
0.0
  0
ARC
  5
304E5
  8
0
 10
6701.6501041041283315
 20
138.9704177983817033
 30
0.0
 40
0.0560158557988033
 50
270.051467871831278
 51
286.2944656102044974
  0
ARC
  5
304E6
  8
0
 10
6701.5970715796829609
 20
138.9168306947157134
 30
0.0
 40
0.0024667400823167
 50
222.0391265944408019
 51
259.9286597381660044
  0
ARC
  5
304E7
  8
0
 10
6701.6038094827454188
 20
138.9229058665891898
 30
0.0
 40
0.0115390634330325
 50
213.7590050365168963
 51
222.0391265944493
  0
ARC
  5
304E8
  8
0
 10
6701.6610237486665937
 20
138.9561478036170001
 30
0.0
 40
0.0776898743978909
 50
208.8755942616365076
 51
210.6915862357213882
  0
ARC
  5
304E9
  8
0
 10
6701.5916571834823117
 20
138.9179162978365127
 30
0.0
 40
0.0015148479970617
 50
28.1352382961067313
 51
78.7358035255270465
  0
ARC
  5
304EA
  8
0
 10
6701.4092715359483918
 20
138.9109502907101046
 30
0.0
 40
0.1920793357996963
 50
105.4053692236141018
 51
144.6242469528662866
  0
ARC
  5
304EB
  8
0
 10
6701.512783650719939
 20
138.626583940564899
 30
0.0
 40
0.494321453935187
 50
90.4231382960039269
 51
108.2175046857112051
  0
ARC
  5
304EC
  8
0
 10
6701.5130493972892509
 20
138.6911182983783135
 30
0.0
 40
0.4548899014867221
 50
90.4932915953549895
 51
103.6998232339039987
  0
ARC
  5
304ED
  8
0
 10
6701.512759201589688
 20
138.6923087449322907
 30
0.0
 40
0.4536645947737814
 50
103.6998232339039987
 51
115.8214966156793935
  0
ARC
  5
304EE
  8
0
 10
6701.4084528993153071
 20
138.9078702605200135
 30
0.0
 40
0.214193152432559
 50
115.8214966156793935
 51
131.2502094062371043
  0
ARC
  5
304EF
  8
0
 10
6701.3685483518502224
 20
138.953372340614294
 30
0.0
 40
0.1536719809201484
 50
131.2502094062365074
 51
153.4118422251368088
  0
ARC
  5
304F0
  8
0
 10
6701.6089945493085906
 20
138.9109502907101046
 30
0.0
 40
0.1920793357996963
 50
35.3757530471336779
 51
74.5946307763858698
  0
ARC
  5
304F1
  8
0
 10
6701.5054824345352245
 20
138.626583940564899
 30
0.0
 40
0.494321453935187
 50
71.7824953142888376
 51
89.5768617039960588
  0
ARC
  5
304F2
  8
0
 10
6701.5052166879686411
 20
138.6911182983783135
 30
0.0
 40
0.4548899014867221
 50
76.3001767660959587
 51
89.5067084046450248
  0
ARC
  5
304F3
  8
0
 10
6701.505506883666385
 20
138.6923087449322907
 30
0.0
 40
0.4536645947737814
 50
64.1785033843205355
 51
76.3001767660959587
  0
ARC
  5
304F4
  8
0
 10
6701.6098131859416753
 20
138.9078702605200135
 30
0.0
 40
0.214193152432559
 50
48.749790593762917
 51
64.1785033843205355
  0
ARC
  5
304F5
  8
0
 10
6701.6497177334067601
 20
138.953372340614294
 30
0.0
 40
0.1536719809201484
 50
26.5881577748631308
 51
48.7497905937634783
  0
ARC
  5
304F6
  8
0
 10
6701.4092715359483918
 20
139.0278536396556035
 30
0.0
 40
0.1920793357996963
 50
215.3757530471337134
 51
254.5946307763859124
  0
ARC
  5
304F7
  8
0
 10
6701.512783650719939
 20
139.3122199898008091
 30
0.0
 40
0.494321453935187
 50
251.7824953142888091
 51
269.5768617039959736
  0
ARC
  5
304F8
  8
0
 10
6701.5130493972892509
 20
139.2476856319873946
 30
0.0
 40
0.4548899014867221
 50
256.3001767660958876
 51
269.5067084046449963
  0
ARC
  5
304F9
  8
0
 10
6701.512759201589688
 20
139.246495185433389
 30
0.0
 40
0.4536645947737814
 50
244.1785033843204928
 51
256.3001767660958876
  0
ARC
  5
304FA
  8
0
 10
6701.4084528993153071
 20
139.0309336698456946
 30
0.0
 40
0.214193152432559
 50
228.7497905937628957
 51
244.1785033843204928
  0
ARC
  5
304FB
  8
0
 10
6701.3685483518502224
 20
138.9854315897514141
 30
0.0
 40
0.1536719809201484
 50
206.5881577748623954
 51
228.7497905937634926
  0
ARC
  5
304FC
  8
0
 10
6701.6089945493085906
 20
139.0278536396556035
 30
0.0
 40
0.1920793357996963
 50
285.4053692236141728
 51
324.624246952866315
  0
ARC
  5
304FD
  8
0
 10
6701.5054824345352245
 20
139.3122199898008091
 30
0.0
 40
0.494321453935187
 50
270.4231382960039127
 51
288.2175046857112193
  0
ARC
  5
304FE
  8
0
 10
6701.5052166879686411
 20
139.2476856319873946
 30
0.0
 40
0.4548899014867221
 50
270.4932915953550037
 51
283.6998232339041124
  0
ARC
  5
304FF
  8
0
 10
6701.505506883666385
 20
139.246495185433389
 30
0.0
 40
0.4536645947737814
 50
283.6998232339041124
 51
295.8214966156795072
  0
ARC
  5
30500
  8
0
 10
6701.6098131859416753
 20
139.0309336698456946
 30
0.0
 40
0.214193152432559
 50
295.8214966156795072
 51
311.2502094062369906
  0
ARC
  5
30501
  8
0
 10
6701.6497177334067601
 20
138.9854315897514141
 30
0.0
 40
0.1536719809201484
 50
311.250209406236479
 51
333.4118422251369225
  0
LINE
  5
30502
  8
0
 10
6701.3681116629977623
 20
126.9584019651828015
 30
0.0
 11
6701.4216258748938344
 21
126.9584019651828015
 31
0.0
  0
ARC
  5
30503
  8
0
 10
6701.368161981128651
 20
126.9023861319840023
 30
0.0
 40
0.0560158557988033
 50
90.0514678718313206
 51
106.2944656102044974
  0
LINE
  5
30504
  8
0
 10
6701.596167518445327
 20
126.9534019651828061
 30
0.0
 11
6701.6230734471546384
 21
126.9534019651828061
 31
0.0
  0
ARC
  5
30505
  8
0
 10
6701.4211945055749311
 20
126.9559732356499069
 30
0.0
 40
0.0024667400823167
 50
42.039126594440809
 51
79.9286597381660613
  0
ARC
  5
30506
  8
0
 10
6701.4144566025115637
 20
126.9498980637765015
 30
0.0
 40
0.0115390634330325
 50
33.7590050365169532
 51
42.0391265944492716
  0
ARC
  5
30507
  8
0
 10
6701.3572423365912982
 20
126.9166561267487054
 30
0.0
 40
0.0776898743978909
 50
28.8755942616365608
 51
30.6915862357214699
  0
ARC
  5
30508
  8
0
 10
6701.4266089017746708
 20
126.9548876325293065
 30
0.0
 40
0.0015148479970617
 50
208.1352382961067065
 51
258.7358035255269897
  0
ARC
  5
30509
  8
0
 10
6701.3783830426273198
 20
126.9034019651827947
 30
0.0
 40
0.0527500000000032
 50
270.0
 51
90.0
  0
ARC
  5
3050A
  8
0
 10
6701.5091330426294007
 20
127.0391162509828007
 30
0.0
 40
0.1207142856999965
 50
226.1859855819051006
 51
313.8140144180961215
  0
ARC
  5
3050B
  8
0
 10
6701.4220985668098365
 20
126.9484019651827964
 30
0.0
 40
0.005
 50
46.1859855818920906
 51
90.0
  0
LINE
  5
3050C
  8
0
 10
6701.3951926381023441
 20
126.9534019651828061
 30
0.0
 11
6701.4220985668098365
 21
126.9534019651828061
 31
0.0
  0
LINE
  5
3050D
  8
0
 10
6701.4263130014705894
 20
126.9534019651828061
 30
0.0
 11
6701.5919530837863931
 21
126.9534019651828061
 31
0.0
  0
ARC
  5
3050E
  8
0
 10
6701.596167518445327
 20
126.9484019651821001
 30
0.0
 40
0.005
 50
90.0000000017196555
 51
133.8140144136085894
  0
LINE
  5
3050F
  8
0
 10
6701.6501544222592202
 20
126.9584019651828015
 30
0.0
 11
6701.5966402103631481
 21
126.9584019651828015
 31
0.0
  0
ARC
  5
30510
  8
0
 10
6701.6501041041283315
 20
126.9023861319840023
 30
0.0
 40
0.0560158557988033
 50
73.7055343897955169
 51
89.9485321281686936
  0
ARC
  5
30511
  8
0
 10
6701.5970715796829609
 20
126.9559732356499069
 30
0.0
 40
0.0024667400823167
 50
100.0713402618338961
 51
137.9608734055591981
  0
ARC
  5
30512
  8
0
 10
6701.6038094827454188
 20
126.9498980637765015
 30
0.0
 40
0.0115390634330325
 50
137.9608734055507
 51
146.2409949634831037
  0
ARC
  5
30513
  8
0
 10
6701.6610237486665937
 20
126.9166561267487054
 30
0.0
 40
0.0776898743978909
 50
149.3084137642784981
 51
151.1244057383634924
  0
ARC
  5
30514
  8
0
 10
6701.5916571834823117
 20
126.9548876325293065
 30
0.0
 40
0.0015148479970617
 50
281.2641964744728966
 51
331.8647617038932935
  0
ARC
  5
30515
  8
0
 10
6701.6398830426278437
 20
126.9034019651827947
 30
0.0
 40
0.0527500000000032
 50
90.0
 51
270.0
  0
LINE
  5
30516
  8
0
 10
6701.3681116629977623
 20
126.8484019651828021
 30
0.0
 11
6701.4216258748938344
 21
126.8484019651828021
 31
0.0
  0
ARC
  5
30517
  8
0
 10
6701.368161981128651
 20
126.9044177983817008
 30
0.0
 40
0.0560158557988033
 50
253.7055343897955026
 51
269.948532128168722
  0
LINE
  5
30518
  8
0
 10
6701.596167518445327
 20
126.853401965182897
 30
0.0
 11
6701.6230734471546384
 21
126.853401965182897
 31
0.0
  0
ARC
  5
30519
  8
0
 10
6701.4211945055749311
 20
126.8508306947157962
 30
0.0
 40
0.0024667400823167
 50
280.0713402618339956
 51
317.9608734055591981
  0
ARC
  5
3051A
  8
0
 10
6701.4144566025115637
 20
126.8569058665891021
 30
0.0
 40
0.0115390634330325
 50
317.9608734055507284
 51
326.2409949634831037
  0
ARC
  5
3051B
  8
0
 10
6701.3572423365912982
 20
126.8901478036169976
 30
0.0
 40
0.0776898743978909
 50
329.3084137642778728
 51
331.1244057383634072
  0
ARC
  5
3051C
  8
0
 10
6701.4266089017746708
 20
126.8519162978363966
 30
0.0
 40
0.0015148479970617
 50
101.2641964744728966
 51
151.8647617038932083
  0
ARC
  5
3051D
  8
0
 10
6701.5091330426294007
 20
126.7676876793828029
 30
0.0
 40
0.1207142856999965
 50
46.1859855819039211
 51
133.8140144180948994
  0
ARC
  5
3051E
  8
0
 10
6701.4220985668098365
 20
126.858401965182793
 30
0.0
 40
0.005
 50
270.0
 51
313.8140144181078881
  0
LINE
  5
3051F
  8
0
 10
6701.3951926381023441
 20
126.853401965182897
 30
0.0
 11
6701.4220985668098365
 21
126.853401965182897
 31
0.0
  0
LINE
  5
30520
  8
0
 10
6701.4263130014705894
 20
126.853401965182897
 30
0.0
 11
6701.5919530837863931
 21
126.853401965182897
 31
0.0
  0
ARC
  5
30521
  8
0
 10
6701.596167518445327
 20
126.858401965183603
 30
0.0
 40
0.005
 50
226.1859855863914106
 51
269.9999999982803729
  0
LINE
  5
30522
  8
0
 10
6701.6501544222592202
 20
126.8484019651828021
 30
0.0
 11
6701.5966402103631481
 21
126.8484019651828021
 31
0.0
  0
ARC
  5
30523
  8
0
 10
6701.6501041041283315
 20
126.9044177983817008
 30
0.0
 40
0.0560158557988033
 50
270.051467871831278
 51
286.2944656102044974
  0
ARC
  5
30524
  8
0
 10
6701.5970715796829609
 20
126.8508306947157962
 30
0.0
 40
0.0024667400823167
 50
222.0391265944408019
 51
259.9286597381660044
  0
ARC
  5
30525
  8
0
 10
6701.6038094827454188
 20
126.8569058665891021
 30
0.0
 40
0.0115390634330325
 50
213.7590050365168963
 51
222.0391265944493
  0
ARC
  5
30526
  8
0
 10
6701.6610237486665937
 20
126.8901478036169976
 30
0.0
 40
0.0776898743978909
 50
208.8755942616365076
 51
210.6915862357213882
  0
ARC
  5
30527
  8
0
 10
6701.5916571834823117
 20
126.8519162978363966
 30
0.0
 40
0.0015148479970617
 50
28.1352382961067313
 51
78.7358035255270465
  0
ARC
  5
30528
  8
0
 10
6701.4092715359483918
 20
126.8449502907101021
 30
0.0
 40
0.1920793357996963
 50
105.4053692236141018
 51
144.6242469528042989
  0
ARC
  5
30529
  8
0
 10
6701.512783650719939
 20
126.5605839405648965
 30
0.0
 40
0.494321453935187
 50
90.4231382960039269
 51
108.2175046857112051
  0
ARC
  5
3052A
  8
0
 10
6701.5130493972892509
 20
126.6251182983782968
 30
0.0
 40
0.4548899014867221
 50
90.4932915953549895
 51
103.6998232339039987
  0
ARC
  5
3052B
  8
0
 10
6701.512759201589688
 20
126.6263087449323024
 30
0.0
 40
0.4536645947737814
 50
103.6998232339039987
 51
115.8214966156793935
  0
ARC
  5
3052C
  8
0
 10
6701.4084528993153071
 20
126.8418702605199968
 30
0.0
 40
0.214193152432559
 50
115.8214966156793935
 51
131.2502094062371043
  0
ARC
  5
3052D
  8
0
 10
6701.3685483518502224
 20
126.8873723406143057
 30
0.0
 40
0.1536719809201484
 50
131.2502094062365074
 51
153.4118422250633103
  0
ARC
  5
3052E
  8
0
 10
6701.6089945493085906
 20
126.8449502907101021
 30
0.0
 40
0.1920793357996963
 50
35.3757530471970369
 51
74.5946307763858698
  0
ARC
  5
3052F
  8
0
 10
6701.5054824345352245
 20
126.5605839405648965
 30
0.0
 40
0.494321453935187
 50
71.7824953142888376
 51
89.5768617039960588
  0
ARC
  5
30530
  8
0
 10
6701.5052166879686411
 20
126.6251182983782968
 30
0.0
 40
0.4548899014867221
 50
76.3001767660959587
 51
89.5067084046450248
  0
ARC
  5
30531
  8
0
 10
6701.505506883666385
 20
126.6263087449323024
 30
0.0
 40
0.4536645947737814
 50
64.1785033843205355
 51
76.3001767660959587
  0
ARC
  5
30532
  8
0
 10
6701.6098131859416753
 20
126.8418702605199968
 30
0.0
 40
0.214193152432559
 50
48.749790593762917
 51
64.1785033843205355
  0
ARC
  5
30533
  8
0
 10
6701.6497177334067601
 20
126.8873723406143057
 30
0.0
 40
0.1536719809201484
 50
26.5881577749366897
 51
48.7497905937634783
  0
ARC
  5
30534
  8
0
 10
6701.4092715359483918
 20
126.961853639655601
 30
0.0
 40
0.1920793357996963
 50
215.3757530471970085
 51
254.5946307763859124
  0
ARC
  5
30535
  8
0
 10
6701.512783650719939
 20
127.2462199898008066
 30
0.0
 40
0.494321453935187
 50
251.7824953142888091
 51
269.5768617039959736
  0
ARC
  5
30536
  8
0
 10
6701.5130493972892509
 20
127.1816856319874063
 30
0.0
 40
0.4548899014867221
 50
256.3001767660958876
 51
269.5067084046449963
  0
ARC
  5
30537
  8
0
 10
6701.512759201589688
 20
127.1804951854334007
 30
0.0
 40
0.4536645947737814
 50
244.1785033843204928
 51
256.3001767660958876
  0
ARC
  5
30538
  8
0
 10
6701.4084528993153071
 20
126.9649336698457063
 30
0.0
 40
0.214193152432559
 50
228.7497905937628957
 51
244.1785033843204928
  0
ARC
  5
30539
  8
0
 10
6701.3685483518502224
 20
126.9194315897513974
 30
0.0
 40
0.1536719809201484
 50
206.5881577749381108
 51
228.7497905937628957
  0
ARC
  5
3053A
  8
0
 10
6701.6089945493085906
 20
126.961853639655601
 30
0.0
 40
0.1920793357996963
 50
285.4053692236141728
 51
324.6242469528028778
  0
ARC
  5
3053B
  8
0
 10
6701.5054824345352245
 20
127.2462199898008066
 30
0.0
 40
0.494321453935187
 50
270.4231382960039127
 51
288.2175046857112193
  0
ARC
  5
3053C
  8
0
 10
6701.5052166879686411
 20
127.1816856319874063
 30
0.0
 40
0.4548899014867221
 50
270.4932915953550037
 51
283.6998232339041124
  0
ARC
  5
3053D
  8
0
 10
6701.505506883666385
 20
127.1804951854334007
 30
0.0
 40
0.4536645947737814
 50
283.6998232339041124
 51
295.8214966156795072
  0
ARC
  5
3053E
  8
0
 10
6701.6098131859416753
 20
126.9649336698457063
 30
0.0
 40
0.214193152432559
 50
295.8214966156795072
 51
311.250209406236479
  0
ARC
  5
3053F
  8
0
 10
6701.6497177334067601
 20
126.9194315897513974
 30
0.0
 40
0.1536719809201484
 50
311.250209406236479
 51
333.4118422250618892
  0
LINE
  5
30540
  8
0
 10
6708.4778830426294007
 20
139.8379946290828002
 30
0.0
 11
6708.4778830426294007
 21
139.0221519651828999
 31
0.0
  0
LINE
  5
30541
  8
0
 10
6708.4778830426294007
 20
138.9166519651828082
 30
0.0
 11
6708.4778830426294007
 21
138.1681519651828012
 31
0.0
  0
LINE
  5
30542
  8
0
 10
6708.4778830426294007
 20
138.0626519651829085
 30
0.0
 11
6708.4778830426294007
 21
137.3141519651829014
 31
0.0
  0
LINE
  5
30543
  8
0
 10
6708.4778830426294007
 20
137.2086519651828098
 30
0.0
 11
6708.4778830426294007
 21
136.4601519651828028
 31
0.0
  0
LINE
  5
30544
  8
0
 10
6708.4778830426294007
 20
136.3546519651829101
 30
0.0
 11
6708.4778830426294007
 21
135.606151965182903
 31
0.0
  0
LINE
  5
30545
  8
0
 10
6708.4778830426294007
 20
135.5006519651828114
 30
0.0
 11
6708.4778830426294007
 21
134.7521519651828044
 31
0.0
  0
LINE
  5
30546
  8
0
 10
6708.4778830426294007
 20
134.6466519651829117
 30
0.0
 11
6708.4778830426294007
 21
133.8981519651829046
 31
0.0
  0
LINE
  5
30547
  8
0
 10
6708.4778830426294007
 20
133.792651965182813
 30
0.0
 11
6708.4778830426294007
 21
133.044151965182806
 31
0.0
  0
LINE
  5
30548
  8
0
 10
6708.4778830426294007
 20
132.9386519651829133
 30
0.0
 11
6708.4778830426294007
 21
132.1901519651829062
 31
0.0
  0
LINE
  5
30549
  8
0
 10
6708.4778830426294007
 20
132.0846519651827862
 30
0.0
 11
6708.4778830426294007
 21
131.3361519651828075
 31
0.0
  0
LINE
  5
3054A
  8
0
 10
6708.4778830426294007
 20
131.2306519651828012
 30
0.0
 11
6708.4778830426294007
 21
130.4821519651829078
 31
0.0
  0
LINE
  5
3054B
  8
0
 10
6708.4778830426294007
 20
130.3766519651827878
 30
0.0
 11
6708.4778830426294007
 21
129.6281519651828091
 31
0.0
  0
LINE
  5
3054C
  8
0
 10
6708.4778830426294007
 20
129.522651965182888
 30
0.0
 11
6708.4778830426294007
 21
128.7741519651829094
 31
0.0
  0
LINE
  5
3054D
  8
0
 10
6708.4778830426294007
 20
128.6686519651827894
 30
0.0
 11
6708.4778830426294007
 21
127.9201519651827965
 31
0.0
  0
LINE
  5
3054E
  8
0
 10
6708.4778830426294007
 20
127.8146519651828044
 30
0.0
 11
6708.4778830426294007
 21
126.9561519651827979
 31
0.0
  0
LINE
  5
3054F
  8
0
 10
6708.4778830426294007
 20
126.8506519651829052
 30
0.0
 11
6708.4778830426294007
 21
125.895551913682894
 31
0.0
  0
LINE
  5
30550
  8
0
 10
6708.2903830426294007
 20
139.8379946290828002
 30
0.0
 11
6708.2903830426294007
 21
139.0221519651828999
 31
0.0
  0
LINE
  5
30551
  8
0
 10
6708.2903830426294007
 20
138.9166519651828082
 30
0.0
 11
6708.2903830426294007
 21
138.1681519651828012
 31
0.0
  0
LINE
  5
30552
  8
0
 10
6708.2903830426294007
 20
138.0626519651829085
 30
0.0
 11
6708.2903830426294007
 21
137.3141519651829014
 31
0.0
  0
LINE
  5
30553
  8
0
 10
6708.2903830426294007
 20
137.2086519651828098
 30
0.0
 11
6708.2903830426294007
 21
136.4601519651828028
 31
0.0
  0
LINE
  5
30554
  8
0
 10
6708.2903830426294007
 20
136.3546519651829101
 30
0.0
 11
6708.2903830426294007
 21
135.9149106277585872
 31
0.0
  0
LINE
  5
30555
  8
0
 10
6708.2903830426294007
 20
134.3378933026071138
 30
0.0
 11
6708.2903830426294007
 21
133.8981519651829046
 31
0.0
  0
LINE
  5
30556
  8
0
 10
6708.2903830426294007
 20
133.792651965182813
 30
0.0
 11
6708.2903830426294007
 21
133.044151965182806
 31
0.0
  0
LINE
  5
30557
  8
0
 10
6708.2903830426294007
 20
132.9386519651829133
 30
0.0
 11
6708.2903830426294007
 21
132.1901519651829062
 31
0.0
  0
LINE
  5
30558
  8
0
 10
6708.2903830426294007
 20
132.0846519651827862
 30
0.0
 11
6708.2903830426294007
 21
131.3361519651828075
 31
0.0
  0
LINE
  5
30559
  8
0
 10
6708.2903830426294007
 20
131.2306519651828012
 30
0.0
 11
6708.2903830426294007
 21
130.4821519651829078
 31
0.0
  0
LINE
  5
3055A
  8
0
 10
6708.2903830426294007
 20
130.3766519651827878
 30
0.0
 11
6708.2903830426294007
 21
129.6281519651828091
 31
0.0
  0
LINE
  5
3055B
  8
0
 10
6708.2903830426294007
 20
129.522651965182888
 30
0.0
 11
6708.2903830426294007
 21
128.7741519651829094
 31
0.0
  0
LINE
  5
3055C
  8
0
 10
6708.2903830426294007
 20
128.6686519651827894
 30
0.0
 11
6708.2903830426294007
 21
127.9201519651827965
 31
0.0
  0
LINE
  5
3055D
  8
0
 10
6708.2903830426294007
 20
127.8146519651828044
 30
0.0
 11
6708.2903830426294007
 21
126.9561519651827979
 31
0.0
  0
LINE
  5
3055E
  8
0
 10
6708.2903830426294007
 20
126.8506519651829052
 30
0.0
 11
6708.2903830426294007
 21
125.895551913682894
 31
0.0
  0
LINE
  5
3055F
  8
0
 10
6711.1501544222592202
 20
139.0244019651829035
 30
0.0
 11
6711.0966402103631481
 21
139.0244019651829035
 31
0.0
  0
ARC
  5
30560
  8
0
 10
6711.150104104127422
 20
138.9683861319840048
 30
0.0
 40
0.0560158557988033
 50
73.7055343897955169
 51
89.9485321281686936
  0
LINE
  5
30561
  8
0
 10
6710.9220985668098365
 20
139.0194019651827944
 30
0.0
 11
6710.8951926381023441
 21
139.0194019651827944
 31
0.0
  0
ARC
  5
30562
  8
0
 10
6711.0970715796829609
 20
139.0219732356499094
 30
0.0
 40
0.0024667400823167
 50
100.0713402618338961
 51
137.9608734055591981
  0
ARC
  5
30563
  8
0
 10
6711.1038094827454188
 20
139.0158980637766035
 30
0.0
 40
0.0115390634330325
 50
137.9608734055507
 51
146.2409949634831037
  0
ARC
  5
30564
  8
0
 10
6711.1610237486665937
 20
138.9826561267487079
 30
0.0
 40
0.0776898743978909
 50
149.3084137642784981
 51
151.1244057383634924
  0
ARC
  5
30565
  8
0
 10
6711.0916571834823117
 20
139.020887632529309
 30
0.0
 40
0.0015148479970617
 50
281.2641964744728966
 51
331.8647617038932935
  0
ARC
  5
30566
  8
0
 10
6711.1398830426278437
 20
138.9694019651828967
 30
0.0
 40
0.0527500000000032
 50
90.0
 51
270.0
  0
ARC
  5
30567
  8
0
 10
6711.0091330426294007
 20
139.1051162509828032
 30
0.0
 40
0.1207142856999965
 50
226.1859855819039069
 51
313.8140144180949278
  0
ARC
  5
30568
  8
0
 10
6711.096167518447146
 20
139.0144019651827989
 30
0.0
 40
0.005
 50
90.0
 51
133.8140144181078881
  0
LINE
  5
30569
  8
0
 10
6711.1230734471537289
 20
139.0194019651827944
 30
0.0
 11
6711.096167518447146
 21
139.0194019651827944
 31
0.0
  0
LINE
  5
3056A
  8
0
 10
6711.0919530837863931
 20
139.0194019651827944
 30
0.0
 11
6710.9263130014705894
 21
139.0194019651827944
 31
0.0
  0
ARC
  5
3056B
  8
0
 10
6710.9220985668098365
 20
139.0144019651820884
 30
0.0
 40
0.005
 50
46.185985586391439
 51
89.9999999982803587
  0
LINE
  5
3056C
  8
0
 10
6710.8681116629977623
 20
139.0244019651829035
 30
0.0
 11
6710.9216258748938344
 21
139.0244019651829035
 31
0.0
  0
ARC
  5
3056D
  8
0
 10
6710.868161981128651
 20
138.9683861319840048
 30
0.0
 40
0.0560158557988033
 50
90.0514678718313206
 51
106.2944656102044974
  0
ARC
  5
3056E
  8
0
 10
6710.9211945055749311
 20
139.0219732356499094
 30
0.0
 40
0.0024667400823167
 50
42.039126594440809
 51
79.9286597381660613
  0
ARC
  5
3056F
  8
0
 10
6710.9144566025115637
 20
139.0158980637766035
 30
0.0
 40
0.0115390634330325
 50
33.7590050365169532
 51
42.0391265944492716
  0
ARC
  5
30570
  8
0
 10
6710.8572423365912982
 20
138.9826561267487079
 30
0.0
 40
0.0776898743978909
 50
28.8755942616365608
 51
30.6915862357214699
  0
ARC
  5
30571
  8
0
 10
6710.9266089017746708
 20
139.020887632529309
 30
0.0
 40
0.0015148479970617
 50
208.1352382961067065
 51
258.7358035255269897
  0
ARC
  5
30572
  8
0
 10
6710.8783830426291388
 20
138.9694019651828967
 30
0.0
 40
0.0527500000000032
 50
270.0
 51
90.0
  0
LINE
  5
30573
  8
0
 10
6711.1501544222592202
 20
138.9144019651828899
 30
0.0
 11
6711.0966402103631481
 21
138.9144019651828899
 31
0.0
  0
ARC
  5
30574
  8
0
 10
6711.150104104127422
 20
138.9704177983817033
 30
0.0
 40
0.0560158557988033
 50
270.051467871831278
 51
286.2944656102044974
  0
LINE
  5
30575
  8
0
 10
6710.9220985668098365
 20
138.9194019651829137
 30
0.0
 11
6710.8951926381023441
 21
138.9194019651829137
 31
0.0
  0
ARC
  5
30576
  8
0
 10
6711.0970715796829609
 20
138.9168306947157134
 30
0.0
 40
0.0024667400823167
 50
222.0391265944408019
 51
259.9286597381660044
  0
ARC
  5
30577
  8
0
 10
6711.1038094827454188
 20
138.9229058665891898
 30
0.0
 40
0.0115390634330325
 50
213.7590050365168963
 51
222.0391265944493
  0
ARC
  5
30578
  8
0
 10
6711.1610237486665937
 20
138.9561478036170001
 30
0.0
 40
0.0776898743978909
 50
208.8755942616365076
 51
210.6915862357213882
  0
ARC
  5
30579
  8
0
 10
6711.0916571834823117
 20
138.9179162978365127
 30
0.0
 40
0.0015148479970617
 50
28.1352382961067313
 51
78.7358035255270465
  0
ARC
  5
3057A
  8
0
 10
6711.0091330426294007
 20
138.8336876793829049
 30
0.0
 40
0.1207142856999965
 50
46.185985581905058
 51
133.8140144180960078
  0
ARC
  5
3057B
  8
0
 10
6711.096167518447146
 20
138.9244019651827955
 30
0.0
 40
0.005
 50
226.1859855818921119
 51
270.0
  0
LINE
  5
3057C
  8
0
 10
6711.1230734471537289
 20
138.9194019651829137
 30
0.0
 11
6711.096167518447146
 21
138.9194019651829137
 31
0.0
  0
LINE
  5
3057D
  8
0
 10
6711.0919530837863931
 20
138.9194019651829137
 30
0.0
 11
6710.9263130014705894
 21
138.9194019651829137
 31
0.0
  0
ARC
  5
3057E
  8
0
 10
6710.9220985668098365
 20
138.9244019651835913
 30
0.0
 40
0.005
 50
270.0000000017196271
 51
313.8140144136086178
  0
LINE
  5
3057F
  8
0
 10
6710.8681116629977623
 20
138.9144019651828899
 30
0.0
 11
6710.9216258748938344
 21
138.9144019651828899
 31
0.0
  0
ARC
  5
30580
  8
0
 10
6710.868161981128651
 20
138.9704177983817033
 30
0.0
 40
0.0560158557988033
 50
253.7055343897955026
 51
269.948532128168722
  0
ARC
  5
30581
  8
0
 10
6710.9211945055749311
 20
138.9168306947157134
 30
0.0
 40
0.0024667400823167
 50
280.0713402618339956
 51
317.9608734055591981
  0
ARC
  5
30582
  8
0
 10
6710.9144566025115637
 20
138.9229058665891898
 30
0.0
 40
0.0115390634330325
 50
317.9608734055507284
 51
326.2409949634831037
  0
ARC
  5
30583
  8
0
 10
6710.8572423365912982
 20
138.9561478036170001
 30
0.0
 40
0.0776898743978909
 50
329.3084137642778728
 51
331.1244057383634072
  0
ARC
  5
30584
  8
0
 10
6710.9266089017746708
 20
138.9179162978365127
 30
0.0
 40
0.0015148479970617
 50
101.2641964744728966
 51
151.8647617038932083
  0
ARC
  5
30585
  8
0
 10
6711.1089945493085906
 20
138.9109502907101046
 30
0.0
 40
0.1920793357996963
 50
35.3757530471336779
 51
74.5946307763858698
  0
ARC
  5
30586
  8
0
 10
6711.005482434536134
 20
138.626583940564899
 30
0.0
 40
0.494321453935187
 50
71.7824953142888376
 51
89.5768617039960588
  0
ARC
  5
30587
  8
0
 10
6711.0052166879686411
 20
138.6911182983783135
 30
0.0
 40
0.4548899014867221
 50
76.3001767660959587
 51
89.5067084046450248
  0
ARC
  5
30588
  8
0
 10
6711.005506883664566
 20
138.6923087449322907
 30
0.0
 40
0.4536645947737814
 50
64.1785033843205355
 51
76.3001767660959587
  0
ARC
  5
30589
  8
0
 10
6711.1098131859416753
 20
138.9078702605200135
 30
0.0
 40
0.214193152432559
 50
48.749790593762917
 51
64.1785033843205355
  0
ARC
  5
3058A
  8
0
 10
6711.1497177334067601
 20
138.953372340614294
 30
0.0
 40
0.1536719809201484
 50
26.5881577748631308
 51
48.7497905937634783
  0
ARC
  5
3058B
  8
0
 10
6710.9092715359483918
 20
138.9109502907101046
 30
0.0
 40
0.1920793357996963
 50
105.4053692236141018
 51
144.6242469528662866
  0
ARC
  5
3058C
  8
0
 10
6711.012783650719939
 20
138.626583940564899
 30
0.0
 40
0.494321453935187
 50
90.4231382960039269
 51
108.2175046857112051
  0
ARC
  5
3058D
  8
0
 10
6711.0130493972892509
 20
138.6911182983783135
 30
0.0
 40
0.4548899014867221
 50
90.4932915953549895
 51
103.6998232339039987
  0
ARC
  5
3058E
  8
0
 10
6711.0127592015905975
 20
138.6923087449322907
 30
0.0
 40
0.4536645947737814
 50
103.6998232339039987
 51
115.8214966156793935
  0
ARC
  5
3058F
  8
0
 10
6710.9084528993153071
 20
138.9078702605200135
 30
0.0
 40
0.214193152432559
 50
115.8214966156793935
 51
131.2502094062371043
  0
ARC
  5
30590
  8
0
 10
6710.8685483518502224
 20
138.953372340614294
 30
0.0
 40
0.1536719809201484
 50
131.2502094062365074
 51
153.4118422251376046
  0
ARC
  5
30591
  8
0
 10
6711.1089945493085906
 20
139.0278536396556035
 30
0.0
 40
0.1920793357996963
 50
285.4053692236141728
 51
324.624246952866315
  0
ARC
  5
30592
  8
0
 10
6711.005482434536134
 20
139.3122199898008091
 30
0.0
 40
0.494321453935187
 50
270.4231382960039127
 51
288.2175046857112193
  0
ARC
  5
30593
  8
0
 10
6711.0052166879686411
 20
139.2476856319873946
 30
0.0
 40
0.4548899014867221
 50
270.4932915953550037
 51
283.6998232339041124
  0
ARC
  5
30594
  8
0
 10
6711.005506883664566
 20
139.246495185433389
 30
0.0
 40
0.4536645947737814
 50
283.6998232339041124
 51
295.8214966156795072
  0
ARC
  5
30595
  8
0
 10
6711.1098131859416753
 20
139.0309336698456946
 30
0.0
 40
0.214193152432559
 50
295.8214966156795072
 51
311.2502094062369906
  0
ARC
  5
30596
  8
0
 10
6711.1497177334067601
 20
138.9854315897514141
 30
0.0
 40
0.1536719809201484
 50
311.250209406236479
 51
333.4118422251369225
  0
ARC
  5
30597
  8
0
 10
6710.9092715359483918
 20
139.0278536396556035
 30
0.0
 40
0.1920793357996963
 50
215.3757530471337134
 51
254.5946307763859124
  0
ARC
  5
30598
  8
0
 10
6711.012783650719939
 20
139.3122199898008091
 30
0.0
 40
0.494321453935187
 50
251.7824953142888091
 51
269.5768617039959736
  0
ARC
  5
30599
  8
0
 10
6711.0130493972892509
 20
139.2476856319873946
 30
0.0
 40
0.4548899014867221
 50
256.3001767660958876
 51
269.5067084046449963
  0
ARC
  5
3059A
  8
0
 10
6711.0127592015905975
 20
139.246495185433389
 30
0.0
 40
0.4536645947737814
 50
244.1785033843204928
 51
256.3001767660958876
  0
ARC
  5
3059B
  8
0
 10
6710.9084528993153071
 20
139.0309336698456946
 30
0.0
 40
0.214193152432559
 50
228.7497905937628957
 51
244.1785033843204928
  0
ARC
  5
3059C
  8
0
 10
6710.8685483518502224
 20
138.9854315897514141
 30
0.0
 40
0.1536719809201484
 50
206.5881577748623954
 51
228.7497905937634926
  0
LINE
  5
3059D
  8
0
 10
6711.1501544222592202
 20
126.9584019651828015
 30
0.0
 11
6711.0966402103631481
 21
126.9584019651828015
 31
0.0
  0
ARC
  5
3059E
  8
0
 10
6711.150104104127422
 20
126.9023861319840023
 30
0.0
 40
0.0560158557988033
 50
73.7055343897955169
 51
89.9485321281686936
  0
LINE
  5
3059F
  8
0
 10
6710.9220985668098365
 20
126.9534019651828061
 30
0.0
 11
6710.8951926381023441
 21
126.9534019651828061
 31
0.0
  0
ARC
  5
305A0
  8
0
 10
6711.0970715796829609
 20
126.9559732356499069
 30
0.0
 40
0.0024667400823167
 50
100.0713402618338961
 51
137.9608734055591981
  0
ARC
  5
305A1
  8
0
 10
6711.1038094827454188
 20
126.9498980637765015
 30
0.0
 40
0.0115390634330325
 50
137.9608734055507
 51
146.2409949634831037
  0
ARC
  5
305A2
  8
0
 10
6711.1610237486665937
 20
126.9166561267487054
 30
0.0
 40
0.0776898743978909
 50
149.3084137642784981
 51
151.1244057383634924
  0
ARC
  5
305A3
  8
0
 10
6711.0916571834823117
 20
126.9548876325293065
 30
0.0
 40
0.0015148479970617
 50
281.2641964744728966
 51
331.8647617038932935
  0
ARC
  5
305A4
  8
0
 10
6711.1398830426278437
 20
126.9034019651827947
 30
0.0
 40
0.0527500000000032
 50
90.0
 51
270.0
  0
ARC
  5
305A5
  8
0
 10
6711.0091330426294007
 20
127.0391162509828007
 30
0.0
 40
0.1207142856999965
 50
226.1859855819039069
 51
313.8140144180949278
  0
ARC
  5
305A6
  8
0
 10
6711.096167518447146
 20
126.9484019651827964
 30
0.0
 40
0.005
 50
90.0
 51
133.8140144181078881
  0
LINE
  5
305A7
  8
0
 10
6711.1230734471537289
 20
126.9534019651828061
 30
0.0
 11
6711.096167518447146
 21
126.9534019651828061
 31
0.0
  0
LINE
  5
305A8
  8
0
 10
6711.0919530837863931
 20
126.9534019651828061
 30
0.0
 11
6710.9263130014705894
 21
126.9534019651828061
 31
0.0
  0
ARC
  5
305A9
  8
0
 10
6710.9220985668098365
 20
126.9484019651821001
 30
0.0
 40
0.005
 50
46.185985586391439
 51
89.9999999982803587
  0
LINE
  5
305AA
  8
0
 10
6710.8681116629977623
 20
126.9584019651828015
 30
0.0
 11
6710.9216258748938344
 21
126.9584019651828015
 31
0.0
  0
ARC
  5
305AB
  8
0
 10
6710.868161981128651
 20
126.9023861319840023
 30
0.0
 40
0.0560158557988033
 50
90.0514678718313206
 51
106.2944656102044974
  0
ARC
  5
305AC
  8
0
 10
6710.9211945055749311
 20
126.9559732356499069
 30
0.0
 40
0.0024667400823167
 50
42.039126594440809
 51
79.9286597381660613
  0
ARC
  5
305AD
  8
0
 10
6710.9144566025115637
 20
126.9498980637765015
 30
0.0
 40
0.0115390634330325
 50
33.7590050365169532
 51
42.0391265944492716
  0
ARC
  5
305AE
  8
0
 10
6710.8572423365912982
 20
126.9166561267487054
 30
0.0
 40
0.0776898743978909
 50
28.8755942616365608
 51
30.6915862357214699
  0
ARC
  5
305AF
  8
0
 10
6710.9266089017746708
 20
126.9548876325293065
 30
0.0
 40
0.0015148479970617
 50
208.1352382961067065
 51
258.7358035255269897
  0
ARC
  5
305B0
  8
0
 10
6710.8783830426291388
 20
126.9034019651827947
 30
0.0
 40
0.0527500000000032
 50
270.0
 51
90.0
  0
LINE
  5
305B1
  8
0
 10
6711.1501544222592202
 20
126.8484019651828021
 30
0.0
 11
6711.0966402103631481
 21
126.8484019651828021
 31
0.0
  0
ARC
  5
305B2
  8
0
 10
6711.150104104127422
 20
126.9044177983817008
 30
0.0
 40
0.0560158557988033
 50
270.051467871831278
 51
286.2944656102044974
  0
LINE
  5
305B3
  8
0
 10
6710.9220985668098365
 20
126.853401965182897
 30
0.0
 11
6710.8951926381023441
 21
126.853401965182897
 31
0.0
  0
ARC
  5
305B4
  8
0
 10
6711.0970715796829609
 20
126.8508306947157962
 30
0.0
 40
0.0024667400823167
 50
222.0391265944408019
 51
259.9286597381660044
  0
ARC
  5
305B5
  8
0
 10
6711.1038094827454188
 20
126.8569058665891021
 30
0.0
 40
0.0115390634330325
 50
213.7590050365168963
 51
222.0391265944493
  0
ARC
  5
305B6
  8
0
 10
6711.1610237486665937
 20
126.8901478036169976
 30
0.0
 40
0.0776898743978909
 50
208.8755942616365076
 51
210.6915862357213882
  0
ARC
  5
305B7
  8
0
 10
6711.0916571834823117
 20
126.8519162978363966
 30
0.0
 40
0.0015148479970617
 50
28.1352382961067313
 51
78.7358035255270465
  0
ARC
  5
305B8
  8
0
 10
6711.0091330426294007
 20
126.7676876793828029
 30
0.0
 40
0.1207142856999965
 50
46.185985581905058
 51
133.8140144180960078
  0
ARC
  5
305B9
  8
0
 10
6711.096167518447146
 20
126.858401965182793
 30
0.0
 40
0.005
 50
226.1859855818921119
 51
270.0
  0
LINE
  5
305BA
  8
0
 10
6711.1230734471537289
 20
126.853401965182897
 30
0.0
 11
6711.096167518447146
 21
126.853401965182897
 31
0.0
  0
LINE
  5
305BB
  8
0
 10
6711.0919530837863931
 20
126.853401965182897
 30
0.0
 11
6710.9263130014705894
 21
126.853401965182897
 31
0.0
  0
ARC
  5
305BC
  8
0
 10
6710.9220985668098365
 20
126.858401965183603
 30
0.0
 40
0.005
 50
270.0000000017196271
 51
313.8140144136086178
  0
LINE
  5
305BD
  8
0
 10
6710.8681116629977623
 20
126.8484019651828021
 30
0.0
 11
6710.9216258748938344
 21
126.8484019651828021
 31
0.0
  0
ARC
  5
305BE
  8
0
 10
6710.868161981128651
 20
126.9044177983817008
 30
0.0
 40
0.0560158557988033
 50
253.7055343897955026
 51
269.948532128168722
  0
ARC
  5
305BF
  8
0
 10
6710.9211945055749311
 20
126.8508306947157962
 30
0.0
 40
0.0024667400823167
 50
280.0713402618339956
 51
317.9608734055591981
  0
ARC
  5
305C0
  8
0
 10
6710.9144566025115637
 20
126.8569058665891021
 30
0.0
 40
0.0115390634330325
 50
317.9608734055507284
 51
326.2409949634831037
  0
ARC
  5
305C1
  8
0
 10
6710.8572423365912982
 20
126.8901478036169976
 30
0.0
 40
0.0776898743978909
 50
329.3084137642778728
 51
331.1244057383634072
  0
ARC
  5
305C2
  8
0
 10
6710.9266089017746708
 20
126.8519162978363966
 30
0.0
 40
0.0015148479970617
 50
101.2641964744728966
 51
151.8647617038932083
  0
ARC
  5
305C3
  8
0
 10
6711.1089945493085906
 20
126.8449502907101021
 30
0.0
 40
0.1920793357996963
 50
35.3757530471957082
 51
74.5946307763858698
  0
ARC
  5
305C4
  8
0
 10
6711.005482434536134
 20
126.5605839405648965
 30
0.0
 40
0.494321453935187
 50
71.7824953142888376
 51
89.5768617039960588
  0
ARC
  5
305C5
  8
0
 10
6711.0052166879686411
 20
126.6251182983782968
 30
0.0
 40
0.4548899014867221
 50
76.3001767660959587
 51
89.5067084046450248
  0
ARC
  5
305C6
  8
0
 10
6711.005506883664566
 20
126.6263087449323024
 30
0.0
 40
0.4536645947737814
 50
64.1785033843205355
 51
76.3001767660959587
  0
ARC
  5
305C7
  8
0
 10
6711.1098131859416753
 20
126.8418702605199968
 30
0.0
 40
0.214193152432559
 50
48.749790593762917
 51
64.1785033843205355
  0
ARC
  5
305C8
  8
0
 10
6711.1497177334067601
 20
126.8873723406143057
 30
0.0
 40
0.1536719809201484
 50
26.5881577749366897
 51
48.7497905937634783
  0
ARC
  5
305C9
  8
0
 10
6710.9092715359483918
 20
126.8449502907101021
 30
0.0
 40
0.1920793357996963
 50
105.4053692236141018
 51
144.6242469528029062
  0
ARC
  5
305CA
  8
0
 10
6711.012783650719939
 20
126.5605839405648965
 30
0.0
 40
0.494321453935187
 50
90.4231382960039269
 51
108.2175046857112051
  0
ARC
  5
305CB
  8
0
 10
6711.0130493972892509
 20
126.6251182983782968
 30
0.0
 40
0.4548899014867221
 50
90.4932915953549895
 51
103.6998232339039987
  0
ARC
  5
305CC
  8
0
 10
6711.0127592015905975
 20
126.6263087449323024
 30
0.0
 40
0.4536645947737814
 50
103.6998232339039987
 51
115.8214966156793935
  0
ARC
  5
305CD
  8
0
 10
6710.9084528993153071
 20
126.8418702605199968
 30
0.0
 40
0.214193152432559
 50
115.8214966156793935
 51
131.2502094062371043
  0
ARC
  5
305CE
  8
0
 10
6710.8685483518502224
 20
126.8873723406143057
 30
0.0
 40
0.1536719809201484
 50
131.2502094062365074
 51
153.4118422250633103
  0
ARC
  5
305CF
  8
0
 10
6711.1089945493085906
 20
126.961853639655601
 30
0.0
 40
0.1920793357996963
 50
285.4053692236141728
 51
324.6242469528028778
  0
ARC
  5
305D0
  8
0
 10
6711.005482434536134
 20
127.2462199898008066
 30
0.0
 40
0.494321453935187
 50
270.4231382960039127
 51
288.2175046857112193
  0
ARC
  5
305D1
  8
0
 10
6711.0052166879686411
 20
127.1816856319874063
 30
0.0
 40
0.4548899014867221
 50
270.4932915953550037
 51
283.6998232339041124
  0
ARC
  5
305D2
  8
0
 10
6711.005506883664566
 20
127.1804951854334007
 30
0.0
 40
0.4536645947737814
 50
283.6998232339041124
 51
295.8214966156795072
  0
ARC
  5
305D3
  8
0
 10
6711.1098131859416753
 20
126.9649336698457063
 30
0.0
 40
0.214193152432559
 50
295.8214966156795072
 51
311.2502094062369906
  0
ARC
  5
305D4
  8
0
 10
6711.1497177334067601
 20
126.9194315897513974
 30
0.0
 40
0.1536719809201484
 50
311.250209406236479
 51
333.4118422250618892
  0
ARC
  5
305D5
  8
0
 10
6710.9092715359483918
 20
126.961853639655601
 30
0.0
 40
0.1920793357996963
 50
215.3757530471970085
 51
254.5946307763859124
  0
ARC
  5
305D6
  8
0
 10
6711.012783650719939
 20
127.2462199898008066
 30
0.0
 40
0.494321453935187
 50
251.7824953142888091
 51
269.5768617039959736
  0
ARC
  5
305D7
  8
0
 10
6711.0130493972892509
 20
127.1816856319874063
 30
0.0
 40
0.4548899014867221
 50
256.3001767660958876
 51
269.5067084046449963
  0
ARC
  5
305D8
  8
0
 10
6711.0127592015905975
 20
127.1804951854334007
 30
0.0
 40
0.4536645947737814
 50
244.1785033843204928
 51
256.3001767660958876
  0
ARC
  5
305D9
  8
0
 10
6710.9084528993153071
 20
126.9649336698457063
 30
0.0
 40
0.214193152432559
 50
228.7497905937628957
 51
244.1785033843204928
  0
ARC
  5
305DA
  8
0
 10
6710.8685483518502224
 20
126.9194315897513974
 30
0.0
 40
0.1536719809201484
 50
206.5881577749381108
 51
228.7497905937634926
  0
LINE
  5
305DB
  8
0
 10
6713.3537532364289291
 20
125.6912854395546049
 30
0.0
 11
6713.3537532364289291
 21
140.0422611033110911
 31
0.0
  0
ARC
  5
305DC
  8
0
 10
6712.3983760201672339
 20
125.904570148995802
 30
0.0
 40
0.9788952919663323
 50
282.6799742512540092
 51
347.4152742483278757
  0
ARC
  5
305DD
  8
0
 10
6712.3983760201672339
 20
139.8289763938699082
 30
0.0
 40
0.9788952919663323
 50
12.5847257516720603
 51
77.3200257487459766
  0
LINE
  5
305DE
  8
0
 10
6700.6895710039880214
 20
140.1694382862062014
 30
0.0
 11
6712.097483232490049
 21
140.1699601266691957
 31
0.0
  0
LINE
  5
305DF
  8
0
 10
6712.8369693451322746
 20
126.2830804689554043
 30
0.0
 11
6712.8265163496480454
 21
139.4415392401863869
 31
0.0
  0
LINE
  5
305E0
  8
0
 10
6700.6793005767658542
 20
125.5539889280754977
 30
0.0
 11
6712.1079384743852643
 21
125.5535013568644018
 31
0.0
  0
LINE
  5
305E1
  8
0
 10
6699.6930169222960103
 20
139.1736494394189094
 30
0.0
 11
6699.6827434240531147
 21
126.551400079338606
 31
0.0
  0
ARC
  5
305E2
  8
0
 10
6700.689616592191669
 20
139.1728382872489078
 30
0.0
 40
0.9966000000000002
 50
90.0026209227194869
 51
179.9533658428499052
  0
ARC
  5
305E3
  8
0
 10
6700.6793430939469545
 20
126.5505889271686044
 30
0.0
 40
0.9966000000000002
 50
179.9533658428507863
 51
269.997555634116793
  0
ARC
  5
305E4
  8
0
 10
6712.1079695751532199
 20
126.2825013562009957
 30
0.0
 40
0.729
 50
269.997555634116793
 51
0.0455153911940569
  0
ARC
  5
305E5
  8
0
 10
6712.0975165796689907
 20
139.4409601274319925
 30
0.0
 40
0.729
 50
0.0455153911948711
 51
90.0026209227194869
  0
LINE
  5
305E6
  8
0
 10
6712.6127808403716699
 20
139.956657462738093
 30
0.0
 11
6713.0911346229077026
 21
140.5205843109461057
 31
0.0
  0
LINE
  5
305E7
  8
0
 10
6699.9851846938026938
 20
139.8778115211609929
 30
0.0
 11
6699.3699515382304526
 21
140.4928618661822952
 31
0.0
  0
LINE
  5
305E8
  8
0
 10
6699.9743387227335916
 20
125.8461881913870002
 30
0.0
 11
6699.3659564956888062
 21
125.2447025570129
 31
0.0
  0
LINE
  5
305E9
  8
0
 10
6712.6236441337387078
 20
125.7672143006412
 30
0.0
 11
6713.0911346229077026
 21
125.2129622319196045
 31
0.0
  0
LINE
  5
305EA
  8
0
 10
6699.1387523214280009
 20
144.6132826863828882
 30
0.0
 11
6729.1395137638291999
 21
144.6132826863828882
 31
0.0
  0
LINE
  5
305EB
  8
0
 10
6698.1522523214289322
 20
124.626778549112899
 30
0.0
 11
6698.1522523214289322
 21
143.62678268638291
 31
0.0
  0
ARC
  5
305EC
  8
0
 10
6699.1387523214280009
 20
143.62678268638291
 30
0.0
 40
0.9865
 50
90.0
 51
180.0
  0
LINE
  5
305ED
  8
0
 10
6713.7462539479802217
 20
140.7839977256828092
 30
0.0
 11
6713.7462539479802217
 21
124.9495488171828015
 31
0.0
  0
LINE
  5
305EE
  8
0
 10
6730.6395128488138653
 20
124.6267806178128978
 30
0.0
 11
6730.6395128488138653
 21
143.6267806177827993
 31
0.0
  0
ARC
  5
305EF
  8
0
 10
6729.1395128488138653
 20
143.6267806177829129
 30
0.0
 40
1.5
 50
359.9999999999992042
 51
90.0
  0
LINE
  5
305F0
  8
0
 10
6729.7246361240286205
 20
125.7916579901828982
 30
0.0
 11
6729.7246361240286205
 21
139.9418885525828102
 31
0.0
  0
ARC
  5
305F1
  8
0
 10
6727.974636124027711
 20
125.7916579901828982
 30
0.0
 40
1.75
 50
270.0
 51
0.0
  0
ARC
  5
305F2
  8
0
 10
6727.974636124027711
 20
139.9418885525828102
 30
0.0
 40
1.75
 50
0.0
 51
90.0
  0
LINE
  5
305F3
  8
0
 10
6729.1994504065287401
 20
125.9435488171829007
 30
0.0
 11
6729.1994504065287401
 21
139.7899977256828947
 31
0.0
  0
ARC
  5
305F4
  8
0
 10
6728.2054504065281435
 20
125.9435488171829007
 30
0.0
 40
0.9939999999999999
 50
270.0
 51
0.0
  0
ARC
  5
305F5
  8
0
 10
6728.2054504065281435
 20
139.7899977256828947
 30
0.0
 40
0.9939999999999999
 50
0.0
 51
90.0
  0
LINE
  5
305F6
  8
0
 10
6727.5973467064286524
 20
140.0254946290828002
 30
0.0
 11
6716.4409193788287666
 21
140.0254946290828002
 31
0.0
  0
LINE
  5
305F7
  8
0
 10
6727.5973467064286524
 20
139.8379946290828002
 30
0.0
 11
6716.4409193788287666
 21
139.8379946290828002
 31
0.0
  0
LINE
  5
305F8
  8
0
 10
6728.2538467064287033
 20
126.5520519136829023
 30
0.0
 11
6728.2538467064287033
 21
139.1814946290828061
 31
0.0
  0
LINE
  5
305F9
  8
0
 10
6728.4413467064287033
 20
139.1814946290828061
 30
0.0
 11
6728.4413467064287033
 21
126.5520519136829023
 31
0.0
  0
LINE
  5
305FA
  8
0
 10
6727.5973467064286524
 20
125.895551913682894
 30
0.0
 11
6716.4409193788287666
 21
125.895551913682894
 31
0.0
  0
LINE
  5
305FB
  8
0
 10
6727.5973467064286524
 20
125.708051913682894
 30
0.0
 11
6716.4409193788287666
 21
125.708051913682894
 31
0.0
  0
ARC
  5
305FC
  8
0
 10
6727.5973467064286524
 20
126.5520519136829023
 30
0.0
 40
0.6565
 50
270.0
 51
0.0000000000008142
  0
ARC
  5
305FD
  8
0
 10
6727.5973467064286524
 20
139.1814946290828061
 30
0.0
 40
0.6565
 50
359.9999999999992042
 51
90.0
  0
ARC
  5
305FE
  8
0
 10
6727.5973467064286524
 20
139.1814946290828061
 30
0.0
 40
0.8439999999999999
 50
359.9999999999992042
 51
90.0
  0
ARC
  5
305FF
  8
0
 10
6727.5973467064286524
 20
126.5520519136829023
 30
0.0
 40
0.8439999999999999
 50
270.0
 51
0.0
  0
LINE
  5
30600
  8
0
 10
6715.7844193788287157
 20
126.5520519136829023
 30
0.0
 11
6715.7844193788287157
 21
139.1814946290828061
 31
0.0
  0
LINE
  5
30601
  8
0
 10
6715.5969193788287157
 20
139.1814946290828061
 30
0.0
 11
6715.5969193788287157
 21
126.5520519136829023
 31
0.0
  0
ARC
  5
30602
  8
0
 10
6716.4409193788287666
 20
139.1814946290828061
 30
0.0
 40
0.8439999999999999
 50
90.0
 51
180.0
  0
ARC
  5
30603
  8
0
 10
6716.4409193788287666
 20
126.5520519136829023
 30
0.0
 40
0.8439999999999999
 50
179.9999999999992042
 51
270.0
  0
ARC
  5
30604
  8
0
 10
6716.4409193788287666
 20
126.5520519136829023
 30
0.0
 40
0.6565
 50
179.9999999999992042
 51
270.0
  0
ARC
  5
30605
  8
0
 10
6716.4409193788287666
 20
139.1814946290828061
 30
0.0
 40
0.6565
 50
90.0
 51
180.0000000000007958
  0
LINE
  5
30606
  8
0
 10
6724.2378830426287095
 20
139.8379946290828002
 30
0.0
 11
6724.2378830426287095
 21
139.0221519651828999
 31
0.0
  0
LINE
  5
30607
  8
0
 10
6724.2378830426287095
 20
138.9166519651828082
 30
0.0
 11
6724.2378830426287095
 21
138.1681519651828012
 31
0.0
  0
LINE
  5
30608
  8
0
 10
6724.2378830426287095
 20
138.0626519651829085
 30
0.0
 11
6724.2378830426287095
 21
137.3141519651829014
 31
0.0
  0
LINE
  5
30609
  8
0
 10
6724.2378830426287095
 20
137.2086519651828098
 30
0.0
 11
6724.2378830426287095
 21
136.4601519651828028
 31
0.0
  0
LINE
  5
3060A
  8
0
 10
6724.2378830426287095
 20
136.3546519651829101
 30
0.0
 11
6724.2378830426287095
 21
135.606151965182903
 31
0.0
  0
LINE
  5
3060B
  8
0
 10
6724.2378830426287095
 20
135.5006519651828114
 30
0.0
 11
6724.2378830426287095
 21
134.7521519651828044
 31
0.0
  0
LINE
  5
3060C
  8
0
 10
6724.2378830426287095
 20
134.6466519651829117
 30
0.0
 11
6724.2378830426287095
 21
133.8981519651829046
 31
0.0
  0
LINE
  5
3060D
  8
0
 10
6724.2378830426287095
 20
133.792651965182813
 30
0.0
 11
6724.2378830426287095
 21
133.044151965182806
 31
0.0
  0
LINE
  5
3060E
  8
0
 10
6724.2378830426287095
 20
132.9386519651829133
 30
0.0
 11
6724.2378830426287095
 21
132.1901519651829062
 31
0.0
  0
LINE
  5
3060F
  8
0
 10
6724.2378830426287095
 20
132.0846519651827862
 30
0.0
 11
6724.2378830426287095
 21
131.3361519651828075
 31
0.0
  0
LINE
  5
30610
  8
0
 10
6724.2378830426287095
 20
131.2306519651828012
 30
0.0
 11
6724.2378830426287095
 21
130.4821519651829078
 31
0.0
  0
LINE
  5
30611
  8
0
 10
6724.2378830426287095
 20
130.3766519651827878
 30
0.0
 11
6724.2378830426287095
 21
129.6281519651828091
 31
0.0
  0
LINE
  5
30612
  8
0
 10
6724.2378830426287095
 20
129.522651965182888
 30
0.0
 11
6724.2378830426287095
 21
128.7741519651829094
 31
0.0
  0
LINE
  5
30613
  8
0
 10
6724.2378830426287095
 20
128.6686519651827894
 30
0.0
 11
6724.2378830426287095
 21
127.9201519651827965
 31
0.0
  0
LINE
  5
30614
  8
0
 10
6724.2378830426287095
 20
127.8146519651828044
 30
0.0
 11
6724.2378830426287095
 21
126.9561519651827979
 31
0.0
  0
LINE
  5
30615
  8
0
 10
6724.2378830426287095
 20
126.8506519651829052
 30
0.0
 11
6724.2378830426287095
 21
125.895551913682894
 31
0.0
  0
LINE
  5
30616
  8
0
 10
6724.0503830426287095
 20
139.8379946290828002
 30
0.0
 11
6724.0503830426287095
 21
139.0221519651828999
 31
0.0
  0
LINE
  5
30617
  8
0
 10
6724.0503830426287095
 20
138.9166519651828082
 30
0.0
 11
6724.0503830426287095
 21
138.1681519651828012
 31
0.0
  0
LINE
  5
30618
  8
0
 10
6724.0503830426287095
 20
138.0626519651829085
 30
0.0
 11
6724.0503830426287095
 21
137.3141519651829014
 31
0.0
  0
LINE
  5
30619
  8
0
 10
6724.0503830426287095
 20
137.2086519651828098
 30
0.0
 11
6724.0503830426287095
 21
136.4601519651828028
 31
0.0
  0
LINE
  5
3061A
  8
0
 10
6724.0503830426287095
 20
136.3546519651829101
 30
0.0
 11
6724.0503830426287095
 21
135.9149106277585872
 31
0.0
  0
LINE
  5
3061B
  8
0
 10
6724.0503830426287095
 20
134.3378933026071138
 30
0.0
 11
6724.0503830426287095
 21
133.8981519651829046
 31
0.0
  0
LINE
  5
3061C
  8
0
 10
6724.0503830426287095
 20
133.792651965182813
 30
0.0
 11
6724.0503830426287095
 21
133.044151965182806
 31
0.0
  0
LINE
  5
3061D
  8
0
 10
6724.0503830426287095
 20
132.9386519651829133
 30
0.0
 11
6724.0503830426287095
 21
132.1901519651829062
 31
0.0
  0
LINE
  5
3061E
  8
0
 10
6724.0503830426287095
 20
132.0846519651827862
 30
0.0
 11
6724.0503830426287095
 21
131.3361519651828075
 31
0.0
  0
LINE
  5
3061F
  8
0
 10
6724.0503830426287095
 20
131.2306519651828012
 30
0.0
 11
6724.0503830426287095
 21
130.4821519651829078
 31
0.0
  0
LINE
  5
30620
  8
0
 10
6724.0503830426287095
 20
130.3766519651827878
 30
0.0
 11
6724.0503830426287095
 21
129.6281519651828091
 31
0.0
  0
LINE
  5
30621
  8
0
 10
6724.0503830426287095
 20
129.522651965182888
 30
0.0
 11
6724.0503830426287095
 21
128.7741519651829094
 31
0.0
  0
LINE
  5
30622
  8
0
 10
6724.0503830426287095
 20
128.6686519651827894
 30
0.0
 11
6724.0503830426287095
 21
127.9201519651827965
 31
0.0
  0
LINE
  5
30623
  8
0
 10
6724.0503830426287095
 20
127.8146519651828044
 30
0.0
 11
6724.0503830426287095
 21
126.9561519651827979
 31
0.0
  0
LINE
  5
30624
  8
0
 10
6724.0503830426287095
 20
126.8506519651829052
 30
0.0
 11
6724.0503830426287095
 21
125.895551913682894
 31
0.0
  0
LINE
  5
30625
  8
0
 10
6728.2538467064287033
 20
139.0221519651828999
 30
0.0
 11
6726.899883042628062
 21
139.0221519651828999
 31
0.0
  0
LINE
  5
30626
  8
0
 10
6726.6383830426293571
 20
139.0221519651828999
 30
0.0
 11
6715.7844193788287157
 21
139.0221519651828999
 31
0.0
  0
LINE
  5
30627
  8
0
 10
6728.2538467064287033
 20
138.9166519651828082
 30
0.0
 11
6726.899883042628062
 21
138.9166519651828082
 31
0.0
  0
LINE
  5
30628
  8
0
 10
6726.6383830426293571
 20
138.9166519651828082
 30
0.0
 11
6715.7844193788287157
 21
138.9166519651828082
 31
0.0
  0
LINE
  5
30629
  8
0
 10
6728.2538467064287033
 20
138.1681519651828012
 30
0.0
 11
6715.7844193788287157
 21
138.1681519651828012
 31
0.0
  0
LINE
  5
3062A
  8
0
 10
6728.2538467064287033
 20
138.0626519651829085
 30
0.0
 11
6715.7844193788287157
 21
138.0626519651829085
 31
0.0
  0
LINE
  5
3062B
  8
0
 10
6728.2538467064287033
 20
137.3141519651829014
 30
0.0
 11
6715.7844193788287157
 21
137.3141519651829014
 31
0.0
  0
LINE
  5
3062C
  8
0
 10
6728.2538467064287033
 20
137.2086519651828098
 30
0.0
 11
6722.660972127569039
 21
137.2086519651828098
 31
0.0
  0
LINE
  5
3062D
  8
0
 10
6721.37729395768838
 20
137.2086519651828098
 30
0.0
 11
6715.7844193788287157
 21
137.2086519651828098
 31
0.0
  0
LINE
  5
3062E
  8
0
 10
6728.2538467064287033
 20
136.4601519651828028
 30
0.0
 11
6723.7421633415369797
 21
136.4601519651828028
 31
0.0
  0
LINE
  5
3062F
  8
0
 10
6720.2961027437204393
 20
136.4601519651828028
 30
0.0
 11
6715.7844193788287157
 21
136.4601519651828028
 31
0.0
  0
LINE
  5
30630
  8
0
 10
6728.2538467064287033
 20
136.3546519651829101
 30
0.0
 11
6723.8188898070166033
 21
136.3546519651829101
 31
0.0
  0
LINE
  5
30631
  8
0
 10
6720.2193762782408157
 20
136.3546519651829101
 30
0.0
 11
6715.7844193788287157
 21
136.3546519651829101
 31
0.0
  0
LINE
  5
30632
  8
0
 10
6728.2538467064287033
 20
135.606151965182903
 30
0.0
 11
6724.1445888551443204
 21
135.606151965182903
 31
0.0
  0
LINE
  5
30633
  8
0
 10
6719.8936772301140081
 20
135.606151965182903
 30
0.0
 11
6715.7844193788287157
 21
135.606151965182903
 31
0.0
  0
LINE
  5
30634
  8
0
 10
6728.2538467064287033
 20
135.5006519651828114
 30
0.0
 11
6724.1656789682865565
 21
135.5006519651828114
 31
0.0
  0
LINE
  5
30635
  8
0
 10
6719.8725871169708626
 20
135.5006519651828114
 30
0.0
 11
6715.7844193788287157
 21
135.5006519651828114
 31
0.0
  0
LINE
  5
30636
  8
0
 10
6728.2538467064287033
 20
134.7521519651828044
 30
0.0
 11
6724.1656789682865565
 21
134.7521519651828044
 31
0.0
  0
LINE
  5
30637
  8
0
 10
6719.8725871169708626
 20
134.7521519651828044
 30
0.0
 11
6715.7844193788287157
 21
134.7521519651828044
 31
0.0
  0
LINE
  5
30638
  8
0
 10
6728.2538467064287033
 20
134.6466519651829117
 30
0.0
 11
6724.1445888551443204
 21
134.6466519651829117
 31
0.0
  0
LINE
  5
30639
  8
0
 10
6719.8936772301140081
 20
134.6466519651829117
 30
0.0
 11
6715.7844193788287157
 21
134.6466519651829117
 31
0.0
  0
LINE
  5
3063A
  8
0
 10
6728.2538467064287033
 20
133.8981519651829046
 30
0.0
 11
6723.8188898070166033
 21
133.8981519651829046
 31
0.0
  0
LINE
  5
3063B
  8
0
 10
6720.2193762782408157
 20
133.8981519651829046
 30
0.0
 11
6715.7844193788287157
 21
133.8981519651829046
 31
0.0
  0
LINE
  5
3063C
  8
0
 10
6728.2538467064287033
 20
133.792651965182813
 30
0.0
 11
6723.7421633415369797
 21
133.792651965182813
 31
0.0
  0
LINE
  5
3063D
  8
0
 10
6720.2961027437213488
 20
133.792651965182813
 30
0.0
 11
6715.7844193788287157
 21
133.792651965182813
 31
0.0
  0
LINE
  5
3063E
  8
0
 10
6728.2538467064287033
 20
133.044151965182806
 30
0.0
 11
6722.660972127569039
 21
133.044151965182806
 31
0.0
  0
LINE
  5
3063F
  8
0
 10
6721.37729395768838
 20
133.044151965182806
 30
0.0
 11
6715.7844193788287157
 21
133.044151965182806
 31
0.0
  0
LINE
  5
30640
  8
0
 10
6728.2538467064287033
 20
132.9386519651829133
 30
0.0
 11
6715.7844193788287157
 21
132.9386519651829133
 31
0.0
  0
LINE
  5
30641
  8
0
 10
6728.2538467064287033
 20
132.1901519651829062
 30
0.0
 11
6715.7844193788287157
 21
132.1901519651829062
 31
0.0
  0
LINE
  5
30642
  8
0
 10
6728.2538467064287033
 20
132.0846519651827862
 30
0.0
 11
6715.7844193788287157
 21
132.0846519651827862
 31
0.0
  0
LINE
  5
30643
  8
0
 10
6728.2538467064287033
 20
131.3361519651828075
 30
0.0
 11
6715.7844193788287157
 21
131.3361519651828075
 31
0.0
  0
LINE
  5
30644
  8
0
 10
6728.2538467064287033
 20
131.2306519651828012
 30
0.0
 11
6715.7844193788287157
 21
131.2306519651828012
 31
0.0
  0
LINE
  5
30645
  8
0
 10
6728.2538467064287033
 20
130.4821519651829078
 30
0.0
 11
6715.7844193788287157
 21
130.4821519651829078
 31
0.0
  0
LINE
  5
30646
  8
0
 10
6728.2538467064287033
 20
130.3766519651827878
 30
0.0
 11
6715.7844193788287157
 21
130.3766519651827878
 31
0.0
  0
LINE
  5
30647
  8
0
 10
6728.2538467064287033
 20
129.6281519651828091
 30
0.0
 11
6715.7844193788287157
 21
129.6281519651828091
 31
0.0
  0
LINE
  5
30648
  8
0
 10
6728.2538467064287033
 20
129.522651965182888
 30
0.0
 11
6715.7844193788287157
 21
129.522651965182888
 31
0.0
  0
LINE
  5
30649
  8
0
 10
6728.2538467064287033
 20
128.7741519651829094
 30
0.0
 11
6715.7844193788287157
 21
128.7741519651829094
 31
0.0
  0
LINE
  5
3064A
  8
0
 10
6728.2538467064287033
 20
128.6686519651827894
 30
0.0
 11
6715.7844193788287157
 21
128.6686519651827894
 31
0.0
  0
LINE
  5
3064B
  8
0
 10
6728.2538467064287033
 20
127.9201519651827965
 30
0.0
 11
6715.7844193788287157
 21
127.9201519651827965
 31
0.0
  0
LINE
  5
3064C
  8
0
 10
6728.2538467064287033
 20
127.8146519651828044
 30
0.0
 11
6715.7844193788287157
 21
127.8146519651828044
 31
0.0
  0
LINE
  5
3064D
  8
0
 10
6728.2538467064287033
 20
126.9561519651827979
 30
0.0
 11
6726.899883042628062
 21
126.9561519651827979
 31
0.0
  0
LINE
  5
3064E
  8
0
 10
6726.6383830426293571
 20
126.9561519651827979
 30
0.0
 11
6715.7844193788287157
 21
126.9561519651827979
 31
0.0
  0
LINE
  5
3064F
  8
0
 10
6728.2538467064287033
 20
126.8506519651829052
 30
0.0
 11
6726.899883042628062
 21
126.8506519651829052
 31
0.0
  0
LINE
  5
30650
  8
0
 10
6726.6383830426293571
 20
126.8506519651829052
 30
0.0
 11
6715.7844193788287157
 21
126.8506519651829052
 31
0.0
  0
LINE
  5
30651
  8
0
 10
6726.9101544222603479
 20
139.0244019651829035
 30
0.0
 11
6726.8566402103633664
 21
139.0244019651829035
 31
0.0
  0
ARC
  5
30652
  8
0
 10
6726.9101041041276403
 20
138.9683861319840048
 30
0.0
 40
0.0560158557988033
 50
73.7055343897955169
 51
89.9485321281686936
  0
LINE
  5
30653
  8
0
 10
6726.6820985668100548
 20
139.0194019651827944
 30
0.0
 11
6726.6551926381016528
 21
139.0194019651827944
 31
0.0
  0
ARC
  5
30654
  8
0
 10
6726.8570715796831792
 20
139.0219732356499094
 30
0.0
 40
0.0024667400823167
 50
100.0713402618338961
 51
137.9608734055591981
  0
ARC
  5
30655
  8
0
 10
6726.8638094827447276
 20
139.0158980637766035
 30
0.0
 40
0.0115390634330325
 50
137.9608734055507
 51
146.2409949634831037
  0
ARC
  5
30656
  8
0
 10
6726.9210237486659025
 20
138.9826561267487079
 30
0.0
 40
0.0776898743978909
 50
149.3084137642784981
 51
151.1244057383634924
  0
ARC
  5
30657
  8
0
 10
6726.8516571834816205
 20
139.020887632529309
 30
0.0
 40
0.0015148479970617
 50
281.2641964744728966
 51
331.8647617038932935
  0
ARC
  5
30658
  8
0
 10
6726.899883042628062
 20
138.9694019651828967
 30
0.0
 40
0.0527500000000032
 50
90.0
 51
270.0
  0
ARC
  5
30659
  8
0
 10
6726.7691330426287095
 20
139.1051162509828032
 30
0.0
 40
0.1207142856999965
 50
226.1859855819039069
 51
313.8140144180949278
  0
ARC
  5
3065A
  8
0
 10
6726.8561675184473643
 20
139.0144019651827989
 30
0.0
 40
0.005
 50
90.0
 51
133.8140144181078881
  0
LINE
  5
3065B
  8
0
 10
6726.8830734471539472
 20
139.0194019651827944
 30
0.0
 11
6726.8561675184473643
 21
139.0194019651827944
 31
0.0
  0
LINE
  5
3065C
  8
0
 10
6726.8519530837857019
 20
139.0194019651827944
 30
0.0
 11
6726.6863130014698982
 21
139.0194019651827944
 31
0.0
  0
ARC
  5
3065D
  8
0
 10
6726.6820985668100548
 20
139.0144019651820884
 30
0.0
 40
0.005
 50
46.185985586391439
 51
89.9999999982803587
  0
LINE
  5
3065E
  8
0
 10
6726.6281116629979806
 20
139.0244019651829035
 30
0.0
 11
6726.6816258748949622
 21
139.0244019651829035
 31
0.0
  0
ARC
  5
3065F
  8
0
 10
6726.6281619811279597
 20
138.9683861319840048
 30
0.0
 40
0.0560158557988033
 50
90.0514678718313206
 51
106.2944656102044974
  0
ARC
  5
30660
  8
0
 10
6726.6811945055751494
 20
139.0219732356499094
 30
0.0
 40
0.0024667400823167
 50
42.039126594440809
 51
79.9286597381660613
  0
ARC
  5
30661
  8
0
 10
6726.6744566025126915
 20
139.0158980637766035
 30
0.0
 40
0.0115390634330325
 50
33.7590050365169532
 51
42.0391265944492716
  0
ARC
  5
30662
  8
0
 10
6726.6172423365896975
 20
138.9826561267487079
 30
0.0
 40
0.0776898743978909
 50
28.8755942616365608
 51
30.6915862357214699
  0
ARC
  5
30663
  8
0
 10
6726.6866089017757986
 20
139.020887632529309
 30
0.0
 40
0.0015148479970617
 50
208.1352382961067065
 51
258.7358035255269897
  0
ARC
  5
30664
  8
0
 10
6726.6383830426293571
 20
138.9694019651828967
 30
0.0
 40
0.0527500000000032
 50
270.0
 51
90.0
  0
LINE
  5
30665
  8
0
 10
6726.9101544222603479
 20
138.9144019651828899
 30
0.0
 11
6726.8566402103633664
 21
138.9144019651828899
 31
0.0
  0
ARC
  5
30666
  8
0
 10
6726.9101041041276403
 20
138.9704177983817033
 30
0.0
 40
0.0560158557988033
 50
270.051467871831278
 51
286.2944656102044974
  0
LINE
  5
30667
  8
0
 10
6726.6820985668100548
 20
138.9194019651829137
 30
0.0
 11
6726.6551926381016528
 21
138.9194019651829137
 31
0.0
  0
ARC
  5
30668
  8
0
 10
6726.8570715796831792
 20
138.9168306947157134
 30
0.0
 40
0.0024667400823167
 50
222.0391265944408019
 51
259.9286597381660044
  0
ARC
  5
30669
  8
0
 10
6726.8638094827447276
 20
138.9229058665891898
 30
0.0
 40
0.0115390634330325
 50
213.7590050365168963
 51
222.0391265944493
  0
ARC
  5
3066A
  8
0
 10
6726.9210237486659025
 20
138.9561478036170001
 30
0.0
 40
0.0776898743978909
 50
208.8755942616365076
 51
210.6915862357213882
  0
ARC
  5
3066B
  8
0
 10
6726.8516571834816205
 20
138.9179162978365127
 30
0.0
 40
0.0015148479970617
 50
28.1352382961067313
 51
78.7358035255270465
  0
ARC
  5
3066C
  8
0
 10
6726.7691330426287095
 20
138.8336876793829049
 30
0.0
 40
0.1207142856999965
 50
46.185985581905058
 51
133.8140144180960078
  0
ARC
  5
3066D
  8
0
 10
6726.8561675184473643
 20
138.9244019651827955
 30
0.0
 40
0.005
 50
226.1859855818921119
 51
270.0
  0
LINE
  5
3066E
  8
0
 10
6726.8830734471539472
 20
138.9194019651829137
 30
0.0
 11
6726.8561675184473643
 21
138.9194019651829137
 31
0.0
  0
LINE
  5
3066F
  8
0
 10
6726.8519530837857019
 20
138.9194019651829137
 30
0.0
 11
6726.6863130014698982
 21
138.9194019651829137
 31
0.0
  0
ARC
  5
30670
  8
0
 10
6726.6820985668100548
 20
138.9244019651835913
 30
0.0
 40
0.005
 50
270.0000000017196271
 51
313.8140144136086178
  0
LINE
  5
30671
  8
0
 10
6726.6281116629979806
 20
138.9144019651828899
 30
0.0
 11
6726.6816258748949622
 21
138.9144019651828899
 31
0.0
  0
ARC
  5
30672
  8
0
 10
6726.6281619811279597
 20
138.9704177983817033
 30
0.0
 40
0.0560158557988033
 50
253.7055343897955026
 51
269.948532128168722
  0
ARC
  5
30673
  8
0
 10
6726.6811945055751494
 20
138.9168306947157134
 30
0.0
 40
0.0024667400823167
 50
280.0713402618339956
 51
317.9608734055591981
  0
ARC
  5
30674
  8
0
 10
6726.6744566025126915
 20
138.9229058665891898
 30
0.0
 40
0.0115390634330325
 50
317.9608734055507284
 51
326.2409949634831037
  0
ARC
  5
30675
  8
0
 10
6726.6172423365896975
 20
138.9561478036170001
 30
0.0
 40
0.0776898743978909
 50
329.3084137642778728
 51
331.1244057383634072
  0
ARC
  5
30676
  8
0
 10
6726.6866089017757986
 20
138.9179162978365127
 30
0.0
 40
0.0015148479970617
 50
101.2641964744728966
 51
151.8647617038932083
  0
ARC
  5
30677
  8
0
 10
6726.8689945493097184
 20
138.9109502907101046
 30
0.0
 40
0.1920793357996963
 50
35.3757530471336779
 51
74.5946307763858698
  0
ARC
  5
30678
  8
0
 10
6726.7654824345363522
 20
138.626583940564899
 30
0.0
 40
0.494321453935187
 50
71.7824953142888376
 51
89.5768617039960588
  0
ARC
  5
30679
  8
0
 10
6726.7652166879688593
 20
138.6911182983783135
 30
0.0
 40
0.4548899014867221
 50
76.3001767660959587
 51
89.5067084046450248
  0
ARC
  5
3067A
  8
0
 10
6726.7655068836656937
 20
138.6923087449322907
 30
0.0
 40
0.4536645947737814
 50
64.1785033843205355
 51
76.3001767660959587
  0
ARC
  5
3067B
  8
0
 10
6726.8698131859418936
 20
138.9078702605200135
 30
0.0
 40
0.214193152432559
 50
48.749790593762917
 51
64.1785033843205355
  0
ARC
  5
3067C
  8
0
 10
6726.9097177334069784
 20
138.953372340614294
 30
0.0
 40
0.1536719809201484
 50
26.5881577748631308
 51
48.7497905937634783
  0
ARC
  5
3067D
  8
0
 10
6726.6692715359477006
 20
138.9109502907101046
 30
0.0
 40
0.1920793357996963
 50
105.4053692236141018
 51
144.6242469528662866
  0
ARC
  5
3067E
  8
0
 10
6726.7727836507201573
 20
138.626583940564899
 30
0.0
 40
0.494321453935187
 50
90.4231382960039269
 51
108.2175046857112051
  0
ARC
  5
3067F
  8
0
 10
6726.7730493972867407
 20
138.6911182983783135
 30
0.0
 40
0.4548899014867221
 50
90.4932915953549895
 51
103.6998232339039987
  0
ARC
  5
30680
  8
0
 10
6726.7727592015899063
 20
138.6923087449322907
 30
0.0
 40
0.4536645947737814
 50
103.6998232339039987
 51
115.8214966156793935
  0
ARC
  5
30681
  8
0
 10
6726.6684528993146159
 20
138.9078702605200135
 30
0.0
 40
0.214193152432559
 50
115.8214966156793935
 51
131.2502094062371043
  0
ARC
  5
30682
  8
0
 10
6726.6285483518504407
 20
138.953372340614294
 30
0.0
 40
0.1536719809201484
 50
131.2502094062365074
 51
153.4118422251376046
  0
ARC
  5
30683
  8
0
 10
6726.8689945493097184
 20
139.0278536396556035
 30
0.0
 40
0.1920793357996963
 50
285.4053692236141728
 51
324.624246952866315
  0
ARC
  5
30684
  8
0
 10
6726.7654824345363522
 20
139.3122199898008091
 30
0.0
 40
0.494321453935187
 50
270.4231382960039127
 51
288.2175046857112193
  0
ARC
  5
30685
  8
0
 10
6726.7652166879688593
 20
139.2476856319873946
 30
0.0
 40
0.4548899014867221
 50
270.4932915953550037
 51
283.6998232339041124
  0
ARC
  5
30686
  8
0
 10
6726.7655068836656937
 20
139.246495185433389
 30
0.0
 40
0.4536645947737814
 50
283.6998232339041124
 51
295.8214966156795072
  0
ARC
  5
30687
  8
0
 10
6726.8698131859418936
 20
139.0309336698456946
 30
0.0
 40
0.214193152432559
 50
295.8214966156795072
 51
311.2502094062369906
  0
ARC
  5
30688
  8
0
 10
6726.9097177334069784
 20
138.9854315897514141
 30
0.0
 40
0.1536719809201484
 50
311.250209406236479
 51
333.4118422251369225
  0
ARC
  5
30689
  8
0
 10
6726.6692715359477006
 20
139.0278536396556035
 30
0.0
 40
0.1920793357996963
 50
215.3757530471337134
 51
254.5946307763859124
  0
ARC
  5
3068A
  8
0
 10
6726.7727836507201573
 20
139.3122199898008091
 30
0.0
 40
0.494321453935187
 50
251.7824953142888091
 51
269.5768617039959736
  0
ARC
  5
3068B
  8
0
 10
6726.7730493972867407
 20
139.2476856319873946
 30
0.0
 40
0.4548899014867221
 50
256.3001767660958876
 51
269.5067084046449963
  0
ARC
  5
3068C
  8
0
 10
6726.7727592015899063
 20
139.246495185433389
 30
0.0
 40
0.4536645947737814
 50
244.1785033843204928
 51
256.3001767660958876
  0
ARC
  5
3068D
  8
0
 10
6726.6684528993146159
 20
139.0309336698456946
 30
0.0
 40
0.214193152432559
 50
228.7497905937628957
 51
244.1785033843204928
  0
ARC
  5
3068E
  8
0
 10
6726.6285483518504407
 20
138.9854315897514141
 30
0.0
 40
0.1536719809201484
 50
206.5881577748623954
 51
228.7497905937634926
  0
LINE
  5
3068F
  8
0
 10
6726.9101544222603479
 20
126.9584019651828015
 30
0.0
 11
6726.8566402103633664
 21
126.9584019651828015
 31
0.0
  0
ARC
  5
30690
  8
0
 10
6726.9101041041276403
 20
126.9023861319840023
 30
0.0
 40
0.0560158557988033
 50
73.7055343897955169
 51
89.9485321281686936
  0
LINE
  5
30691
  8
0
 10
6726.6820985668100548
 20
126.9534019651828061
 30
0.0
 11
6726.6551926381016528
 21
126.9534019651828061
 31
0.0
  0
ARC
  5
30692
  8
0
 10
6726.8570715796831792
 20
126.9559732356499069
 30
0.0
 40
0.0024667400823167
 50
100.0713402618338961
 51
137.9608734055591981
  0
ARC
  5
30693
  8
0
 10
6726.8638094827447276
 20
126.9498980637765015
 30
0.0
 40
0.0115390634330325
 50
137.9608734055507
 51
146.2409949634831037
  0
ARC
  5
30694
  8
0
 10
6726.9210237486659025
 20
126.9166561267487054
 30
0.0
 40
0.0776898743978909
 50
149.3084137642784981
 51
151.1244057383634924
  0
ARC
  5
30695
  8
0
 10
6726.8516571834816205
 20
126.9548876325293065
 30
0.0
 40
0.0015148479970617
 50
281.2641964744728966
 51
331.8647617038932935
  0
ARC
  5
30696
  8
0
 10
6726.899883042628062
 20
126.9034019651827947
 30
0.0
 40
0.0527500000000032
 50
90.0
 51
270.0
  0
ARC
  5
30697
  8
0
 10
6726.7691330426287095
 20
127.0391162509828007
 30
0.0
 40
0.1207142856999965
 50
226.1859855819039069
 51
313.8140144180949278
  0
ARC
  5
30698
  8
0
 10
6726.8561675184473643
 20
126.9484019651827964
 30
0.0
 40
0.005
 50
90.0
 51
133.8140144181078881
  0
LINE
  5
30699
  8
0
 10
6726.8830734471539472
 20
126.9534019651828061
 30
0.0
 11
6726.8561675184473643
 21
126.9534019651828061
 31
0.0
  0
LINE
  5
3069A
  8
0
 10
6726.8519530837857019
 20
126.9534019651828061
 30
0.0
 11
6726.6863130014698982
 21
126.9534019651828061
 31
0.0
  0
ARC
  5
3069B
  8
0
 10
6726.6820985668100548
 20
126.9484019651821001
 30
0.0
 40
0.005
 50
46.185985586391439
 51
89.9999999982803587
  0
LINE
  5
3069C
  8
0
 10
6726.6281116629979806
 20
126.9584019651828015
 30
0.0
 11
6726.6816258748949622
 21
126.9584019651828015
 31
0.0
  0
ARC
  5
3069D
  8
0
 10
6726.6281619811279597
 20
126.9023861319840023
 30
0.0
 40
0.0560158557988033
 50
90.0514678718313206
 51
106.2944656102044974
  0
ARC
  5
3069E
  8
0
 10
6726.6811945055751494
 20
126.9559732356499069
 30
0.0
 40
0.0024667400823167
 50
42.039126594440809
 51
79.9286597381660613
  0
ARC
  5
3069F
  8
0
 10
6726.6744566025126915
 20
126.9498980637765015
 30
0.0
 40
0.0115390634330325
 50
33.7590050365169532
 51
42.0391265944492716
  0
ARC
  5
306A0
  8
0
 10
6726.6172423365896975
 20
126.9166561267487054
 30
0.0
 40
0.0776898743978909
 50
28.8755942616365608
 51
30.6915862357214699
  0
ARC
  5
306A1
  8
0
 10
6726.6866089017757986
 20
126.9548876325293065
 30
0.0
 40
0.0015148479970617
 50
208.1352382961067065
 51
258.7358035255269897
  0
ARC
  5
306A2
  8
0
 10
6726.6383830426293571
 20
126.9034019651827947
 30
0.0
 40
0.0527500000000032
 50
270.0
 51
90.0
  0
LINE
  5
306A3
  8
0
 10
6726.9101544222603479
 20
126.8484019651828021
 30
0.0
 11
6726.8566402103633664
 21
126.8484019651828021
 31
0.0
  0
ARC
  5
306A4
  8
0
 10
6726.9101041041276403
 20
126.9044177983817008
 30
0.0
 40
0.0560158557988033
 50
270.051467871831278
 51
286.2944656102044974
  0
LINE
  5
306A5
  8
0
 10
6726.6820985668100548
 20
126.853401965182897
 30
0.0
 11
6726.6551926381016528
 21
126.853401965182897
 31
0.0
  0
ARC
  5
306A6
  8
0
 10
6726.8570715796831792
 20
126.8508306947157962
 30
0.0
 40
0.0024667400823167
 50
222.0391265944408019
 51
259.9286597381660044
  0
ARC
  5
306A7
  8
0
 10
6726.8638094827447276
 20
126.8569058665891021
 30
0.0
 40
0.0115390634330325
 50
213.7590050365168963
 51
222.0391265944493
  0
ARC
  5
306A8
  8
0
 10
6726.9210237486659025
 20
126.8901478036169976
 30
0.0
 40
0.0776898743978909
 50
208.8755942616365076
 51
210.6915862357213882
  0
ARC
  5
306A9
  8
0
 10
6726.8516571834816205
 20
126.8519162978363966
 30
0.0
 40
0.0015148479970617
 50
28.1352382961067313
 51
78.7358035255270465
  0
ARC
  5
306AA
  8
0
 10
6726.7691330426287095
 20
126.7676876793828029
 30
0.0
 40
0.1207142856999965
 50
46.185985581905058
 51
133.8140144180960078
  0
ARC
  5
306AB
  8
0
 10
6726.8561675184473643
 20
126.858401965182793
 30
0.0
 40
0.005
 50
226.1859855818921119
 51
270.0
  0
LINE
  5
306AC
  8
0
 10
6726.8830734471539472
 20
126.853401965182897
 30
0.0
 11
6726.8561675184473643
 21
126.853401965182897
 31
0.0
  0
LINE
  5
306AD
  8
0
 10
6726.8519530837857019
 20
126.853401965182897
 30
0.0
 11
6726.6863130014698982
 21
126.853401965182897
 31
0.0
  0
ARC
  5
306AE
  8
0
 10
6726.6820985668100548
 20
126.858401965183603
 30
0.0
 40
0.005
 50
270.0000000017196271
 51
313.8140144136086178
  0
LINE
  5
306AF
  8
0
 10
6726.6281116629979806
 20
126.8484019651828021
 30
0.0
 11
6726.6816258748949622
 21
126.8484019651828021
 31
0.0
  0
ARC
  5
306B0
  8
0
 10
6726.6281619811279597
 20
126.9044177983817008
 30
0.0
 40
0.0560158557988033
 50
253.7055343897955026
 51
269.948532128168722
  0
ARC
  5
306B1
  8
0
 10
6726.6811945055751494
 20
126.8508306947157962
 30
0.0
 40
0.0024667400823167
 50
280.0713402618339956
 51
317.9608734055591981
  0
ARC
  5
306B2
  8
0
 10
6726.6744566025126915
 20
126.8569058665891021
 30
0.0
 40
0.0115390634330325
 50
317.9608734055507284
 51
326.2409949634831037
  0
ARC
  5
306B3
  8
0
 10
6726.6172423365896975
 20
126.8901478036169976
 30
0.0
 40
0.0776898743978909
 50
329.3084137642778728
 51
331.1244057383634072
  0
ARC
  5
306B4
  8
0
 10
6726.6866089017757986
 20
126.8519162978363966
 30
0.0
 40
0.0015148479970617
 50
101.2641964744728966
 51
151.8647617038932083
  0
ARC
  5
306B5
  8
0
 10
6726.8689945493097184
 20
126.8449502907101021
 30
0.0
 40
0.1920793357996963
 50
35.3757530471957082
 51
74.5946307763858698
  0
ARC
  5
306B6
  8
0
 10
6726.7654824345363522
 20
126.5605839405648965
 30
0.0
 40
0.494321453935187
 50
71.7824953142888376
 51
89.5768617039960588
  0
ARC
  5
306B7
  8
0
 10
6726.7652166879688593
 20
126.6251182983782968
 30
0.0
 40
0.4548899014867221
 50
76.3001767660959587
 51
89.5067084046450248
  0
ARC
  5
306B8
  8
0
 10
6726.7655068836656937
 20
126.6263087449323024
 30
0.0
 40
0.4536645947737814
 50
64.1785033843205355
 51
76.3001767660959587
  0
ARC
  5
306B9
  8
0
 10
6726.8698131859418936
 20
126.8418702605199968
 30
0.0
 40
0.214193152432559
 50
48.749790593762917
 51
64.1785033843205355
  0
ARC
  5
306BA
  8
0
 10
6726.9097177334069784
 20
126.8873723406143057
 30
0.0
 40
0.1536719809201484
 50
26.5881577749366897
 51
48.7497905937634783
  0
ARC
  5
306BB
  8
0
 10
6726.6692715359477006
 20
126.8449502907101021
 30
0.0
 40
0.1920793357996963
 50
105.4053692236141018
 51
144.6242469528029062
  0
ARC
  5
306BC
  8
0
 10
6726.7727836507201573
 20
126.5605839405648965
 30
0.0
 40
0.494321453935187
 50
90.4231382960039269
 51
108.2175046857112051
  0
ARC
  5
306BD
  8
0
 10
6726.7730493972867407
 20
126.6251182983782968
 30
0.0
 40
0.4548899014867221
 50
90.4932915953549895
 51
103.6998232339039987
  0
ARC
  5
306BE
  8
0
 10
6726.7727592015899063
 20
126.6263087449323024
 30
0.0
 40
0.4536645947737814
 50
103.6998232339039987
 51
115.8214966156793935
  0
ARC
  5
306BF
  8
0
 10
6726.6684528993146159
 20
126.8418702605199968
 30
0.0
 40
0.214193152432559
 50
115.8214966156793935
 51
131.2502094062371043
  0
ARC
  5
306C0
  8
0
 10
6726.6285483518504407
 20
126.8873723406143057
 30
0.0
 40
0.1536719809201484
 50
131.2502094062365074
 51
153.4118422250633103
  0
ARC
  5
306C1
  8
0
 10
6726.8689945493097184
 20
126.961853639655601
 30
0.0
 40
0.1920793357996963
 50
285.4053692236141728
 51
324.6242469528028778
  0
ARC
  5
306C2
  8
0
 10
6726.7654824345363522
 20
127.2462199898008066
 30
0.0
 40
0.494321453935187
 50
270.4231382960039127
 51
288.2175046857112193
  0
ARC
  5
306C3
  8
0
 10
6726.7652166879688593
 20
127.1816856319874063
 30
0.0
 40
0.4548899014867221
 50
270.4932915953550037
 51
283.6998232339041124
  0
ARC
  5
306C4
  8
0
 10
6726.7655068836656937
 20
127.1804951854334007
 30
0.0
 40
0.4536645947737814
 50
283.6998232339041124
 51
295.8214966156795072
  0
ARC
  5
306C5
  8
0
 10
6726.8698131859418936
 20
126.9649336698457063
 30
0.0
 40
0.214193152432559
 50
295.8214966156795072
 51
311.2502094062369906
  0
ARC
  5
306C6
  8
0
 10
6726.9097177334069784
 20
126.9194315897513974
 30
0.0
 40
0.1536719809201484
 50
311.2502094062369906
 51
333.4118422250618892
  0
ARC
  5
306C7
  8
0
 10
6726.6692715359477006
 20
126.961853639655601
 30
0.0
 40
0.1920793357996963
 50
215.3757530471970085
 51
254.5946307763859124
  0
ARC
  5
306C8
  8
0
 10
6726.7727836507201573
 20
127.2462199898008066
 30
0.0
 40
0.494321453935187
 50
251.7824953142888091
 51
269.5768617039959736
  0
ARC
  5
306C9
  8
0
 10
6726.7730493972867407
 20
127.1816856319874063
 30
0.0
 40
0.4548899014867221
 50
256.3001767660958876
 51
269.5067084046449963
  0
ARC
  5
306CA
  8
0
 10
6726.7727592015899063
 20
127.1804951854334007
 30
0.0
 40
0.4536645947737814
 50
244.1785033843204928
 51
256.3001767660958876
  0
ARC
  5
306CB
  8
0
 10
6726.6684528993146159
 20
126.9649336698457063
 30
0.0
 40
0.214193152432559
 50
228.7497905937634926
 51
244.1785033843204928
  0
ARC
  5
306CC
  8
0
 10
6726.6285483518504407
 20
126.9194315897513974
 30
0.0
 40
0.1536719809201484
 50
206.5881577749381108
 51
228.7497905937634926
  0
LINE
  5
306CD
  8
0
 10
6719.8003830426278
 20
139.8379946290828002
 30
0.0
 11
6719.8003830426278
 21
139.0221519651828999
 31
0.0
  0
LINE
  5
306CE
  8
0
 10
6719.8003830426278
 20
138.9166519651828082
 30
0.0
 11
6719.8003830426278
 21
138.1681519651828012
 31
0.0
  0
LINE
  5
306CF
  8
0
 10
6719.8003830426278
 20
138.0626519651829085
 30
0.0
 11
6719.8003830426278
 21
137.3141519651829014
 31
0.0
  0
LINE
  5
306D0
  8
0
 10
6719.8003830426278
 20
137.2086519651828098
 30
0.0
 11
6719.8003830426278
 21
136.4601519651828028
 31
0.0
  0
LINE
  5
306D1
  8
0
 10
6719.8003830426278
 20
136.3546519651829101
 30
0.0
 11
6719.8003830426278
 21
135.606151965182903
 31
0.0
  0
LINE
  5
306D2
  8
0
 10
6719.8003830426278
 20
135.5006519651828114
 30
0.0
 11
6719.8003830426278
 21
134.7521519651828044
 31
0.0
  0
LINE
  5
306D3
  8
0
 10
6719.8003830426278
 20
134.6466519651829117
 30
0.0
 11
6719.8003830426278
 21
133.8981519651829046
 31
0.0
  0
LINE
  5
306D4
  8
0
 10
6719.8003830426278
 20
133.792651965182813
 30
0.0
 11
6719.8003830426278
 21
133.044151965182806
 31
0.0
  0
LINE
  5
306D5
  8
0
 10
6719.8003830426278
 20
132.9386519651829133
 30
0.0
 11
6719.8003830426278
 21
132.1901519651829062
 31
0.0
  0
LINE
  5
306D6
  8
0
 10
6719.8003830426278
 20
132.0846519651827862
 30
0.0
 11
6719.8003830426278
 21
131.3361519651828075
 31
0.0
  0
LINE
  5
306D7
  8
0
 10
6719.8003830426278
 20
131.2306519651828012
 30
0.0
 11
6719.8003830426278
 21
130.4821519651829078
 31
0.0
  0
LINE
  5
306D8
  8
0
 10
6719.8003830426278
 20
130.3766519651827878
 30
0.0
 11
6719.8003830426278
 21
129.6281519651828091
 31
0.0
  0
LINE
  5
306D9
  8
0
 10
6719.8003830426278
 20
129.522651965182888
 30
0.0
 11
6719.8003830426278
 21
128.7741519651829094
 31
0.0
  0
LINE
  5
306DA
  8
0
 10
6719.8003830426278
 20
128.6686519651827894
 30
0.0
 11
6719.8003830426278
 21
127.9201519651827965
 31
0.0
  0
LINE
  5
306DB
  8
0
 10
6719.8003830426278
 20
127.8146519651828044
 30
0.0
 11
6719.8003830426278
 21
126.9561519651827979
 31
0.0
  0
LINE
  5
306DC
  8
0
 10
6719.8003830426278
 20
126.8506519651829052
 30
0.0
 11
6719.8003830426278
 21
125.895551913682894
 31
0.0
  0
LINE
  5
306DD
  8
0
 10
6719.9878830426278
 20
139.8379946290828002
 30
0.0
 11
6719.9878830426278
 21
139.0221519651828999
 31
0.0
  0
LINE
  5
306DE
  8
0
 10
6719.9878830426278
 20
138.9166519651828082
 30
0.0
 11
6719.9878830426278
 21
138.1681519651828012
 31
0.0
  0
LINE
  5
306DF
  8
0
 10
6719.9878830426278
 20
138.0626519651829085
 30
0.0
 11
6719.9878830426278
 21
137.3141519651829014
 31
0.0
  0
LINE
  5
306E0
  8
0
 10
6719.9878830426278
 20
137.2086519651828098
 30
0.0
 11
6719.9878830426278
 21
136.4601519651828028
 31
0.0
  0
LINE
  5
306E1
  8
0
 10
6719.9878830426278
 20
136.3546519651829101
 30
0.0
 11
6719.9878830426278
 21
135.9149106277585872
 31
0.0
  0
LINE
  5
306E2
  8
0
 10
6719.9878830426278
 20
134.3378933026071138
 30
0.0
 11
6719.9878830426278
 21
133.8981519651829046
 31
0.0
  0
LINE
  5
306E3
  8
0
 10
6719.9878830426278
 20
133.792651965182813
 30
0.0
 11
6719.9878830426278
 21
133.044151965182806
 31
0.0
  0
LINE
  5
306E4
  8
0
 10
6719.9878830426278
 20
132.9386519651829133
 30
0.0
 11
6719.9878830426278
 21
132.1901519651829062
 31
0.0
  0
LINE
  5
306E5
  8
0
 10
6719.9878830426278
 20
132.0846519651827862
 30
0.0
 11
6719.9878830426278
 21
131.3361519651828075
 31
0.0
  0
LINE
  5
306E6
  8
0
 10
6719.9878830426278
 20
131.2306519651828012
 30
0.0
 11
6719.9878830426278
 21
130.4821519651829078
 31
0.0
  0
LINE
  5
306E7
  8
0
 10
6719.9878830426278
 20
130.3766519651827878
 30
0.0
 11
6719.9878830426278
 21
129.6281519651828091
 31
0.0
  0
LINE
  5
306E8
  8
0
 10
6719.9878830426278
 20
129.522651965182888
 30
0.0
 11
6719.9878830426278
 21
128.7741519651829094
 31
0.0
  0
LINE
  5
306E9
  8
0
 10
6719.9878830426278
 20
128.6686519651827894
 30
0.0
 11
6719.9878830426278
 21
127.9201519651827965
 31
0.0
  0
LINE
  5
306EA
  8
0
 10
6719.9878830426278
 20
127.8146519651828044
 30
0.0
 11
6719.9878830426278
 21
126.9561519651827979
 31
0.0
  0
LINE
  5
306EB
  8
0
 10
6719.9878830426278
 20
126.8506519651829052
 30
0.0
 11
6719.9878830426278
 21
125.895551913682894
 31
0.0
  0
LINE
  5
306EC
  8
0
 10
6717.1281116629979806
 20
139.0244019651829035
 30
0.0
 11
6717.1816258748949622
 21
139.0244019651829035
 31
0.0
  0
ARC
  5
306ED
  8
0
 10
6717.1281619811279597
 20
138.9683861319840048
 30
0.0
 40
0.0560158557988033
 50
90.0514678718313206
 51
106.2944656102044974
  0
LINE
  5
306EE
  8
0
 10
6717.3561675184446358
 20
139.0194019651827944
 30
0.0
 11
6717.3830734471548567
 21
139.0194019651827944
 31
0.0
  0
ARC
  5
306EF
  8
0
 10
6717.1811945055742399
 20
139.0219732356499094
 30
0.0
 40
0.0024667400823167
 50
42.039126594440809
 51
79.9286597381660613
  0
ARC
  5
306F0
  8
0
 10
6717.1744566025126915
 20
139.0158980637766035
 30
0.0
 40
0.0115390634330325
 50
33.7590050365169532
 51
42.0391265944492716
  0
ARC
  5
306F1
  8
0
 10
6717.1172423365896975
 20
138.9826561267487079
 30
0.0
 40
0.0776898743978909
 50
28.8755942616365608
 51
30.6915862357214699
  0
ARC
  5
306F2
  8
0
 10
6717.1866089017748891
 20
139.020887632529309
 30
0.0
 40
0.0015148479970617
 50
208.1352382961067065
 51
258.7358035255269897
  0
ARC
  5
306F3
  8
0
 10
6717.1383830426284476
 20
138.9694019651828967
 30
0.0
 40
0.0527500000000032
 50
270.0
 51
90.0
  0
ARC
  5
306F4
  8
0
 10
6717.2691330426287095
 20
139.1051162509828032
 30
0.0
 40
0.1207142856999965
 50
226.1859855819051006
 51
313.8140144180961215
  0
ARC
  5
306F5
  8
0
 10
6717.1820985668100548
 20
139.0144019651827989
 30
0.0
 40
0.005
 50
46.1859855818920906
 51
90.0
  0
LINE
  5
306F6
  8
0
 10
6717.1551926381016528
 20
139.0194019651827944
 30
0.0
 11
6717.1820985668100548
 21
139.0194019651827944
 31
0.0
  0
LINE
  5
306F7
  8
0
 10
6717.1863130014689887
 20
139.0194019651827944
 30
0.0
 11
6717.3519530837857019
 21
139.0194019651827944
 31
0.0
  0
ARC
  5
306F8
  8
0
 10
6717.3561675184446358
 20
139.0144019651820884
 30
0.0
 40
0.005
 50
90.0000000017196555
 51
133.8140144136085894
  0
LINE
  5
306F9
  8
0
 10
6717.4101544222594384
 20
139.0244019651829035
 30
0.0
 11
6717.3566402103633664
 21
139.0244019651829035
 31
0.0
  0
ARC
  5
306FA
  8
0
 10
6717.4101041041276403
 20
138.9683861319840048
 30
0.0
 40
0.0560158557988033
 50
73.7055343897955169
 51
89.9485321281686936
  0
ARC
  5
306FB
  8
0
 10
6717.3570715796831792
 20
139.0219732356499094
 30
0.0
 40
0.0024667400823167
 50
100.0713402618338961
 51
137.9608734055591981
  0
ARC
  5
306FC
  8
0
 10
6717.3638094827447276
 20
139.0158980637766035
 30
0.0
 40
0.0115390634330325
 50
137.9608734055507
 51
146.2409949634831037
  0
ARC
  5
306FD
  8
0
 10
6717.4210237486659025
 20
138.9826561267487079
 30
0.0
 40
0.0776898743978909
 50
149.3084137642784981
 51
151.1244057383634924
  0
ARC
  5
306FE
  8
0
 10
6717.3516571834816205
 20
139.020887632529309
 30
0.0
 40
0.0015148479970617
 50
281.2641964744728966
 51
331.8647617038932935
  0
ARC
  5
306FF
  8
0
 10
6717.399883042628062
 20
138.9694019651828967
 30
0.0
 40
0.0527500000000032
 50
90.0
 51
270.0
  0
LINE
  5
30700
  8
0
 10
6717.1281116629979806
 20
138.9144019651828899
 30
0.0
 11
6717.1816258748949622
 21
138.9144019651828899
 31
0.0
  0
ARC
  5
30701
  8
0
 10
6717.1281619811279597
 20
138.9704177983817033
 30
0.0
 40
0.0560158557988033
 50
253.7055343897955026
 51
269.948532128168722
  0
LINE
  5
30702
  8
0
 10
6717.3561675184446358
 20
138.9194019651829137
 30
0.0
 11
6717.3830734471548567
 21
138.9194019651829137
 31
0.0
  0
ARC
  5
30703
  8
0
 10
6717.1811945055742399
 20
138.9168306947157134
 30
0.0
 40
0.0024667400823167
 50
280.0713402618339956
 51
317.9608734055591981
  0
ARC
  5
30704
  8
0
 10
6717.1744566025126915
 20
138.9229058665891898
 30
0.0
 40
0.0115390634330325
 50
317.9608734055507284
 51
326.2409949634831037
  0
ARC
  5
30705
  8
0
 10
6717.1172423365896975
 20
138.9561478036170001
 30
0.0
 40
0.0776898743978909
 50
329.3084137642778728
 51
331.1244057383634072
  0
ARC
  5
30706
  8
0
 10
6717.1866089017748891
 20
138.9179162978365127
 30
0.0
 40
0.0015148479970617
 50
101.2641964744728966
 51
151.8647617038932083
  0
ARC
  5
30707
  8
0
 10
6717.2691330426287095
 20
138.8336876793829049
 30
0.0
 40
0.1207142856999965
 50
46.1859855819039211
 51
133.8140144180948994
  0
ARC
  5
30708
  8
0
 10
6717.1820985668100548
 20
138.9244019651827955
 30
0.0
 40
0.005
 50
270.0
 51
313.8140144181078881
  0
LINE
  5
30709
  8
0
 10
6717.1551926381016528
 20
138.9194019651829137
 30
0.0
 11
6717.1820985668100548
 21
138.9194019651829137
 31
0.0
  0
LINE
  5
3070A
  8
0
 10
6717.1863130014689887
 20
138.9194019651829137
 30
0.0
 11
6717.3519530837857019
 21
138.9194019651829137
 31
0.0
  0
ARC
  5
3070B
  8
0
 10
6717.3561675184446358
 20
138.9244019651835913
 30
0.0
 40
0.005
 50
226.1859855863914106
 51
269.9999999982803729
  0
LINE
  5
3070C
  8
0
 10
6717.4101544222594384
 20
138.9144019651828899
 30
0.0
 11
6717.3566402103633664
 21
138.9144019651828899
 31
0.0
  0
ARC
  5
3070D
  8
0
 10
6717.4101041041276403
 20
138.9704177983817033
 30
0.0
 40
0.0560158557988033
 50
270.051467871831278
 51
286.2944656102044974
  0
ARC
  5
3070E
  8
0
 10
6717.3570715796831792
 20
138.9168306947157134
 30
0.0
 40
0.0024667400823167
 50
222.0391265944408019
 51
259.9286597381660044
  0
ARC
  5
3070F
  8
0
 10
6717.3638094827447276
 20
138.9229058665891898
 30
0.0
 40
0.0115390634330325
 50
213.7590050365168963
 51
222.0391265944493
  0
ARC
  5
30710
  8
0
 10
6717.4210237486659025
 20
138.9561478036170001
 30
0.0
 40
0.0776898743978909
 50
208.8755942616365076
 51
210.6915862357213882
  0
ARC
  5
30711
  8
0
 10
6717.3516571834816205
 20
138.9179162978365127
 30
0.0
 40
0.0015148479970617
 50
28.1352382961067313
 51
78.7358035255270465
  0
ARC
  5
30712
  8
0
 10
6717.1692715359477006
 20
138.9109502907101046
 30
0.0
 40
0.1920793357996963
 50
105.4053692236141018
 51
144.6242469528662866
  0
ARC
  5
30713
  8
0
 10
6717.2727836507201573
 20
138.626583940564899
 30
0.0
 40
0.494321453935187
 50
90.4231382960039269
 51
108.2175046857112051
  0
ARC
  5
30714
  8
0
 10
6717.2730493972876502
 20
138.6911182983783135
 30
0.0
 40
0.4548899014867221
 50
90.4932915953549895
 51
103.6998232339039987
  0
ARC
  5
30715
  8
0
 10
6717.2727592015899063
 20
138.6923087449322907
 30
0.0
 40
0.4536645947737814
 50
103.6998232339039987
 51
115.8214966156793935
  0
ARC
  5
30716
  8
0
 10
6717.1684528993146159
 20
138.9078702605200135
 30
0.0
 40
0.214193152432559
 50
115.8214966156793935
 51
131.2502094062371043
  0
ARC
  5
30717
  8
0
 10
6717.1285483518504407
 20
138.953372340614294
 30
0.0
 40
0.1536719809201484
 50
131.2502094062365074
 51
153.4118422251376046
  0
ARC
  5
30718
  8
0
 10
6717.3689945493097184
 20
138.9109502907101046
 30
0.0
 40
0.1920793357996963
 50
35.3757530471336779
 51
74.5946307763858698
  0
ARC
  5
30719
  8
0
 10
6717.2654824345363522
 20
138.626583940564899
 30
0.0
 40
0.494321453935187
 50
71.7824953142888376
 51
89.5768617039960588
  0
ARC
  5
3071A
  8
0
 10
6717.2652166879688593
 20
138.6911182983783135
 30
0.0
 40
0.4548899014867221
 50
76.3001767660959587
 51
89.5067084046450248
  0
ARC
  5
3071B
  8
0
 10
6717.2655068836656937
 20
138.6923087449322907
 30
0.0
 40
0.4536645947737814
 50
64.1785033843205355
 51
76.3001767660959587
  0
ARC
  5
3071C
  8
0
 10
6717.3698131859428031
 20
138.9078702605200135
 30
0.0
 40
0.214193152432559
 50
48.749790593762917
 51
64.1785033843205355
  0
ARC
  5
3071D
  8
0
 10
6717.4097177334069784
 20
138.953372340614294
 30
0.0
 40
0.1536719809201484
 50
26.588157774862399
 51
48.7497905937634783
  0
ARC
  5
3071E
  8
0
 10
6717.1692715359477006
 20
139.0278536396556035
 30
0.0
 40
0.1920793357996963
 50
215.3757530471337134
 51
254.5946307763859124
  0
ARC
  5
3071F
  8
0
 10
6717.2727836507201573
 20
139.3122199898008091
 30
0.0
 40
0.494321453935187
 50
251.7824953142888091
 51
269.5768617039959736
  0
ARC
  5
30720
  8
0
 10
6717.2730493972876502
 20
139.2476856319873946
 30
0.0
 40
0.4548899014867221
 50
256.3001767660958876
 51
269.5067084046449963
  0
ARC
  5
30721
  8
0
 10
6717.2727592015899063
 20
139.246495185433389
 30
0.0
 40
0.4536645947737814
 50
244.1785033843204928
 51
256.3001767660958876
  0
ARC
  5
30722
  8
0
 10
6717.1684528993146159
 20
139.0309336698456946
 30
0.0
 40
0.214193152432559
 50
228.7497905937628957
 51
244.1785033843204928
  0
ARC
  5
30723
  8
0
 10
6717.1285483518504407
 20
138.9854315897514141
 30
0.0
 40
0.1536719809201484
 50
206.5881577748623954
 51
228.7497905937634926
  0
ARC
  5
30724
  8
0
 10
6717.3689945493097184
 20
139.0278536396556035
 30
0.0
 40
0.1920793357996963
 50
285.4053692236141728
 51
324.624246952866315
  0
ARC
  5
30725
  8
0
 10
6717.2654824345363522
 20
139.3122199898008091
 30
0.0
 40
0.494321453935187
 50
270.4231382960039127
 51
288.2175046857112193
  0
ARC
  5
30726
  8
0
 10
6717.2652166879688593
 20
139.2476856319873946
 30
0.0
 40
0.4548899014867221
 50
270.4932915953550037
 51
283.6998232339041124
  0
ARC
  5
30727
  8
0
 10
6717.2655068836656937
 20
139.246495185433389
 30
0.0
 40
0.4536645947737814
 50
283.6998232339041124
 51
295.8214966156795072
  0
ARC
  5
30728
  8
0
 10
6717.3698131859428031
 20
139.0309336698456946
 30
0.0
 40
0.214193152432559
 50
295.8214966156795072
 51
311.2502094062369906
  0
ARC
  5
30729
  8
0
 10
6717.4097177334069784
 20
138.9854315897514141
 30
0.0
 40
0.1536719809201484
 50
311.250209406236479
 51
333.4118422251369225
  0
LINE
  5
3072A
  8
0
 10
6717.1281116629979806
 20
126.9584019651828015
 30
0.0
 11
6717.1816258748949622
 21
126.9584019651828015
 31
0.0
  0
ARC
  5
3072B
  8
0
 10
6717.1281619811279597
 20
126.9023861319840023
 30
0.0
 40
0.0560158557988033
 50
90.0514678718313206
 51
106.2944656102044974
  0
LINE
  5
3072C
  8
0
 10
6717.3561675184446358
 20
126.9534019651828061
 30
0.0
 11
6717.3830734471548567
 21
126.9534019651828061
 31
0.0
  0
ARC
  5
3072D
  8
0
 10
6717.1811945055742399
 20
126.9559732356499069
 30
0.0
 40
0.0024667400823167
 50
42.039126594440809
 51
79.9286597381660613
  0
ARC
  5
3072E
  8
0
 10
6717.1744566025126915
 20
126.9498980637765015
 30
0.0
 40
0.0115390634330325
 50
33.7590050365169532
 51
42.0391265944492716
  0
ARC
  5
3072F
  8
0
 10
6717.1172423365896975
 20
126.9166561267487054
 30
0.0
 40
0.0776898743978909
 50
28.8755942616365608
 51
30.6915862357214699
  0
ARC
  5
30730
  8
0
 10
6717.1866089017748891
 20
126.9548876325293065
 30
0.0
 40
0.0015148479970617
 50
208.1352382961067065
 51
258.7358035255269897
  0
ARC
  5
30731
  8
0
 10
6717.1383830426284476
 20
126.9034019651827947
 30
0.0
 40
0.0527500000000032
 50
270.0
 51
90.0
  0
ARC
  5
30732
  8
0
 10
6717.2691330426287095
 20
127.0391162509828007
 30
0.0
 40
0.1207142856999965
 50
226.1859855819051006
 51
313.8140144180961215
  0
ARC
  5
30733
  8
0
 10
6717.1820985668100548
 20
126.9484019651827964
 30
0.0
 40
0.005
 50
46.1859855818920906
 51
90.0
  0
LINE
  5
30734
  8
0
 10
6717.1551926381016528
 20
126.9534019651828061
 30
0.0
 11
6717.1820985668100548
 21
126.9534019651828061
 31
0.0
  0
LINE
  5
30735
  8
0
 10
6717.1863130014689887
 20
126.9534019651828061
 30
0.0
 11
6717.3519530837857019
 21
126.9534019651828061
 31
0.0
  0
ARC
  5
30736
  8
0
 10
6717.3561675184446358
 20
126.9484019651821001
 30
0.0
 40
0.005
 50
90.0000000017196555
 51
133.8140144136085894
  0
LINE
  5
30737
  8
0
 10
6717.4101544222594384
 20
126.9584019651828015
 30
0.0
 11
6717.3566402103633664
 21
126.9584019651828015
 31
0.0
  0
ARC
  5
30738
  8
0
 10
6717.4101041041276403
 20
126.9023861319840023
 30
0.0
 40
0.0560158557988033
 50
73.7055343897955169
 51
89.9485321281686936
  0
ARC
  5
30739
  8
0
 10
6717.3570715796831792
 20
126.9559732356499069
 30
0.0
 40
0.0024667400823167
 50
100.0713402618338961
 51
137.9608734055591981
  0
ARC
  5
3073A
  8
0
 10
6717.3638094827447276
 20
126.9498980637765015
 30
0.0
 40
0.0115390634330325
 50
137.9608734055507
 51
146.2409949634831037
  0
ARC
  5
3073B
  8
0
 10
6717.4210237486659025
 20
126.9166561267487054
 30
0.0
 40
0.0776898743978909
 50
149.3084137642784981
 51
151.1244057383634924
  0
ARC
  5
3073C
  8
0
 10
6717.3516571834816205
 20
126.9548876325293065
 30
0.0
 40
0.0015148479970617
 50
281.2641964744728966
 51
331.8647617038932935
  0
ARC
  5
3073D
  8
0
 10
6717.399883042628062
 20
126.9034019651827947
 30
0.0
 40
0.0527500000000032
 50
90.0
 51
270.0
  0
LINE
  5
3073E
  8
0
 10
6717.1281116629979806
 20
126.8484019651828021
 30
0.0
 11
6717.1816258748949622
 21
126.8484019651828021
 31
0.0
  0
ARC
  5
3073F
  8
0
 10
6717.1281619811279597
 20
126.9044177983817008
 30
0.0
 40
0.0560158557988033
 50
253.7055343897955026
 51
269.948532128168722
  0
LINE
  5
30740
  8
0
 10
6717.3561675184446358
 20
126.853401965182897
 30
0.0
 11
6717.3830734471548567
 21
126.853401965182897
 31
0.0
  0
ARC
  5
30741
  8
0
 10
6717.1811945055742399
 20
126.8508306947157962
 30
0.0
 40
0.0024667400823167
 50
280.0713402618339956
 51
317.9608734055591981
  0
ARC
  5
30742
  8
0
 10
6717.1744566025126915
 20
126.8569058665891021
 30
0.0
 40
0.0115390634330325
 50
317.9608734055507284
 51
326.2409949634831037
  0
ARC
  5
30743
  8
0
 10
6717.1172423365896975
 20
126.8901478036169976
 30
0.0
 40
0.0776898743978909
 50
329.3084137642778728
 51
331.1244057383634072
  0
ARC
  5
30744
  8
0
 10
6717.1866089017748891
 20
126.8519162978363966
 30
0.0
 40
0.0015148479970617
 50
101.2641964744728966
 51
151.8647617038932083
  0
ARC
  5
30745
  8
0
 10
6717.2691330426287095
 20
126.7676876793828029
 30
0.0
 40
0.1207142856999965
 50
46.1859855819039211
 51
133.8140144180948994
  0
ARC
  5
30746
  8
0
 10
6717.1820985668100548
 20
126.858401965182793
 30
0.0
 40
0.005
 50
270.0
 51
313.8140144181078881
  0
LINE
  5
30747
  8
0
 10
6717.1551926381016528
 20
126.853401965182897
 30
0.0
 11
6717.1820985668100548
 21
126.853401965182897
 31
0.0
  0
LINE
  5
30748
  8
0
 10
6717.1863130014689887
 20
126.853401965182897
 30
0.0
 11
6717.3519530837857019
 21
126.853401965182897
 31
0.0
  0
ARC
  5
30749
  8
0
 10
6717.3561675184446358
 20
126.858401965183603
 30
0.0
 40
0.005
 50
226.1859855863914106
 51
269.9999999982803729
  0
LINE
  5
3074A
  8
0
 10
6717.4101544222594384
 20
126.8484019651828021
 30
0.0
 11
6717.3566402103633664
 21
126.8484019651828021
 31
0.0
  0
ARC
  5
3074B
  8
0
 10
6717.4101041041276403
 20
126.9044177983817008
 30
0.0
 40
0.0560158557988033
 50
270.051467871831278
 51
286.2944656102044974
  0
ARC
  5
3074C
  8
0
 10
6717.3570715796831792
 20
126.8508306947157962
 30
0.0
 40
0.0024667400823167
 50
222.0391265944408019
 51
259.9286597381660044
  0
ARC
  5
3074D
  8
0
 10
6717.3638094827447276
 20
126.8569058665891021
 30
0.0
 40
0.0115390634330325
 50
213.7590050365168963
 51
222.0391265944493
  0
ARC
  5
3074E
  8
0
 10
6717.4210237486659025
 20
126.8901478036169976
 30
0.0
 40
0.0776898743978909
 50
208.8755942616365076
 51
210.6915862357213882
  0
ARC
  5
3074F
  8
0
 10
6717.3516571834816205
 20
126.8519162978363966
 30
0.0
 40
0.0015148479970617
 50
28.1352382961067313
 51
78.7358035255270465
  0
ARC
  5
30750
  8
0
 10
6717.1692715359477006
 20
126.8449502907101021
 30
0.0
 40
0.1920793357996963
 50
105.4053692236141018
 51
144.6242469528042989
  0
ARC
  5
30751
  8
0
 10
6717.2727836507201573
 20
126.5605839405648965
 30
0.0
 40
0.494321453935187
 50
90.4231382960039269
 51
108.2175046857112051
  0
ARC
  5
30752
  8
0
 10
6717.2730493972876502
 20
126.6251182983782968
 30
0.0
 40
0.4548899014867221
 50
90.4932915953549895
 51
103.6998232339039987
  0
ARC
  5
30753
  8
0
 10
6717.2727592015899063
 20
126.6263087449323024
 30
0.0
 40
0.4536645947737814
 50
103.6998232339039987
 51
115.8214966156793935
  0
ARC
  5
30754
  8
0
 10
6717.1684528993146159
 20
126.8418702605199968
 30
0.0
 40
0.214193152432559
 50
115.8214966156793935
 51
131.2502094062371043
  0
ARC
  5
30755
  8
0
 10
6717.1285483518504407
 20
126.8873723406143057
 30
0.0
 40
0.1536719809201484
 50
131.2502094062365074
 51
153.4118422250633103
  0
ARC
  5
30756
  8
0
 10
6717.3689945493097184
 20
126.8449502907101021
 30
0.0
 40
0.1920793357996963
 50
35.3757530471970369
 51
74.5946307763858698
  0
ARC
  5
30757
  8
0
 10
6717.2654824345363522
 20
126.5605839405648965
 30
0.0
 40
0.494321453935187
 50
71.7824953142888376
 51
89.5768617039960588
  0
ARC
  5
30758
  8
0
 10
6717.2652166879688593
 20
126.6251182983782968
 30
0.0
 40
0.4548899014867221
 50
76.3001767660959587
 51
89.5067084046450248
  0
ARC
  5
30759
  8
0
 10
6717.2655068836656937
 20
126.6263087449323024
 30
0.0
 40
0.4536645947737814
 50
64.1785033843205355
 51
76.3001767660959587
  0
ARC
  5
3075A
  8
0
 10
6717.3698131859428031
 20
126.8418702605199968
 30
0.0
 40
0.214193152432559
 50
48.749790593762917
 51
64.1785033843205355
  0
ARC
  5
3075B
  8
0
 10
6717.4097177334069784
 20
126.8873723406143057
 30
0.0
 40
0.1536719809201484
 50
26.5881577749366897
 51
48.7497905937634783
  0
ARC
  5
3075C
  8
0
 10
6717.1692715359477006
 20
126.961853639655601
 30
0.0
 40
0.1920793357996963
 50
215.3757530471970085
 51
254.5946307763859124
  0
ARC
  5
3075D
  8
0
 10
6717.2727836507201573
 20
127.2462199898008066
 30
0.0
 40
0.494321453935187
 50
251.7824953142888091
 51
269.5768617039959736
  0
ARC
  5
3075E
  8
0
 10
6717.2730493972876502
 20
127.1816856319874063
 30
0.0
 40
0.4548899014867221
 50
256.3001767660958876
 51
269.5067084046449963
  0
ARC
  5
3075F
  8
0
 10
6717.2727592015899063
 20
127.1804951854334007
 30
0.0
 40
0.4536645947737814
 50
244.1785033843204928
 51
256.3001767660958876
  0
ARC
  5
30760
  8
0
 10
6717.1684528993146159
 20
126.9649336698457063
 30
0.0
 40
0.214193152432559
 50
228.7497905937628957
 51
244.1785033843204928
  0
ARC
  5
30761
  8
0
 10
6717.1285483518504407
 20
126.9194315897513974
 30
0.0
 40
0.1536719809201484
 50
206.5881577749381108
 51
228.7497905937634926
  0
ARC
  5
30762
  8
0
 10
6717.3689945493097184
 20
126.961853639655601
 30
0.0
 40
0.1920793357996963
 50
285.4053692236141728
 51
324.6242469528028778
  0
ARC
  5
30763
  8
0
 10
6717.2654824345363522
 20
127.2462199898008066
 30
0.0
 40
0.494321453935187
 50
270.4231382960039127
 51
288.2175046857112193
  0
ARC
  5
30764
  8
0
 10
6717.2652166879688593
 20
127.1816856319874063
 30
0.0
 40
0.4548899014867221
 50
270.4932915953550037
 51
283.6998232339041124
  0
ARC
  5
30765
  8
0
 10
6717.2655068836656937
 20
127.1804951854334007
 30
0.0
 40
0.4536645947737814
 50
283.6998232339041124
 51
295.8214966156795072
  0
ARC
  5
30766
  8
0
 10
6717.3698131859428031
 20
126.9649336698457063
 30
0.0
 40
0.214193152432559
 50
295.8214966156795072
 51
311.2502094062369906
  0
ARC
  5
30767
  8
0
 10
6717.4097177334069784
 20
126.9194315897513974
 30
0.0
 40
0.1536719809201484
 50
311.250209406236479
 51
333.4118422250618892
  0
LINE
  5
30768
  8
0
 10
6714.9245128488291812
 20
125.6912854395546049
 30
0.0
 11
6714.9245128488291812
 21
140.0422611033110911
 31
0.0
  0
ARC
  5
30769
  8
0
 10
6715.8798900650908763
 20
125.904570148995802
 30
0.0
 40
0.9788952919663323
 50
192.5847257516720106
 51
257.3200257487459908
  0
ARC
  5
3076A
  8
0
 10
6715.8798900650908763
 20
139.8289763938699082
 30
0.0
 40
0.9788952919663323
 50
102.679974251253995
 51
167.4152742483279042
  0
LINE
  5
3076B
  8
0
 10
6727.5886950812691794
 20
140.1694382862062014
 30
0.0
 11
6716.1807828527671518
 21
140.1699601266691957
 31
0.0
  0
LINE
  5
3076C
  8
0
 10
6715.4412967401258356
 20
126.2830804689554043
 30
0.0
 11
6715.4517497356100648
 21
139.4415392401863869
 31
0.0
  0
LINE
  5
3076D
  8
0
 10
6727.5989655084913466
 20
125.5539889280754977
 30
0.0
 11
6716.1703276108719365
 21
125.5535013568644018
 31
0.0
  0
LINE
  5
3076E
  8
0
 10
6728.585249162960281
 20
139.1736494394189094
 30
0.0
 11
6728.5955226612049955
 21
126.551400079338606
 31
0.0
  0
ARC
  5
3076F
  8
0
 10
6727.5886494930664412
 20
139.1728382872489078
 30
0.0
 40
0.9966000000000002
 50
0.0466341571500366
 51
89.9973790772804989
  0
ARC
  5
30770
  8
0
 10
6727.5989229913111558
 20
126.5505889271686044
 30
0.0
 40
0.9966000000000002
 50
270.0024443658830933
 51
0.0466341571492224
  0
ARC
  5
30771
  8
0
 10
6716.1702965101039808
 20
126.2825013562009957
 30
0.0
 40
0.729
 50
179.9544846088058989
 51
270.0024443658830933
  0
ARC
  5
30772
  8
0
 10
6716.180749505586391
 20
139.4409601274319925
 30
0.0
 40
0.729
 50
89.9973790772804989
 51
179.9544846088051031
  0
LINE
  5
30773
  8
0
 10
6715.6654852448846214
 20
139.956657462738093
 30
0.0
 11
6715.1871314623485887
 21
140.5205843109461057
 31
0.0
  0
LINE
  5
30774
  8
0
 10
6728.2930813914554165
 20
139.8778115211609929
 30
0.0
 11
6728.9083145470267482
 21
140.4928618661822952
 31
0.0
  0
LINE
  5
30775
  8
0
 10
6728.3039273625236092
 20
125.8461881913870002
 30
0.0
 11
6728.9123095895665756
 21
125.2447025570129
 31
0.0
  0
LINE
  5
30776
  8
0
 10
6715.6546219515194025
 20
125.7672143006412
 30
0.0
 11
6715.1871314623485887
 21
125.2129622319196045
 31
0.0
  0
LINE
  5
30777
  8
0
 10
6730.1260137638282686
 20
124.626778549112899
 30
0.0
 11
6730.1260137638282686
 21
143.62678268638291
 31
0.0
  0
ARC
  5
30778
  8
0
 10
6729.1395137638291999
 20
143.62678268638291
 30
0.0
 40
0.9865
 50
359.9999999999992042
 51
90.0
  0
LINE
  5
30779
  8
0
 10
6714.5320121372778885
 20
140.7839977256828092
 30
0.0
 11
6714.5320121372778885
 21
124.9495488171828015
 31
0.0
  0
CIRCLE
  5
3077A
  8
0
 10
6706.2591330426275817
 20
135.1264019651829074
 30
0.0
 40
0.31
  0
CIRCLE
  5
3077B
  8
0
 10
6706.2591330426275817
 20
135.1264019651829074
 30
0.0
 40
0.2760925586
  0
CIRCLE
  5
3077C
  8
0
 10
6706.2591330426275817
 20
135.1264019651829074
 30
0.0
 40
2.1789269086999989
  0
CIRCLE
  5
3077D
  8
0
 10
6706.2591330426275817
 20
135.1264019651829074
 30
0.0
 40
1.6780895467000001
  0
CIRCLE
  5
3077E
  8
0
 10
6722.0191330426278
 20
135.1264019651829074
 30
0.0
 40
0.31
  0
CIRCLE
  5
3077F
  8
0
 10
6722.0191330426278
 20
135.1264019651829074
 30
0.0
 40
0.2760925586
  0
CIRCLE
  5
30780
  8
0
 10
6722.0191330426278
 20
135.1264019651829074
 30
0.0
 40
2.1789269086999989
  0
CIRCLE
  5
30781
  8
0
 10
6722.0191330426278
 20
135.1264019651829074
 30
0.0
 40
1.6780895467000001
  0
CIRCLE
  5
30782
  8
0
 10
6714.1391330426276909
 20
143.1864019651829096
 30
0.0
 40
0.6875
  0
LINE
  5
30783
  8
0
 10
6699.1387532364433355
 20
123.1267806177128961
 30
0.0
 11
6729.1395128488138653
 21
123.1267806177128961
 31
0.0
  0
ARC
  5
30784
  8
0
 10
6699.1387532364433355
 20
124.6267806177128961
 30
0.0
 40
1.5
 50
180.0
 51
270.0
  0
ARC
  5
30785
  8
0
 10
6729.1395128488138653
 20
124.6267806177128961
 30
0.0
 40
1.5
 50
270.0
 51
0.0
  0
LINE
  5
30786
  8
0
 10
6699.1387523214280009
 20
123.6402785491129066
 30
0.0
 11
6729.1395137638291999
 21
123.6402785491129066
 31
0.0
  0
ARC
  5
30787
  8
0
 10
6699.1387523214280009
 20
124.626778549112899
 30
0.0
 40
0.9865
 50
180.0
 51
270.0
  0
ARC
  5
30788
  8
0
 10
6729.1395137638291999
 20
124.626778549112899
 30
0.0
 40
0.9865
 50
270.0
 51
0.0
  0
POINT
  5
30789
  8
DEFPOINTS
 10
6714.1391330426276909
 20
143.1864019651829096
 30
0.0
  0
CIRCLE
  5
30F80
  8
0
 10
6710.1391330426276909
 20
143.1864019651827959
 30
0.0
 40
0.6875
  0
CIRCLE
  5
30F81
  8
0
 10
6718.1391330426304194
 20
143.1864019651827959
 30
0.0
 40
0.6875
  0
CIRCLE
  5
30F82
  8
0
 10
6726.1391330426286004
 20
143.1864019651827959
 30
0.0
 40
0.6875
  0
ENDSEC
  0
EOF
