  0
SECTION
  2
HEADER
  9
$ACADVER
  1
AC1009
  9
$INSBASE
 10
3753.3407686092868971
 20
137.0050841781776967
 30
0.0
  9
$EXTMIN
 10
3722.0934609294959046
 20
110.0146786530871026
 30
0.0
  9
$EXTMAX
 10
3770.0168840376682056
 20
154.4001649540406902
 30
0.0
  9
$LIMMIN
 10
0.0
 20
0.0
  9
$LIMMAX
 10
11.6929133858000007
 20
8.2677165353999982
  9
$ORTHOMODE
 70
     0
  9
$REGENMODE
 70
     1
  9
$FILLMODE
 70
     1
  9
$QTEXTMODE
 70
     0
  9
$MIRRTEXT
 70
     0
  9
$DRAGMODE
 70
     2
  9
$LTSCALE
 40
0.6431102362
  9
$OSMODE
 70
  4095
  9
$ATTMODE
 70
     1
  9
$TEXTSIZE
 40
0.2
  9
$TRACEWID
 40
0.05
  9
$TEXTSTYLE
  7
STANDARD
  9
$CLAYER
  8
0
  9
$CELTYPE
  6
BYLAYER
  9
$CECOLOR
 62
   256
  9
$DIMSCALE
 40
1.0
  9
$DIMASZ
 40
0.1875
  9
$DIMEXO
 40
0.0625
  9
$DIMDLI
 40
0.4443307087
  9
$DIMRND
 40
0.0
  9
$DIMDLE
 40
0.0
  9
$DIMEXE
 40
0.125
  9
$DIMTP
 40
0.01
  9
$DIMTM
 40
0.01
  9
$DIMTXT
 40
2.0
  9
$DIMCEN
 40
0.1052362205
  9
$DIMTSZ
 40
0.0
  9
$DIMTOL
 70
     1
  9
$DIMLIM
 70
     0
  9
$DIMTIH
 70
     1
  9
$DIMTOH
 70
     1
  9
$DIMSE1
 70
     0
  9
$DIMSE2
 70
     0
  9
$DIMTAD
 70
     0
  9
$DIMZIN
 70
     0
  9
$DIMBLK
  1

  9
$DIMASO
 70
     1
  9
$DIMSHO
 70
     1
  9
$DIMPOST
  1
\X
  9
$DIMAPOST
  1

  9
$DIMALT
 70
     1
  9
$DIMALTD
 70
     2
  9
$DIMALTF
 40
25.3999999999999986
  9
$DIMLFAC
 40
1.0
  9
$DIMTOFL
 70
     0
  9
$DIMTVP
 40
0.0
  9
$DIMTIX
 70
     0
  9
$DIMSOXD
 70
     0
  9
$DIMSAH
 70
     0
  9
$DIMBLK1
  1

  9
$DIMBLK2
  1

  9
$DIMSTYLE
  2
STANDARD
  9
$DIMCLRD
 70
     0
  9
$DIMCLRE
 70
     0
  9
$DIMCLRT
 70
     0
  9
$DIMTFAC
 40
1.0
  9
$DIMGAP
 40
0.09
  9
$LUNITS
 70
     2
  9
$LUPREC
 70
     4
  9
$SKETCHINC
 40
0.1
  9
$FILLETRAD
 40
0.0
  9
$AUNITS
 70
     0
  9
$AUPREC
 70
     0
  9
$MENU
  1
.
  9
$ELEVATION
 40
0.0
  9
$PELEVATION
 40
0.0
  9
$THICKNESS
 40
0.0
  9
$LIMCHECK
 70
     0
  9
$BLIPMODE
 70
     0
  9
$CHAMFERA
 40
0.0
  9
$CHAMFERB
 40
0.0
  9
$SKPOLY
 70
     0
  9
$TDCREATE
 40
2458060.468368056230247
  9
$TDUPDATE
 40
2459306.7293865741230547
  9
$TDINDWG
 40
0.6483751156999999
  9
$TDUSRTIMER
 40
0.6483751156999999
  9
$USRTIMER
 70
     1
  9
$ANGBASE
 50
0.0
  9
$ANGDIR
 70
     0
  9
$PDMODE
 70
     0
  9
$PDSIZE
 40
0.3125
  9
$PLINEWID
 40
0.0
  9
$COORDS
 70
     1
  9
$SPLFRAME
 70
     0
  9
$SPLINETYPE
 70
     6
  9
$SPLINESEGS
 70
     8
  9
$ATTDIA
 70
     1
  9
$ATTREQ
 70
     1
  9
$HANDLING
 70
     1
  9
$HANDSEED
  5
2E10A
  9
$SURFTAB1
 70
     6
  9
$SURFTAB2
 70
     6
  9
$SURFTYPE
 70
     6
  9
$SURFU
 70
     6
  9
$SURFV
 70
     6
  9
$UCSNAME
  2

  9
$UCSORG
 10
0.0
 20
0.0
 30
0.0
  9
$UCSXDIR
 10
1.0
 20
0.0
 30
0.0
  9
$UCSYDIR
 10
0.0
 20
1.0
 30
0.0
  9
$PUCSNAME
  2

  9
$PUCSORG
 10
0.0
 20
0.0
 30
0.0
  9
$PUCSXDIR
 10
1.0
 20
0.0
 30
0.0
  9
$PUCSYDIR
 10
0.0
 20
1.0
 30
0.0
  9
$USERI1
 70
     0
  9
$USERI2
 70
     0
  9
$USERI3
 70
     0
  9
$USERI4
 70
     0
  9
$USERI5
 70
     0
  9
$USERR1
 40
0.0
  9
$USERR2
 40
0.0
  9
$USERR3
 40
0.0
  9
$USERR4
 40
0.0
  9
$USERR5
 40
0.0
  9
$WORLDVIEW
 70
     1
  9
$SHADEDGE
 70
     3
  9
$SHADEDIF
 70
    70
  9
$TILEMODE
 70
     1
  9
$MAXACTVP
 70
    64
  9
$PLIMCHECK
 70
     0
  9
$PEXTMIN
 10
1.0000000000000000E+20
 20
1.0000000000000000E+20
 30
1.0000000000000000E+20
  9
$PEXTMAX
 10
-1.0000000000000000E+20
 20
-1.0000000000000000E+20
 30
-1.0000000000000000E+20
  9
$PLIMMIN
 10
0.0
 20
0.0
  9
$PLIMMAX
 10
12.0
 20
9.0
  9
$UNITMODE
 70
     0
  9
$VISRETAIN
 70
     1
  9
$PLINEGEN
 70
     0
  9
$PSLTSCALE
 70
     1
  0
ENDSEC
  0
SECTION
  2
TABLES
  0
TABLE
  2
VPORT
 70
     1
  0
VPORT
  2
*ACTIVE
 70
     0
 10
0.0
 20
0.0
 11
1.0
 21
1.0
 12
451.6437006235096874
 22
-68.8195054945615539
 13
0.0
 23
0.0
 14
1.0
 24
1.0
 15
0.0
 25
0.0
 16
0.0
 26
0.0
 36
96.5995694866707311
 17
3303.693115234375
 27
195.2615115758877096
 37
0.0
 40
117.2041278361189995
 41
2.0416666666666661
 42
50.0
 43
0.0
 44
0.0
 50
0.0
 51
0.0
 71
     0
 72
   100
 73
     1
 74
     1
 75
     0
 76
     0
 77
     0
 78
     0
  0
ENDTAB
  0
TABLE
  2
LTYPE
 70
     2
  0
LTYPE
  2
CONTINUOUS
 70
     0
  3
Solid line
 72
    65
 73
     0
 40
0.0
  0
LTYPE
  2
PHANTOM2
 70
     0
  3
___ _ _ ___ _ _ ___ _ _ ___ _ _
 72
    65
 73
     6
 40
1.25
 49
0.625
 49
-0.125
 49
0.125
 49
-0.125
 49
0.125
 49
-0.125
  0
ENDTAB
  0
TABLE
  2
LAYER
 70
     2
  0
LAYER
  2
0
 70
     0
 62
   255
  6
CONTINUOUS
  0
LAYER
  2
DEFPOINTS
 70
     0
 62
     7
  6
CONTINUOUS
  0
ENDTAB
  0
TABLE
  2
STYLE
 70
     1
  0
STYLE
  2
STANDARD
 70
     0
 40
0.0
 41
0.8
 50
0.0
 71
     0
 42
0.2
  3
txt
  4

  0
ENDTAB
  0
TABLE
  2
VIEW
 70
     0
  0
ENDTAB
  0
TABLE
  2
UCS
 70
     0
  0
ENDTAB
  0
TABLE
  2
APPID
 70
     9
  0
APPID
  2
ACAD
 70
     0
  0
APPID
  2
ACAD_MLEADERVER
 70
     0
  0
APPID
  2
ACAD_EXEMPT_FROM_CAD_STANDARDS
 70
     0
  0
APPID
  2
ACAD_NAV_VCDISPLAY
 70
     0
  0
APPID
  2
ACAECLAYERSTANDARD
 70
     0
  0
APPID
  2
ACCMTRANSPARENCY
 70
     0
  0
APPID
  2
ACAD_DSTYLE_DIMJAG
 70
     0
  0
APPID
  2
ACAD_DSTYLE_DIMTALN
 70
     0
  0
APPID
  2
ACDBATTR
 70
     0
  0
ENDTAB
  0
TABLE
  2
DIMSTYLE
 70
     1
  0
DIMSTYLE
  2
STANDARD
 70
     0
  3

  4

  5

  6

  7

 40
1.0
 41
0.1875
 42
0.0625
 43
0.38
 44
0.125
 45
0.0
 46
0.0
 47
0.01
 48
0.01
140
0.15625
141
0.09
142
0.0
143
25.3999999999999986
144
1.0
145
0.0
146
1.0
147
0.09
 71
     1
 72
     0
 73
     1
 74
     1
 75
     0
 76
     0
 77
     0
 78
     4
170
     0
171
     2
172
     0
173
     0
174
     0
175
     0
176
     0
177
     0
178
     0
  0
ENDTAB
  0
ENDSEC
  0
SECTION
  2
BLOCKS
  0
BLOCK
  8
0
  2
$MODEL_SPACE
 70
     0
 10
0.0
 20
0.0
 30
0.0
  3
$MODEL_SPACE
  1

  0
ENDBLK
  5
21
  8
0
  0
BLOCK
 67
     1
  8
0
  2
$PAPER_SPACE
 70
     0
 10
0.0
 20
0.0
 30
0.0
  3
$PAPER_SPACE
  1

  0
ENDBLK
  5
1D
 67
     1
  8
0
  0
BLOCK
  8
0
  2
_FILLED
 70
     0
 10
0.0
 20
0.0
 30
0.0
  3
_FILLED
  1

  0
SOLID
  5
27E58
  8
0
  6
BYBLOCK
 62
     0
 10
0.0
 20
0.0
 30
0.0
 11
-1.0
 21
0.1666666667
 31
0.0
 12
-1.0
 22
-0.1666666667
 32
0.0
 13
-1.0
 23
-0.1666666667
 33
0.0
  0
ENDBLK
  5
27E59
  8
0
  6
BYBLOCK
 62
     0
  0
BLOCK
  8
0
  2
A$CC23E797B
 70
     0
 10
0.0
 20
0.0
 30
0.0
  3
A$CC23E797B
  1

  0
LINE
  5
2B2F8
  8
0
 10
0.0
 20
27.9921259842999994
 30
0.0
 11
24.0159850394000003
 21
27.9921259842999994
 31
0.0
  0
LINE
  5
2B2F9
  8
0
 10
24.0159850394000003
 20
27.9921259842999994
 30
0.0
 11
24.0159850394000003
 21
0.0
 31
0.0
  0
LINE
  5
2B2FA
  8
0
 10
24.0159850394000003
 20
0.0
 30
0.0
 11
0.0000000000000009
 21
0.0
 31
0.0
  0
LINE
  5
2B2FB
  8
0
 10
0.0000000000000009
 20
0.0
 30
0.0
 11
0.0000000000000009
 21
27.9921259842999994
 31
0.0
  0
LINE
  5
2B2FC
  8
0
 10
1.2598425197000001
 20
27.9921259842999994
 30
0.0
 11
1.2598425197000001
 21
0.0
 31
0.0
  0
LINE
  5
2B2FD
  8
0
 10
22.7561425196999991
 20
27.9921259842999994
 30
0.0
 11
22.7561425196999991
 21
0.0
 31
0.0
  0
LINE
  5
2B2FE
  8
0
 10
1.2598425197000001
 20
26.7322859842999989
 30
0.0
 11
22.7561425196999991
 21
26.7322859842999989
 31
0.0
  0
LINE
  5
2B2FF
  8
0
 10
1.3578425196999999
 20
26.6342859842999999
 30
0.0
 11
11.9483937008000005
 21
26.6342859842999999
 31
0.0
  0
LINE
  5
2B300
  8
0
 10
11.9483937008000005
 20
26.6342859842999999
 30
0.0
 11
11.9483937008000005
 21
8.6009043621999979
 31
0.0
  0
LINE
  5
2B301
  8
0
 10
11.9483937008000005
 20
8.6009043621999979
 30
0.0
 11
1.3578425196999999
 21
8.6009043621999979
 31
0.0
  0
LINE
  5
2B302
  8
0
 10
1.3578425196999999
 20
8.6009043621999979
 30
0.0
 11
1.3578425196999999
 21
26.6342859842999999
 31
0.0
  0
LINE
  5
2B303
  8
0
 10
1.2598425197000001
 20
25.1571259842999986
 30
0.0
 11
1.299661999999999
 21
25.1571259842999986
 31
0.0
  0
LINE
  5
2B304
  8
0
 10
1.299661999999999
 20
25.1571259842999986
 30
0.0
 11
1.299661999999999
 21
22.6374409448999998
 31
0.0
  0
LINE
  5
2B305
  8
0
 10
1.299661999999999
 20
22.6374409448999998
 30
0.0
 11
1.2598425197000001
 21
22.6374409448999998
 31
0.0
  0
LINE
  5
2B306
  8
0
 10
1.299661999999999
 20
23.3376747046999995
 30
0.0
 11
1.3551319398999999
 21
23.3376747046999995
 31
0.0
  0
LINE
  5
2B307
  8
0
 10
1.3551319398999999
 20
23.3376747046999995
 30
0.0
 11
1.3551319398999999
 21
23.1970497046999995
 31
0.0
  0
LINE
  5
2B308
  8
0
 10
1.3551319398999999
 20
23.1970497046999995
 30
0.0
 11
1.299661999999999
 21
23.1970497046999995
 31
0.0
  0
LINE
  5
2B309
  8
0
 10
1.299661999999999
 20
24.5975172244000007
 30
0.0
 11
1.3551319398999999
 21
24.5975172244000007
 31
0.0
  0
LINE
  5
2B30A
  8
0
 10
1.3551319398999999
 20
24.5975172244000007
 30
0.0
 11
1.3551319398999999
 21
24.4568922244000007
 31
0.0
  0
LINE
  5
2B30B
  8
0
 10
1.3551319398999999
 20
24.4568922244000007
 30
0.0
 11
1.2996619999999981
 21
24.4568922244000007
 31
0.0
  0
LINE
  5
2B30C
  8
0
 10
1.3578425196999999
 20
24.4689316536000092
 30
0.0
 11
11.9483937008000005
 21
24.4689316535999986
 31
0.0
  0
LINE
  5
2B30D
  8
0
 10
1.3578425196999999
 20
22.9728686613999891
 30
0.0
 11
11.9483937008000005
 21
22.9728686613999891
 31
0.0
  0
LINE
  5
2B30E
  8
0
 10
1.357842519699999
 20
18.2090891339000009
 30
0.0
 11
11.9483937008000005
 21
18.2090891339000009
 31
0.0
  0
LINE
  5
2B30F
  8
0
 10
1.357842519699999
 20
16.7130261418000003
 30
0.0
 11
11.9483937008000005
 21
16.7130261418000003
 31
0.0
  0
LINE
  5
2B310
  8
0
 10
1.2598425197000001
 20
16.2591259842999989
 30
0.0
 11
1.3578425196999999
 21
16.2591259842999989
 31
0.0
  0
LINE
  5
2B311
  8
0
 10
1.357842519699999
 20
14.5476718110000007
 30
0.0
 11
11.9483937008000005
 21
14.5476718110000007
 31
0.0
  0
LINE
  5
2B312
  8
0
 10
1.3578425196999999
 20
13.0516088189000001
 30
0.0
 11
11.9483937008000005
 21
13.0516088189000001
 31
0.0
  0
LINE
  5
2B313
  8
0
 10
1.2598425197000001
 20
12.5584409448999992
 30
0.0
 11
1.299661999999999
 21
12.5584409448999992
 31
0.0
  0
LINE
  5
2B314
  8
0
 10
1.299661999999999
 20
12.5584409448999992
 30
0.0
 11
1.299661999999999
 21
10.0387559055000004
 31
0.0
  0
LINE
  5
2B315
  8
0
 10
1.299661999999999
 20
10.0387559055000004
 30
0.0
 11
1.2598425197000001
 21
10.0387559055000004
 31
0.0
  0
LINE
  5
2B316
  8
0
 10
1.299661999999999
 20
10.7389896654000001
 30
0.0
 11
1.3551319398999999
 21
10.7389896654000001
 31
0.0
  0
LINE
  5
2B317
  8
0
 10
1.3551319398999999
 20
10.7389896654000001
 30
0.0
 11
1.3551319398999999
 21
10.5983646654000001
 31
0.0
  0
LINE
  5
2B318
  8
0
 10
1.3551319398999999
 20
10.5983646654000001
 30
0.0
 11
1.299661999999999
 21
10.5983646654000001
 31
0.0
  0
LINE
  5
2B319
  8
0
 10
1.299661999999999
 20
11.9988321850999995
 30
0.0
 11
1.3551319398999999
 21
11.9988321850999995
 31
0.0
  0
LINE
  5
2B31A
  8
0
 10
1.3551319398999999
 20
11.9988321850999995
 30
0.0
 11
1.3551319398999999
 21
11.8582071850999995
 31
0.0
  0
LINE
  5
2B31B
  8
0
 10
1.3551319398999999
 20
11.8582071850999995
 30
0.0
 11
1.299661999999999
 21
11.8582071850999995
 31
0.0
  0
LINE
  5
2B31C
  8
0
 10
1.2598425197000001
 20
15.6681259842999996
 30
0.0
 11
1.3578425196999999
 21
15.6681259842999996
 31
0.0
  0
LINE
  5
2B31D
  8
0
 10
12.0675913385999998
 20
8.6009043621999979
 30
0.0
 11
22.6581425197000002
 21
8.6009043621999979
 31
0.0
  0
LINE
  5
2B31E
  8
0
 10
22.6581425197000002
 20
8.6009043621999979
 30
0.0
 11
22.6581425197000002
 21
26.6342859842999999
 31
0.0
  0
LINE
  5
2B31F
  8
0
 10
22.6581425197000002
 20
26.6342859842999999
 30
0.0
 11
12.0675913385999998
 21
26.6342859842999999
 31
0.0
  0
LINE
  5
2B320
  8
0
 10
12.0675913385999998
 20
26.6342859842999999
 30
0.0
 11
12.0675913385999998
 21
8.6009043621999979
 31
0.0
  0
LINE
  5
2B321
  8
0
 10
12.0675913385999998
 20
13.0516088189000001
 30
0.0
 11
22.6581425197000002
 21
13.0516088189000001
 31
0.0
  0
LINE
  5
2B322
  8
0
 10
11.9483937008000005
 20
16.2591259842999989
 30
0.0
 11
12.0675913385999998
 21
16.2591259842999989
 31
0.0
  0
LINE
  5
2B323
  8
0
 10
11.9483937008000005
 20
15.6681259842999996
 30
0.0
 11
12.0675913385999998
 21
15.6681259842999996
 31
0.0
  0
LINE
  5
2B324
  8
0
 10
12.0675913385999998
 20
14.5476718110000007
 30
0.0
 11
22.6581425197000002
 21
14.5476718110000007
 31
0.0
  0
LINE
  5
2B325
  8
0
 10
12.0675913385999998
 20
16.7130261418000003
 30
0.0
 11
22.6581425197000002
 21
16.7130261418000003
 31
0.0
  0
LINE
  5
2B326
  8
0
 10
12.0675913385999998
 20
18.2090891339000009
 30
0.0
 11
22.6581425197000002
 21
18.2090891339000009
 31
0.0
  0
LINE
  5
2B327
  8
0
 10
12.0675913385999998
 20
22.9728686613999997
 30
0.0
 11
22.6581425197000002
 21
22.9728686613999891
 31
0.0
  0
LINE
  5
2B328
  8
0
 10
12.0675913385999998
 20
24.4689316535999986
 30
0.0
 11
22.6581425197000002
 21
24.4689316536000092
 31
0.0
  0
LINE
  5
2B329
  8
0
 10
22.7561425196999991
 20
25.1571259842999986
 30
0.0
 11
22.7163230393999989
 21
25.1571259842999986
 31
0.0
  0
LINE
  5
2B32A
  8
0
 10
22.7163230393999989
 20
25.1571259842999986
 30
0.0
 11
22.7163230393999989
 21
22.6374409448999998
 31
0.0
  0
LINE
  5
2B32B
  8
0
 10
22.7163230393999989
 20
22.6374409448999998
 30
0.0
 11
22.7561425196999991
 21
22.6374409448999998
 31
0.0
  0
LINE
  5
2B32C
  8
0
 10
22.6581425197000002
 20
16.2591259842999989
 30
0.0
 11
22.7561425196999991
 21
16.2591259842999989
 31
0.0
  0
LINE
  5
2B32D
  8
0
 10
22.6581425197000002
 20
15.6681259842999996
 30
0.0
 11
22.7561425196999991
 21
15.6681259842999996
 31
0.0
  0
LINE
  5
2B32E
  8
0
 10
22.7561425196999991
 20
12.5584409448999992
 30
0.0
 11
22.7163230393999989
 21
12.5584409448999992
 31
0.0
  0
LINE
  5
2B32F
  8
0
 10
22.7163230393999989
 20
12.5584409448999992
 30
0.0
 11
22.7163230393999989
 21
10.0387559055000004
 31
0.0
  0
LINE
  5
2B330
  8
0
 10
22.7163230393999989
 20
10.0387559055000004
 30
0.0
 11
22.7561425196999991
 21
10.0387559055000004
 31
0.0
  0
LINE
  5
2B331
  8
0
 10
1.2598425197000001
 20
8.5039279843000006
 30
0.0
 11
22.7561425196999991
 21
8.5039279843000006
 31
0.0
  0
LINE
  5
2B332
  8
0
 10
22.7561425196999991
 20
7.2440879842999983
 30
0.0
 11
1.2598425197000001
 21
7.2440879843000001
 31
0.0
  0
CIRCLE
  5
2B333
  8
0
 10
10.3342204725000002
 20
10.8262565905999999
 30
0.0
 40
0.4415145545999999
  0
CIRCLE
  5
2B334
  8
0
 10
13.6817645670000001
 20
10.8262565905999999
 30
0.0
 40
0.4415145546000004
  0
ENDBLK
  5
2B336
  8
0
  0
ENDSEC
  0
SECTION
  2
ENTITIES
  0
ATTDEF
  5
29A98
  8
DEFPOINTS
 10
3753.3426516885469937
 20
137.0087151102025871
 30
0.0
 40
0.001
  1
K-8699T
  3

  2
MODELNUMBER
 70
     0
1001
ACDBATTR
1070
     0
1070
     1
  0
ATTDEF
  5
29A99
  8
DEFPOINTS
 10
3753.3426516885469937
 20
137.0070484435360072
 30
0.0
 40
0.001
  1
ADAIR
  3

  2
TRADENAME
 70
     0
1001
ACDBATTR
1070
     0
1070
     1
  0
ATTDEF
  5
29A9A
  8
DEFPOINTS
 10
3753.3426516885469937
 20
137.0053817768693136
 30
0.0
 40
0.001
  1
TOILET
  3

  2
PRODUCT
 70
     0
1001
ACDBATTR
1070
     0
1070
     1
  0
ARC
  5
2DF67
  8
0
 10
3748.5836157451808504
 20
135.6617685036511034
 30
0.0
 40
3.5829926510889178
 50
188.6279051790502024
 51
225.0253944446969001
  0
ARC
  5
2DF68
  8
0
 10
3747.3479915943839842
 20
135.4182980658613076
 30
0.0
 40
2.3254856607468848
 50
143.141487819392097
 51
187.264034790365514
  0
ARC
  5
2DF69
  8
0
 10
3751.3832941492969439
 20
138.3123132035881042
 30
0.0
 40
7.4376072852127013
 50
224.1998443944943915
 51
250.0985738725705971
  0
ARC
  5
2DF6A
  8
0
 10
3753.3067986531868883
 20
144.4735685155879139
 30
0.0
 40
13.9253897535806708
 50
258.4819152093218122
 51
270.139768945765411
  0
ARC
  5
2DF6B
  8
0
 10
3752.7444132804312176
 20
141.5111410132726064
 30
0.0
 40
10.9103999276772594
 50
249.0957930231722912
 51
258.2693903241132034
  0
ARC
  5
2DF6C
  8
0
 10
3748.3740257112867766
 20
131.4446878903665947
 30
0.0
 40
0.0200000000744334
 50
249.1942786830749128
 51
332.0013638702527032
  0
LINE
  5
2DF6D
  8
0
 10
3748.4208479248591175
 20
131.4901497273611994
 30
0.0
 11
3748.3916848867111185
 21
131.4352988794327928
 31
0.0
  0
LINE
  5
2DF6E
  8
0
 10
3746.0649116637077896
 20
132.5988319973523915
 30
0.0
 11
3746.2288793898128461
 21
132.9504095662341001
 31
0.0
  0
ARC
  5
2DF6F
  8
0
 10
3746.0830380583379338
 20
132.5903800617971058
 30
0.0
 40
0.020000034922596
 50
155.0014048351987981
 51
243.581938436015605
  0
LINE
  5
2DF70
  8
0
 10
3746.0741396924868241
 20
132.5724685994871095
 30
0.0
 11
3747.2692165963871958
 21
131.9766606446870867
 31
0.0
  0
ARC
  5
2DF71
  8
0
 10
3750.5297121434550718
 20
137.1067520639622899
 30
0.0
 40
6.0785416986782543
 50
237.5614763246827863
 51
249.1568550247027929
  0
ARC
  5
2DF72
  8
0
 10
3747.3265384077822091
 20
131.9680259194147141
 30
0.0
 40
0.0235806396128292
 50
157.1781599676473888
 51
228.117459712849012
  0
LINE
  5
2DF73
  8
0
 10
3747.3048037697872132
 20
131.9771720702871107
 30
0.0
 11
3747.3463949393458279
 21
132.0655983151247881
 31
0.0
  0
ARC
  5
2DF74
  8
0
 10
3753.3738183185241724
 20
59.9362940652703102
 30
0.0
 40
68.369234694886643
 50
90.0013905684539566
 51
91.7875609160051766
  0
ARC
  5
2DF75
  8
0
 10
3754.7914249118648513
 20
23.5059055734415487
 30
0.0
 40
104.8264903777275947
 50
91.940884686614254
 51
92.5487041769506362
  0
ARC
  5
2DF76
  8
0
 10
3749.9377942617738881
 20
132.5029047688001924
 30
0.0
 40
4.2785216568505939
 50
270.7188828813294208
 51
272.573936792035397
  0
ARC
  5
2DF77
  8
0
 10
3749.9829892712477886
 20
130.2237706787240086
 30
0.0
 40
1.9990688101709331
 50
269.5203778247372952
 51
270.2432099571253161
  0
ARC
  5
2DF78
  8
0
 10
3750.2421669660138832
 20
121.9809934263183067
 30
0.0
 40
6.2498717581380641
 50
92.5302461708206039
 51
93.2506790279748543
  0
ARC
  5
2DF79
  8
0
 10
3749.650171503456022
 20
125.8402988618633032
 30
0.0
 40
2.3647577013560999
 50
92.0129321344017939
 51
101.2818047100216035
  0
ARC
  5
2DF7A
  8
0
 10
3753.5101539414467879
 20
57.7390865288588273
 30
0.0
 40
70.5747467859245745
 50
92.94210801009379
 51
93.2028102284864985
  0
ARC
  5
2DF7B
  8
0
 10
3749.4755009070800043
 20
126.8275228671800932
 30
0.0
 40
1.3626133899559749
 50
102.2001774069159978
 51
114.5460867259400999
  0
ARC
  5
2DF7C
  8
0
 10
3749.3334964947548542
 20
127.1835346598770968
 30
0.0
 40
0.9799620303870309
 50
115.6409608851690933
 51
141.9875630437680059
  0
ARC
  5
2DF7D
  8
0
 10
3714.6304893619339964
 20
153.0384711144546941
 30
0.0
 40
42.2958932392165607
 50
322.6193375988975163
 51
323.3433170990360281
  0
ARC
  5
2DF7E
  8
0
 10
3753.8257871558598708
 20
123.3287967692291005
 30
0.0
 40
6.8889913986609956
 50
144.1821135809346117
 51
155.5653503359594936
  0
ARC
  5
2DF7F
  8
0
 10
3757.8487650267011304
 20
121.4885322464117934
 30
0.0
 40
11.3128863477184503
 50
155.508051413908106
 51
170.1179282804031061
  0
ARC
  5
2DF80
  8
0
 10
3761.3956348078409064
 20
120.6256574221743989
 30
0.0
 40
14.9571662351354409
 50
169.1933374171703974
 51
182.0541953512492057
  0
ARC
  5
2DF81
  8
0
 10
3759.8878896800661096
 20
120.7418193537773021
 30
0.0
 40
13.4556294439550896
 50
182.7786587197923041
 51
189.8248806171424121
  0
ARC
  5
2DF82
  8
0
 10
3760.1405584609251491
 20
120.7581764917108984
 30
0.0
 40
13.7074102832355695
 50
189.7120333477934082
 51
209.2974110762951909
  0
ARC
  5
2DF83
  8
0
 10
3755.5013981406841594
 20
118.1070365474196961
 30
0.0
 40
8.3644265627480401
 50
209.010428695316989
 51
218.0715521933209118
  0
ARC
  5
2DF84
  8
0
 10
3754.4930407153510714
 20
117.1922552388160028
 30
0.0
 40
7.0072008739408753
 50
217.2673066913260982
 51
232.6333565575704085
  0
ARC
  5
2DF85
  8
0
 10
3753.4229557608291543
 20
115.7317559045854978
 30
0.0
 40
5.1971180598044198
 50
232.2372749997553001
 51
269.439978257740222
  0
ARC
  5
2DF86
  8
0
 10
3753.3670323554938477
 20
115.1193981764186987
 30
0.0
 40
4.8664732183092863
 50
240.6425732195137925
 51
270.0603540678919785
  0
ARC
  5
2DF87
  8
0
 10
3755.1228860842797985
 20
117.8306410005136939
 30
0.0
 40
8.0928574510482232
 50
208.5789821435982958
 51
239.2182541184849072
  0
ARC
  5
2DF88
  8
0
 10
3749.5431777004309879
 20
127.0579094327575973
 30
0.0
 40
1.376828174841775
 50
114.8111340225304957
 51
141.7467801605642137
  0
ARC
  5
2DF89
  8
0
 10
3749.6207199711620888
 20
126.8705074065683931
 30
0.0
 40
1.5794927492994151
 50
88.8245513507887949
 51
114.5117051749211043
  0
ARC
  5
2DF8A
  8
0
 10
3756.0743095653501769
 20
122.1996811365352045
 30
0.0
 40
9.5162694491179671
 50
143.1232279179203033
 51
148.3718363596134111
  0
ARC
  5
2DF8B
  8
0
 10
3758.6909911180900963
 20
120.7487611166228021
 30
0.0
 40
12.5059104538745007
 50
148.998532438627393
 51
151.6904508095983033
  0
ARC
  5
2DF8C
  8
0
 10
3753.1713121386810599
 20
123.6600230922212944
 30
0.0
 40
6.2660096350303931
 50
151.1916035433845025
 51
155.2009786985568098
  0
ARC
  5
2DF8D
  8
0
 10
3756.0734586146609217
 20
122.123200508752106
 30
0.0
 40
9.5467897634254761
 50
154.1336114245901001
 51
157.6714112634159903
  0
ARC
  5
2DF8E
  8
0
 10
3758.2320968302738038
 20
121.3158083726653018
 30
0.0
 40
11.8505427451626701
 50
158.0254760702910062
 51
165.8034765544967968
  0
ARC
  5
2DF8F
  8
0
 10
3761.5456708465549127
 20
120.5815881926237978
 30
0.0
 40
15.2433210547588995
 50
166.1825564070032044
 51
171.6664000268405061
  0
ARC
  5
2DF90
  8
0
 10
3762.5011106458318864
 20
120.3861461993178068
 30
0.0
 40
16.2170919303640595
 50
171.4724343921137972
 51
176.6379710421990978
  0
ARC
  5
2DF91
  8
0
 10
3759.7564262865062119
 20
120.5466821657474981
 30
0.0
 40
13.4677168312271593
 50
176.634985304034501
 51
181.9280946696927117
  0
ARC
  5
2DF92
  8
0
 10
3759.166423458979807
 20
120.6029629388648061
 30
0.0
 40
12.8801664326725795
 50
182.2666164658309071
 51
190.1623309420604926
  0
ARC
  5
2DF93
  8
0
 10
3760.3428655569641705
 20
120.7201256424584983
 30
0.0
 40
14.0591268226985004
 50
189.7864020504837868
 51
208.7434031209780017
  0
ARC
  5
2DF94
  8
0
 10
3760.830085225773928
 20
119.5061846614905932
 30
0.0
 40
14.9948153529026502
 50
167.7044062385882057
 51
175.1435511361387114
  0
ARC
  5
2DF95
  8
0
 10
3750.0985089240630259
 20
121.8324875614464986
 30
0.0
 40
4.0140211924011151
 50
160.2283827095282902
 51
167.5273605038435107
  0
ARC
  5
2DF96
  8
0
 10
3757.3989958325901171
 20
119.5171721482180942
 30
0.0
 40
11.6709605662911304
 50
157.9777115443772004
 51
161.6557739986592139
  0
ARC
  5
2DF97
  8
0
 10
3778.5542255438949724
 20
115.3067830373861966
 30
0.0
 40
33.1075295559090321
 50
163.009465409938997
 51
164.9681818282863048
  0
ARC
  5
2DF98
  8
0
 10
3584.5177022587508873
 20
175.845712796333288
 30
0.0
 40
170.1544022505013913
 50
342.6065816329884228
 51
343.7924683857124819
  0
ARC
  5
2DF99
  8
0
 10
3730.9264649253627795
 20
133.3127609750889064
 30
0.0
 40
17.6926928330934601
 50
343.7190901505143756
 51
353.9489779486804082
  0
ARC
  5
2DF9A
  8
0
 10
3758.4361869577728612
 20
120.4730534803838964
 30
0.0
 40
12.5507327696761308
 50
178.6185216445657886
 51
208.4043004359662916
  0
ARC
  5
2DF9B
  8
0
 10
3753.3906905016510791
 20
115.4485463508351017
 30
0.0
 40
5.4339230608814111
 50
251.8541350739959057
 51
269.7413624441488764
  0
ARC
  5
2DF9C
  8
0
 10
3753.6875695188159625
 20
116.1005599560038064
 30
0.0
 40
6.1464774634875168
 50
226.6494844286845876
 51
251.1172047687537088
  0
ARC
  5
2DF9D
  8
0
 10
3756.3047573261678735
 20
118.7465688580759036
 30
0.0
 40
9.8675454166236758
 50
205.4722669074016039
 51
226.145729358347495
  0
ARC
  5
2DF9E
  8
0
 10
3749.879762031393966
 20
128.4096168077344942
 30
0.0
 40
0.0400516107785232
 50
9.7834614069554551
 51
89.9699024090707411
  0
ARC
  5
2DF9F
  8
0
 10
3749.2731489171042085
 20
128.331052144653313
 30
0.0
 40
0.6533118687844759
 50
359.9462976657545141
 51
4.4147599096593826
  0
ARC
  5
2DFA0
  8
0
 10
3739.463995521310153
 20
126.8215451765262998
 30
0.0
 40
10.5761801433713902
 50
8.4810329661907886
 51
8.6732326805957705
  0
LINE
  5
2DFA1
  8
0
 10
3749.6531217012870911
 20
128.4496677761871126
 30
0.0
 11
3749.8797830705871093
 21
128.4496684129871085
 31
0.0
  0
ARC
  5
2DFA2
  8
0
 10
3738.4475022236310906
 20
128.1480708476865118
 30
0.0
 40
11.4804068535558592
 50
0.3736923418012634
 51
0.9101951970984181
  0
ARC
  5
2DFA3
  8
0
 10
3749.6787947074358271
 20
126.9669402672828937
 30
0.0
 40
1.4491729484250531
 50
91.0150836789132143
 51
142.2183496255190107
  0
ARC
  5
2DFA4
  8
0
 10
3758.8900606898628212
 20
119.675126982780597
 30
0.0
 40
13.1973242212450899
 50
141.6971280389591072
 51
144.6307831824290986
  0
ARC
  5
2DFA5
  8
0
 10
3750.2176754242100287
 20
129.3589649785830886
 30
0.0
 40
0.0228159514967941
 50
273.7906565727449788
 51
338.5152983664227122
  0
ARC
  5
2DFA6
  8
0
 10
3750.1761168492721481
 20
129.1469628658680904
 30
0.0
 40
0.1914666943125112
 50
98.7594994260091852
 51
124.322057651231404
  0
ARC
  5
2DFA7
  8
0
 10
3750.2709630139152068
 20
129.1226665749003928
 30
0.0
 40
0.2727786031252315
 50
138.028105688478604
 51
168.6401362949445115
  0
ARC
  5
2DFA8
  8
0
 10
3750.426110516099925
 20
129.0745778901618053
 30
0.0
 40
0.4346753241802867
 50
166.4532127311325951
 51
179.7252188052273141
  0
LINE
  5
2DFA9
  8
0
 10
3750.1469589127859763
 20
129.3361963453870942
 30
0.0
 11
3751.0853632718271911
 21
129.3362300878540054
 31
0.0
  0
LINE
  5
2DFAA
  8
0
 10
3750.2389060182867979
 20
129.3506085727871096
 30
0.0
 11
3750.993601039287114
 21
129.350608554787101
 31
0.0
  0
ARC
  5
2DFAB
  8
0
 10
3751.0141149916798895
 20
129.358535514918799
 30
0.0
 40
0.0219922472639738
 50
201.1274285406894933
 51
261.2574919478641959
  0
ARC
  5
2DFAC
  8
0
 10
3751.0182304493891934
 20
129.3814391853981078
 30
0.0
 40
0.0452591337341036
 50
260.5150956345096915
 51
267.3734401948365758
  0
ARC
  5
2DFAD
  8
0
 10
3751.0657132772089426
 20
129.1706439346774005
 30
0.0
 40
0.166748002723613
 50
53.7352648801075787
 51
83.2323989599801166
  0
ARC
  5
2DFAE
  8
0
 10
3751.06630369869481
 20
129.1960878526643057
 30
0.0
 40
0.1466097392606788
 50
22.8690094803533803
 51
48.0300744014652068
  0
ARC
  5
2DFAF
  8
0
 10
3750.8365843664610111
 20
129.0783464198742081
 30
0.0
 40
0.4044859926758905
 50
359.7614685341724226
 51
25.591377636849689
  0
LINE
  5
2DFB0
  8
0
 10
3749.9914401906871717
 20
129.0766625139870882
 30
0.0
 11
3749.9914401725868629
 21
128.3163031995871108
 31
0.0
  0
LINE
  5
2DFB1
  8
0
 10
3751.2410668538791469
 20
129.0766624850529922
 30
0.0
 11
3751.2410668357861141
 21
128.316303171028494
 31
0.0
  0
LINE
  5
2DFB2
  8
0
 10
3749.9896946539870441
 20
128.3163115566871113
 30
0.0
 11
3750.1073505367871803
 21
128.3163031980870983
 31
0.0
  0
LINE
  5
2DFB3
  8
0
 10
3750.241253503786993
 20
128.2979780432870882
 30
0.0
 11
3750.9934755635867987
 21
128.2979794414870867
 31
0.0
  0
ARC
  5
2DFB4
  8
0
 10
3748.0451987891369754
 20
116.0596011629613997
 30
0.0
 40
12.4289667554544003
 50
80.0454757916137112
 51
80.4496084753398293
  0
ARC
  5
2DFB5
  8
0
 10
3750.2405915774620553
 20
128.6153384857481115
 30
0.0
 40
0.3173611327581328
 50
261.5123931979484269
 51
270.1195030152013032
  0
ARC
  5
2DFB6
  8
0
 10
3750.0510061620921078
 20
127.9423329254388051
 30
0.0
 40
0.3781910276360425
 50
81.4319532528349868
 51
87.400389042624397
  0
ARC
  5
2DFB7
  8
0
 10
3750.0516973277772195
 20
128.2209213461271133
 30
0.0
 40
0.0992040867356404
 50
92.8800367492861199
 51
105.9440574576097021
  0
ARC
  5
2DFB8
  8
0
 10
3750.0587256897110819
 20
128.1146236651246113
 30
0.0
 40
0.2057274934197136
 50
87.3717391775001033
 51
93.3475269360697837
  0
ARC
  5
2DFB9
  8
0
 10
3749.9913902720140868
 20
128.2950257189515071
 30
0.0
 40
0.0221491728267316
 50
137.7305324569489073
 51
172.2810192476501925
  0
ARC
  5
2DFBA
  8
0
 10
3749.9897042474231057
 20
128.2961940892803057
 30
0.0
 40
0.0201174696942328
 50
90.0273226929845123
 51
136.9630452998970043
  0
ARC
  5
2DFBB
  8
0
 10
3750.7979042970350747
 20
128.2205049296192101
 30
0.0
 40
0.8320791442485065
 50
174.6560091271499005
 51
178.1476649584151914
  0
LINE
  5
2DFBC
  8
0
 10
3749.966253501987012
 20
128.2472401746871071
 30
0.0
 11
3749.966253501987012
 21
128.2247718193848982
 31
0.0
  0
ARC
  5
2DFBD
  8
0
 10
3750.9912760596671433
 20
128.6254800473180921
 30
0.0
 40
0.3275079917149822
 50
270.3847943932283897
 51
278.8763807871299036
  0
ARC
  5
2DFBE
  8
0
 10
3748.1932668338558869
 20
145.0228993117920879
 30
0.0
 40
16.9619047017801989
 50
279.6679391793609852
 51
279.9535789901116232
  0
ARC
  5
2DFBF
  8
0
 10
3751.1752157002370041
 20
128.1926984137359113
 30
0.0
 40
0.1278989041891322
 50
75.1110085854725043
 51
94.8745667120258105
  0
ARC
  5
2DFC0
  8
0
 10
3751.1832389079149834
 20
127.9242439914284972
 30
0.0
 40
0.3963412098322153
 50
92.7320048681852001
 51
98.429843698349714
  0
ARC
  5
2DFC1
  8
0
 10
3751.2428404931051773
 20
128.2962526261950984
 30
0.0
 40
0.0200505721997858
 50
41.1749589437768577
 51
90.0947351785461024
  0
ARC
  5
2DFC2
  8
0
 10
3751.238271170752796
 20
128.2935500512948011
 30
0.0
 40
0.0252879477012164
 50
2.303442802770963
 51
38.9675281300712726
  0
ARC
  5
2DFC3
  8
0
 10
3750.8248218530970917
 20
128.2521282871989001
 30
0.0
 40
0.440764624289324
 50
2.7143070519561641
 51
5.525167888542537
  0
LINE
  5
2DFC4
  8
0
 10
3751.1251359635871268
 20
128.3163031737871052
 30
0.0
 11
3751.2428073406867952
 21
128.316303170987112
 31
0.0
  0
LINE
  5
2DFC5
  8
0
 10
3751.3826010221218894
 20
128.4762769670549005
 30
0.0
 11
3751.7618249037950591
 21
128.4762555790630074
 31
0.0
  0
LINE
  5
2DFC6
  8
0
 10
3751.800813914786886
 20
128.4604222109871046
 30
0.0
 11
3751.8037585255488011
 21
128.2874986267918871
 31
0.0
  0
ARC
  5
2DFC7
  8
0
 10
3751.7870186865120559
 20
128.4598771792529135
 30
0.0
 40
0.0137998400295029
 50
2.259769372058404
 51
59.6605421894605001
  0
ARC
  5
2DFC8
  8
0
 10
3751.778270594903006
 20
128.4438023878695958
 30
0.0
 40
0.0320970657205085
 50
60.6775731745855396
 51
87.0850429906185042
  0
ARC
  5
2DFC9
  8
0
 10
3751.7670665562568502
 20
128.3034255243188966
 30
0.0
 40
0.1729095218412504
 50
85.7426140943836259
 51
91.737154654656436
  0
ARC
  5
2DFCA
  8
0
 10
3751.3426051737178568
 20
128.4420955732246057
 30
0.0
 40
0.0294167741156318
 50
140.3581874732041115
 51
179.3873107301718903
  0
ARC
  5
2DFCB
  8
0
 10
3751.3485637302010218
 20
128.4362295253021102
 30
0.0
 40
0.0377543884942027
 50
105.9396730442213936
 51
139.2720400087036978
  0
ARC
  5
2DFCC
  8
0
 10
3751.3778997126878494
 20
128.0552580627129942
 30
0.0
 40
0.421023757978613
 50
89.3604018091470635
 51
93.2328926391781465
  0
ARC
  5
2DFCD
  8
0
 10
3751.3600953911090983
 20
128.401927501468009
 30
0.0
 40
0.0739232530361522
 50
94.6082543694129043
 51
107.2326698115420953
  0
LINE
  5
2DFCE
  8
0
 10
3751.3131900814860273
 20
128.4424101338871083
 30
0.0
 11
3751.3103189340558856
 21
128.2743243250662886
 31
0.0
  0
ARC
  5
2DFCF
  8
0
 10
3745.8674425969461481
 20
136.5326637011609989
 30
0.0
 40
0.4724409447260894
 50
89.9999999967691622
 51
143.5697586054155011
  0
LINE
  5
2DFD0
  8
0
 10
3745.8674425969720687
 20
137.0051046458870871
 30
0.0
 11
3760.8140877730370448
 21
137.005063710487093
 31
0.0
  0
LINE
  5
2DFD1
  8
0
 10
3749.6531217020610711
 20
128.4158857911870939
 30
0.0
 11
3749.8848726492869901
 21
128.4158857971870873
 31
0.0
  0
ARC
  5
2DFD2
  8
0
 10
3749.8849498426438913
 20
128.3759474079539871
 30
0.0
 40
0.0399384638330736
 50
7.7619400746690479
 51
90.1107417731043085
  0
ARC
  5
2DFD3
  8
0
 10
3754.5447876565121987
 20
122.9149589088536061
 30
0.0
 40
7.7796960482129771
 50
145.5635999581818112
 51
154.9803136293342902
  0
ARC
  5
2DFD4
  8
0
 10
3760.4188853028631456
 20
120.6559639502270045
 30
0.0
 40
14.0647794164835709
 50
156.7620871549418951
 51
182.2907446585026889
  0
ARC
  5
2DFD5
  8
0
 10
3759.3390100968658771
 20
120.6753298428936034
 30
0.0
 40
12.9866916988960703
 50
182.566547804060491
 51
190.1560688726127069
  0
ARC
  5
2DFD6
  8
0
 10
3760.5550714758369395
 20
120.8319514467829947
 30
0.0
 40
14.2114435895267999
 50
189.9131173318899073
 51
203.5660817784450103
  0
ARC
  5
2DFD7
  8
0
 10
3757.0813129392690826
 20
119.2380518508040979
 30
0.0
 40
10.3903970187164401
 50
203.1682963180707873
 51
219.6188482623213076
  0
ARC
  5
2DFD8
  8
0
 10
3753.4029712317369558
 20
115.2628530841234067
 30
0.0
 40
4.8889540047773909
 50
241.6605123989677963
 51
269.6388908319672737
  0
ARC
  5
2DFD9
  8
0
 10
3754.4329612100000304
 20
117.0668523867937978
 30
0.0
 40
6.965856593439665
 50
219.753014604326296
 51
241.2476284629306917
  0
ARC
  5
2DFDA
  8
0
 10
3758.0979214733920344
 20
135.6617685036511034
 30
0.0
 40
3.5829926510889178
 50
314.9746055553030146
 51
351.3720948209489165
  0
ARC
  5
2DFDB
  8
0
 10
3759.33354562418981
 20
135.4182980658613076
 30
0.0
 40
2.3254856607468848
 50
352.7359652096336049
 51
36.8585121806079314
  0
ARC
  5
2DFDC
  8
0
 10
3755.2982430692759408
 20
138.3123132035881042
 30
0.0
 40
7.4376072852127013
 50
289.9014261274293744
 51
315.8001556055049832
  0
ARC
  5
2DFDD
  8
0
 10
3753.374738565386906
 20
144.4735685155879139
 30
0.0
 40
13.9253897535806708
 50
269.8602310542347027
 51
281.5180847906781878
  0
ARC
  5
2DFDE
  8
0
 10
3753.9371239381421219
 20
141.5111410132726064
 30
0.0
 40
10.9103999276772594
 50
281.7306096758867966
 51
290.9042069768275951
  0
ARC
  5
2DFDF
  8
0
 10
3760.8142210806950061
 20
136.5328134654731116
 30
0.0
 40
0.4722502638291124
 50
36.4247331738527791
 51
90.0161735564618652
  0
ARC
  5
2DFE0
  8
0
 10
3753.3704996760611721
 20
59.93629406526005
 30
0.0
 40
68.3692346948969032
 50
88.2124390839948376
 51
89.9986094314678837
  0
ARC
  5
2DFE1
  8
0
 10
3751.9528930827218574
 20
23.5059055734415487
 30
0.0
 40
104.8264903777275947
 50
87.4512958230493496
 51
88.0591153133857603
  0
ARC
  5
2DFE2
  8
0
 10
3756.8065237328141848
 20
132.5029047688001924
 30
0.0
 40
4.2785216568505939
 50
267.4260632079647166
 51
269.2811171186705792
  0
ARC
  5
2DFE3
  8
0
 10
3756.7613287233389201
 20
130.2237706787240086
 30
0.0
 40
1.9990688101709331
 50
269.7567900428746839
 51
270.4796221752627048
  0
ARC
  5
2DFE4
  8
0
 10
3756.502151028571916
 20
121.9809934263183067
 30
0.0
 40
6.2498717581380641
 50
86.7493209720251599
 51
87.4697538291794103
  0
ARC
  5
2DFE5
  8
0
 10
3757.0941464911311414
 20
125.8402988618633032
 30
0.0
 40
2.3647577013560999
 50
78.7181952899783539
 51
87.9870678655982061
  0
ARC
  5
2DFE6
  8
0
 10
3753.2341640531390112
 20
57.7390865288588273
 30
0.0
 40
70.5747467859245745
 50
86.7971897715135157
 51
87.0578919899061958
  0
ARC
  5
2DFE7
  8
0
 10
3757.2688170875057949
 20
126.8275228671800932
 30
0.0
 40
1.3626133899559749
 50
65.4539132740599143
 51
77.7998225930840022
  0
ARC
  5
2DFE8
  8
0
 10
3757.4108214998318545
 20
127.1835346598770968
 30
0.0
 40
0.9799620303870309
 50
38.0124369562319231
 51
64.3590391148308498
  0
ARC
  5
2DFE9
  8
0
 10
3792.1138286326518028
 20
153.0384711144546941
 30
0.0
 40
42.2958932392165607
 50
216.6566829009640003
 51
217.3806624011025121
  0
ARC
  5
2DFEA
  8
0
 10
3752.9185308387259283
 20
123.3287967692291005
 30
0.0
 40
6.8889913986609956
 50
24.4346496640405206
 51
35.8178864190654096
  0
ARC
  5
2DFEB
  8
0
 10
3748.895552967886033
 20
121.4885322464117934
 30
0.0
 40
11.3128863477184503
 50
9.8820717195969348
 51
24.4919485860919295
  0
ARC
  5
2DFEC
  8
0
 10
3745.3486831867448927
 20
120.6256574221743989
 30
0.0
 40
14.9571662351354409
 50
357.9458046487508227
 51
10.8066625828295706
  0
ARC
  5
2DFED
  8
0
 10
3746.8564283145210538
 20
120.7418193537773021
 30
0.0
 40
13.4556294439550896
 50
350.1751193828566784
 51
357.2213412802076959
  0
ARC
  5
2DFEE
  8
0
 10
3746.6037595336620143
 20
120.7581764917108984
 30
0.0
 40
13.7074102832355695
 50
330.7025889237046954
 51
350.2879666522065918
  0
ARC
  5
2DFEF
  8
0
 10
3751.242919853903004
 20
118.1070365474196961
 30
0.0
 40
8.3644265627480401
 50
321.9284478066791166
 51
330.9895713046822721
  0
ARC
  5
2DFF0
  8
0
 10
3752.2512772792351825
 20
117.1922552388160028
 30
0.0
 40
7.0072008739408753
 50
307.3666434424296767
 51
322.7326933086739018
  0
ARC
  5
2DFF1
  8
0
 10
3753.3213622536350158
 20
115.7317558679173004
 30
0.0
 40
5.1971180186432866
 50
270.5600166766711254
 51
307.7627250745633205
  0
ARC
  5
2DFF2
  8
0
 10
3753.3772856341038278
 20
115.119398188763995
 30
0.0
 40
4.8664732315148669
 50
269.9396363176911109
 51
299.3574267604025181
  0
ARC
  5
2DFF3
  8
0
 10
3751.6214319103069101
 20
117.8306410005136939
 30
0.0
 40
8.0928574510482232
 50
300.7817458815150076
 51
331.4210178564017042
  0
ARC
  5
2DFF4
  8
0
 10
3757.2011402941539018
 20
127.0579094327575973
 30
0.0
 40
1.376828174841775
 50
38.2532198394357721
 51
65.1888659774694759
  0
ARC
  5
2DFF5
  8
0
 10
3757.1235980234241651
 20
126.8705074065683931
 30
0.0
 40
1.5794927492994151
 50
65.488294825078853
 51
91.1754486492112051
  0
ARC
  5
2DFF6
  8
0
 10
3750.6700084292360771
 20
122.1996811365352045
 30
0.0
 40
9.5162694491179671
 50
31.6281636403865782
 51
36.8767720820796825
  0
ARC
  5
2DFF7
  8
0
 10
3748.0533268764961576
 20
120.7487611166228021
 30
0.0
 40
12.5059104538745007
 50
28.3095491904016612
 51
31.0014675613725608
  0
ARC
  5
2DFF8
  8
0
 10
3753.573005855905194
 20
123.6600230922212944
 30
0.0
 40
6.2660096350303931
 50
24.7990213014431902
 51
28.8083964566154904
  0
ARC
  5
2DFF9
  8
0
 10
3750.6708593799257869
 20
122.123200508752106
 30
0.0
 40
9.5467897634254761
 50
22.3285887365840203
 51
25.866388575409939
  0
ARC
  5
2DFFA
  8
0
 10
3748.5122211643119954
 20
121.3158083726653018
 30
0.0
 40
11.8505427451626701
 50
14.1965234455031695
 51
21.9745239297090116
  0
ARC
  5
2DFFB
  8
0
 10
3745.198647148031796
 20
120.5815881926237978
 30
0.0
 40
15.2433210547588995
 50
8.33359997315954
 51
13.8174435929967796
  0
ARC
  5
2DFFC
  8
0
 10
3744.2432073487539128
 20
120.3861461993178068
 30
0.0
 40
16.2170919303640595
 50
3.3620289578008862
 51
8.5275656078861832
  0
ARC
  5
2DFFD
  8
0
 10
3746.987891708080042
 20
120.5466821657474981
 30
0.0
 40
13.4677168312271593
 50
358.0719053303072883
 51
3.3650146959654759
  0
ARC
  5
2DFFE
  8
0
 10
3747.5778945356059921
 20
120.6029629388648061
 30
0.0
 40
12.8801664326725795
 50
349.8376690579402748
 51
357.7333835341689792
  0
ARC
  5
2DFFF
  8
0
 10
3746.4014524376220834
 20
120.7201256424584983
 30
0.0
 40
14.0591268226985004
 50
331.2565968790220268
 51
350.2135979495160996
  0
ARC
  5
2E000
  8
0
 10
3745.9142327688109617
 20
119.5061846614905932
 30
0.0
 40
14.9948153529026502
 50
4.8564488638620791
 51
12.2955937614110002
  0
ARC
  5
2E001
  8
0
 10
3756.6458090705227733
 20
121.8324875614464986
 30
0.0
 40
4.0140211924011151
 50
12.4726394961565408
 51
19.7716172904716103
  0
ARC
  5
2E002
  8
0
 10
3749.3453221619952274
 20
119.5171721482180942
 30
0.0
 40
11.6709605662911304
 50
18.3442260013408109
 51
22.0222884556227605
  0
ARC
  5
2E003
  8
0
 10
3728.1900924506908268
 20
115.3067830373861966
 30
0.0
 40
33.1075295559090321
 50
15.03181817171291
 51
16.990534590060971
  0
ARC
  5
2E004
  8
0
 10
3922.2266157358358214
 20
175.845712796333288
 30
0.0
 40
170.1544022505013913
 50
196.2075316142866939
 51
197.3934183670114919
  0
ARC
  5
2E005
  8
0
 10
3775.8178530692239292
 20
133.3127609750889064
 30
0.0
 40
17.6926928330934601
 50
186.0510220513195065
 51
196.2809098494848001
  0
ARC
  5
2E006
  8
0
 10
3748.308131036812938
 20
120.4730534803838964
 30
0.0
 40
12.5507327696761308
 50
331.5956995640329978
 51
1.381478355434185
  0
ARC
  5
2E007
  8
0
 10
3753.3540180810468883
 20
115.4469407512927006
 30
0.0
 40
5.4322756709068054
 50
270.1280796006209926
 51
288.1472242664380019
  0
ARC
  5
2E008
  8
0
 10
3753.0567484757698367
 20
116.1005599560038064
 30
0.0
 40
6.1464774634875168
 50
288.8827952312462912
 51
313.350515571315384
  0
ARC
  5
2E009
  8
0
 10
3750.4395606684179256
 20
118.7465688580759036
 30
0.0
 40
9.8675454166236758
 50
313.8542706416524197
 51
334.5277330925985098
  0
ARC
  5
2E00A
  8
0
 10
3756.8645559631918331
 20
128.4096168077344942
 30
0.0
 40
0.0400516107785232
 50
90.0300975909292731
 51
170.2165385930445041
  0
ARC
  5
2E00B
  8
0
 10
3757.4711690774820454
 20
128.331052144653313
 30
0.0
 40
0.6533118687844759
 50
175.5852400903405908
 51
180.0537023342446048
  0
ARC
  5
2E00C
  8
0
 10
3767.2803224732761009
 20
126.8215451765262998
 30
0.0
 40
10.5761801433713902
 50
171.3267673194042118
 51
171.5189670338091901
  0
LINE
  5
2E00D
  8
0
 10
3757.0911962932991628
 20
128.4496677761871126
 30
0.0
 11
3756.8645349239991447
 21
128.4496684129871085
 31
0.0
  0
ARC
  5
2E00E
  8
0
 10
3768.2968157709551633
 20
128.1480708476865118
 30
0.0
 40
11.4804068535558592
 50
179.0898048029015968
 51
179.6263076581986979
  0
ARC
  5
2E00F
  8
0
 10
3757.065523287149972
 20
126.9669402672828937
 30
0.0
 40
1.4491729484250531
 50
37.7816503744810319
 51
88.9849163210867857
  0
ARC
  5
2E010
  8
0
 10
3747.854257304722978
 20
119.675126982780597
 30
0.0
 40
13.1973242212450899
 50
35.3692168175715835
 51
38.3028719610408928
  0
ARC
  5
2E011
  8
0
 10
3756.5266425703771347
 20
129.3589649785830886
 30
0.0
 40
0.0228159514967941
 50
201.4847016335774015
 51
266.2093434272550212
  0
ARC
  5
2E012
  8
0
 10
3756.5682011453141058
 20
129.1469628658680904
 30
0.0
 40
0.1914666943125112
 50
55.6779423487685534
 51
81.2405005739908432
  0
ARC
  5
2E013
  8
0
 10
3756.4733549806710471
 20
129.1226665749003928
 30
0.0
 40
0.2727786031252315
 50
11.3598637050554707
 51
41.9718943115214032
  0
ARC
  5
2E014
  8
0
 10
3756.3182074784858742
 20
129.0745778901618053
 30
0.0
 40
0.4346753241802867
 50
0.274781194772693
 51
13.5467872688673499
  0
LINE
  5
2E015
  8
0
 10
3756.5973590817998229
 20
129.3361963453870942
 30
0.0
 11
3755.6589547227590629
 21
129.3362300878540054
 31
0.0
  0
LINE
  5
2E016
  8
0
 10
3756.5054119762999107
 20
129.3506085727871096
 30
0.0
 11
3755.75071695529914
 21
129.350608554787101
 31
0.0
  0
ARC
  5
2E017
  8
0
 10
3755.7302030029059097
 20
129.358535514918799
 30
0.0
 40
0.0219922472639738
 50
278.7425080521359178
 51
338.8725714593105067
  0
ARC
  5
2E018
  8
0
 10
3755.7260875451970605
 20
129.3814391853981078
 30
0.0
 40
0.0452591337341036
 50
272.6265598051634242
 51
279.4849043654903085
  0
ARC
  5
2E019
  8
0
 10
3755.6786047173782208
 20
129.1706439346774005
 30
0.0
 40
0.166748002723613
 50
96.7676010400198692
 51
126.2647351198924071
  0
ARC
  5
2E01A
  8
0
 10
3755.6780142958918987
 20
129.1960878526643057
 30
0.0
 40
0.1466097392606788
 50
131.9699255985347861
 51
157.1309905196465877
  0
ARC
  5
2E01B
  8
0
 10
3755.9077336281261523
 20
129.0783464198742081
 30
0.0
 40
0.4044859926758905
 50
154.4086223631503003
 51
180.2385314658276059
  0
LINE
  5
2E01C
  8
0
 10
3756.7528778038999917
 20
129.0766625139870882
 30
0.0
 11
3756.7528778219998458
 21
128.3163031995871108
 31
0.0
  0
LINE
  5
2E01D
  8
0
 10
3755.5032511407080165
 20
129.0766624850529922
 30
0.0
 11
3755.5032511588001398
 21
128.316303171028494
 31
0.0
  0
LINE
  5
2E01E
  8
0
 10
3756.7546233405992098
 20
128.3163115566871113
 30
0.0
 11
3756.6369674577999831
 21
128.3163031980870983
 31
0.0
  0
LINE
  5
2E01F
  8
0
 10
3756.5030644907988062
 20
128.2979780432870882
 30
0.0
 11
3755.7508424309990005
 21
128.2979794414870867
 31
0.0
  0
ARC
  5
2E020
  8
0
 10
3758.6991192054488238
 20
116.0596011629613997
 30
0.0
 40
12.4289667554544003
 50
99.5503915246601849
 51
99.954524208386303
  0
ARC
  5
2E021
  8
0
 10
3756.5037264171251081
 20
128.6153384857481115
 30
0.0
 40
0.3173611327581328
 50
269.8804969847986968
 51
278.4876068020515163
  0
ARC
  5
2E022
  8
0
 10
3756.6933118324941461
 20
127.9423329254388051
 30
0.0
 40
0.3781910276360425
 50
92.5996109573756456
 51
98.5680467471650559
  0
ARC
  5
2E023
  8
0
 10
3756.6926206668099439
 20
128.2209213461271133
 30
0.0
 40
0.0992040867356404
 50
74.0559425423902979
 51
87.1199632507138944
  0
ARC
  5
2E024
  8
0
 10
3756.6855923048760815
 20
128.1146236651246113
 30
0.0
 40
0.2057274934197136
 50
86.6524730639302163
 51
92.6282608224998967
  0
ARC
  5
2E025
  8
0
 10
3756.7529277225730766
 20
128.2950257189515071
 30
0.0
 40
0.0221491728267316
 50
7.7189807523498208
 51
42.2694675430510785
  0
ARC
  5
2E026
  8
0
 10
3756.7546137471631482
 20
128.2961940892803057
 30
0.0
 40
0.0201174696942328
 50
43.0369547001029673
 51
89.9726773070154877
  0
ARC
  5
2E027
  8
0
 10
3755.9464136975511792
 20
128.2205049296192101
 30
0.0
 40
0.8320791442485065
 50
1.852335041584799
 51
5.3439908728500933
  0
LINE
  5
2E028
  8
0
 10
3756.7780644926001514
 20
128.2472401746871071
 30
0.0
 11
3756.7780644926001514
 21
128.2247718193848982
 31
0.0
  0
ARC
  5
2E029
  8
0
 10
3755.7530419349182012
 20
128.6254800473180921
 30
0.0
 40
0.3275079917149822
 50
261.1236192128700964
 51
269.6152056067716103
  0
ARC
  5
2E02A
  8
0
 10
3758.5510511607299122
 20
145.0228993117920879
 30
0.0
 40
16.9619047017801989
 50
260.04642100988832
 51
260.3320608206390148
  0
ARC
  5
2E02B
  8
0
 10
3755.5691022943487951
 20
128.1926984137359113
 30
0.0
 40
0.1278989041891322
 50
85.1254332879742179
 51
104.8889914145274957
  0
ARC
  5
2E02C
  8
0
 10
3755.56107908667218
 20
127.9242439914284972
 30
0.0
 40
0.3963412098322153
 50
81.570156301650286
 51
87.2679951318148142
  0
ARC
  5
2E02D
  8
0
 10
3755.5014775014810766
 20
128.2962526261950984
 30
0.0
 40
0.0200505721997858
 50
89.9052648214538834
 51
138.8250410562231139
  0
ARC
  5
2E02E
  8
0
 10
3755.5060468238339126
 20
128.2935500512948011
 30
0.0
 40
0.0252879477012164
 50
141.0324718699287132
 51
177.6965571972289979
  0
ARC
  5
2E02F
  8
0
 10
3755.9194961414900718
 20
128.2521282871989001
 30
0.0
 40
0.440764624289324
 50
174.4748321114574026
 51
177.2856929480437884
  0
LINE
  5
2E030
  8
0
 10
3755.6191820310000367
 20
128.3163031737871052
 30
0.0
 11
3755.5015106538999135
 21
128.316303170987112
 31
0.0
  0
LINE
  5
2E031
  8
0
 10
3755.3617169724648193
 20
128.4762769670549005
 30
0.0
 11
3754.9824930907911948
 21
128.4762555790630074
 31
0.0
  0
LINE
  5
2E032
  8
0
 10
3754.9435040797998226
 20
128.4604222109871046
 30
0.0
 11
3754.9405594690369981
 21
128.2874986267918871
 31
0.0
  0
ARC
  5
2E033
  8
0
 10
3754.9572993080741981
 20
128.4598771792529135
 30
0.0
 40
0.0137998400295029
 50
120.3394578105394999
 51
177.7402306279415996
  0
ARC
  5
2E034
  8
0
 10
3754.9660473996827932
 20
128.4438023878695958
 30
0.0
 40
0.0320970657205085
 50
92.9149570093814674
 51
119.3224268254147944
  0
ARC
  5
2E035
  8
0
 10
3754.977251438328949
 20
128.3034255243188966
 30
0.0
 40
0.1729095218412504
 50
88.262845345343564
 51
94.2573859056163741
  0
ARC
  5
2E036
  8
0
 10
3755.4017128208679424
 20
128.4420955732246057
 30
0.0
 40
0.0294167741156318
 50
0.6126892698281158
 51
39.6418125267958601
  0
ARC
  5
2E037
  8
0
 10
3755.3957542643847773
 20
128.4362295253021102
 30
0.0
 40
0.0377543884942027
 50
40.7279599912962809
 51
74.0603269557786206
  0
ARC
  5
2E038
  8
0
 10
3755.3664182818979498
 20
128.0552580627129942
 30
0.0
 40
0.421023757978613
 50
86.7671073608218677
 51
90.6395981908529365
  0
ARC
  5
2E039
  8
0
 10
3755.3842226034780651
 20
128.401927501468009
 30
0.0
 40
0.0739232530361522
 50
72.7673301884578336
 51
85.3917456305870957
  0
LINE
  5
2E03A
  8
0
 10
3755.4311279130988623
 20
128.4424101338871083
 30
0.0
 11
3755.433999060530823
 21
128.2743243250662886
 31
0.0
  0
LINE
  5
2E03B
  8
0
 10
3757.0911962925251828
 20
128.4158857911870939
 30
0.0
 11
3756.8594453453001734
 21
128.4158857971870873
 31
0.0
  0
ARC
  5
2E03C
  8
0
 10
3756.8593681519428173
 20
128.3759474079539871
 30
0.0
 40
0.0399384638330736
 50
89.8892582268957057
 51
172.2380599253316973
  0
ARC
  5
2E03D
  8
0
 10
3752.1995303380749647
 20
122.9149589088536061
 30
0.0
 40
7.7796960482129771
 50
25.0196863706656387
 51
34.4364000418181888
  0
ARC
  5
2E03E
  8
0
 10
3746.3254326917240178
 20
120.6559639502270045
 30
0.0
 40
14.0647794164835709
 50
357.7092553414972258
 51
23.2379128450580907
  0
ARC
  5
2E03F
  8
0
 10
3747.4053078977208315
 20
120.6753298428936034
 30
0.0
 40
12.9866916988960703
 50
349.8439311273871795
 51
357.4334521959394806
  0
ARC
  5
2E040
  8
0
 10
3746.1892465187479502
 20
120.8319514467829947
 30
0.0
 40
14.2114435895267999
 50
336.4339182215541086
 51
350.0868826681100927
  0
ARC
  5
2E041
  8
0
 10
3749.6630050553171714
 20
119.2380518508040979
 30
0.0
 40
10.3903970187164401
 50
320.3811517376786924
 51
336.8317036819285022
  0
ARC
  5
2E042
  8
0
 10
3753.3413467947211757
 20
115.2628530025649951
 30
0.0
 40
4.888953917864284
 50
270.3610992140817757
 51
298.3394877259892155
  0
ARC
  5
2E043
  8
0
 10
3752.3113567845862235
 20
117.0668523867937978
 30
0.0
 40
6.965856593439665
 50
298.7523715370692798
 51
320.2469853956736756
  0
ENDSEC
  0
EOF
