  0
SECTION
  2
HEADER
  9
$ACADVER
  1
AC1009
  9
$INSBASE
 10
3772.66753012729896
 20
111.7309978064862008
 30
0.0
  9
$EXTMIN
 10
3722.0934609294959046
 20
98.2831083605766054
 30
0.0
  9
$EXTMAX
 10
3793.7390113238839149
 20
141.2588329176861919
 30
0.0
  9
$LIMMIN
 10
0.0
 20
0.0
  9
$LIMMAX
 10
11.6929133858000007
 20
8.2677165353999982
  9
$ORTHOMODE
 70
     0
  9
$REGENMODE
 70
     1
  9
$FILLMODE
 70
     1
  9
$QTEXTMODE
 70
     0
  9
$MIRRTEXT
 70
     0
  9
$DRAGMODE
 70
     2
  9
$LTSCALE
 40
0.6431102362
  9
$OSMODE
 70
  4095
  9
$ATTMODE
 70
     1
  9
$TEXTSIZE
 40
0.2
  9
$TRACEWID
 40
0.05
  9
$TEXTSTYLE
  7
STANDARD
  9
$CLAYER
  8
0
  9
$CELTYPE
  6
BYLAYER
  9
$CECOLOR
 62
   256
  9
$DIMSCALE
 40
1.0
  9
$DIMASZ
 40
0.1875
  9
$DIMEXO
 40
0.0625
  9
$DIMDLI
 40
0.4443307087
  9
$DIMRND
 40
0.0
  9
$DIMDLE
 40
0.0
  9
$DIMEXE
 40
0.125
  9
$DIMTP
 40
0.01
  9
$DIMTM
 40
0.01
  9
$DIMTXT
 40
2.0
  9
$DIMCEN
 40
0.1052362205
  9
$DIMTSZ
 40
0.0
  9
$DIMTOL
 70
     1
  9
$DIMLIM
 70
     0
  9
$DIMTIH
 70
     1
  9
$DIMTOH
 70
     1
  9
$DIMSE1
 70
     0
  9
$DIMSE2
 70
     0
  9
$DIMTAD
 70
     0
  9
$DIMZIN
 70
     0
  9
$DIMBLK
  1

  9
$DIMASO
 70
     1
  9
$DIMSHO
 70
     1
  9
$DIMPOST
  1
\X
  9
$DIMAPOST
  1

  9
$DIMALT
 70
     1
  9
$DIMALTD
 70
     2
  9
$DIMALTF
 40
25.3999999999999986
  9
$DIMLFAC
 40
1.0
  9
$DIMTOFL
 70
     0
  9
$DIMTVP
 40
0.0
  9
$DIMTIX
 70
     0
  9
$DIMSOXD
 70
     0
  9
$DIMSAH
 70
     0
  9
$DIMBLK1
  1

  9
$DIMBLK2
  1

  9
$DIMSTYLE
  2
STANDARD
  9
$DIMCLRD
 70
     0
  9
$DIMCLRE
 70
     0
  9
$DIMCLRT
 70
     0
  9
$DIMTFAC
 40
1.0
  9
$DIMGAP
 40
0.09
  9
$LUNITS
 70
     2
  9
$LUPREC
 70
     4
  9
$SKETCHINC
 40
0.1
  9
$FILLETRAD
 40
0.0
  9
$AUNITS
 70
     0
  9
$AUPREC
 70
     0
  9
$MENU
  1
.
  9
$ELEVATION
 40
0.0
  9
$PELEVATION
 40
0.0
  9
$THICKNESS
 40
0.0
  9
$LIMCHECK
 70
     0
  9
$BLIPMODE
 70
     0
  9
$CHAMFERA
 40
0.0
  9
$CHAMFERB
 40
0.0
  9
$SKPOLY
 70
     0
  9
$TDCREATE
 40
2458060.468368056230247
  9
$TDUPDATE
 40
2459306.7294791671447456
  9
$TDINDWG
 40
0.6484445602
  9
$TDUSRTIMER
 40
0.6484445602
  9
$USRTIMER
 70
     1
  9
$ANGBASE
 50
0.0
  9
$ANGDIR
 70
     0
  9
$PDMODE
 70
     0
  9
$PDSIZE
 40
0.3125
  9
$PLINEWID
 40
0.0
  9
$COORDS
 70
     1
  9
$SPLFRAME
 70
     0
  9
$SPLINETYPE
 70
     6
  9
$SPLINESEGS
 70
     8
  9
$ATTDIA
 70
     1
  9
$ATTREQ
 70
     1
  9
$HANDLING
 70
     1
  9
$HANDSEED
  5
2E114
  9
$SURFTAB1
 70
     6
  9
$SURFTAB2
 70
     6
  9
$SURFTYPE
 70
     6
  9
$SURFU
 70
     6
  9
$SURFV
 70
     6
  9
$UCSNAME
  2

  9
$UCSORG
 10
0.0
 20
0.0
 30
0.0
  9
$UCSXDIR
 10
1.0
 20
0.0
 30
0.0
  9
$UCSYDIR
 10
0.0
 20
1.0
 30
0.0
  9
$PUCSNAME
  2

  9
$PUCSORG
 10
0.0
 20
0.0
 30
0.0
  9
$PUCSXDIR
 10
1.0
 20
0.0
 30
0.0
  9
$PUCSYDIR
 10
0.0
 20
1.0
 30
0.0
  9
$USERI1
 70
     0
  9
$USERI2
 70
     0
  9
$USERI3
 70
     0
  9
$USERI4
 70
     0
  9
$USERI5
 70
     0
  9
$USERR1
 40
0.0
  9
$USERR2
 40
0.0
  9
$USERR3
 40
0.0
  9
$USERR4
 40
0.0
  9
$USERR5
 40
0.0
  9
$WORLDVIEW
 70
     1
  9
$SHADEDGE
 70
     3
  9
$SHADEDIF
 70
    70
  9
$TILEMODE
 70
     1
  9
$MAXACTVP
 70
    64
  9
$PLIMCHECK
 70
     0
  9
$PEXTMIN
 10
1.0000000000000000E+20
 20
1.0000000000000000E+20
 30
1.0000000000000000E+20
  9
$PEXTMAX
 10
-1.0000000000000000E+20
 20
-1.0000000000000000E+20
 30
-1.0000000000000000E+20
  9
$PLIMMIN
 10
0.0
 20
0.0
  9
$PLIMMAX
 10
12.0
 20
9.0
  9
$UNITMODE
 70
     0
  9
$VISRETAIN
 70
     1
  9
$PLINEGEN
 70
     0
  9
$PSLTSCALE
 70
     1
  0
ENDSEC
  0
SECTION
  2
TABLES
  0
TABLE
  2
VPORT
 70
     1
  0
VPORT
  2
*ACTIVE
 70
     0
 10
0.0
 20
0.0
 11
1.0
 21
1.0
 12
471.4355228120469974
 22
-78.4221897021314334
 13
0.0
 23
0.0
 14
1.0
 24
1.0
 15
0.0
 25
0.0
 16
0.0
 26
0.0
 36
96.5995694866707311
 17
3303.693115234375
 27
195.2615115758877096
 37
0.0
 40
117.4975429321492015
 41
2.0416666666666661
 42
50.0
 43
0.0
 44
0.0
 50
0.0
 51
0.0
 71
     0
 72
   100
 73
     1
 74
     1
 75
     0
 76
     0
 77
     0
 78
     0
  0
ENDTAB
  0
TABLE
  2
LTYPE
 70
     2
  0
LTYPE
  2
CONTINUOUS
 70
     0
  3
Solid line
 72
    65
 73
     0
 40
0.0
  0
LTYPE
  2
PHANTOM2
 70
     0
  3
___ _ _ ___ _ _ ___ _ _ ___ _ _
 72
    65
 73
     6
 40
1.25
 49
0.625
 49
-0.125
 49
0.125
 49
-0.125
 49
0.125
 49
-0.125
  0
ENDTAB
  0
TABLE
  2
LAYER
 70
     2
  0
LAYER
  2
0
 70
     0
 62
   255
  6
CONTINUOUS
  0
LAYER
  2
DEFPOINTS
 70
     0
 62
     7
  6
CONTINUOUS
  0
ENDTAB
  0
TABLE
  2
STYLE
 70
     1
  0
STYLE
  2
STANDARD
 70
     0
 40
0.0
 41
0.8
 50
0.0
 71
     0
 42
0.2
  3
txt
  4

  0
ENDTAB
  0
TABLE
  2
VIEW
 70
     0
  0
ENDTAB
  0
TABLE
  2
UCS
 70
     0
  0
ENDTAB
  0
TABLE
  2
APPID
 70
     9
  0
APPID
  2
ACAD
 70
     0
  0
APPID
  2
ACAD_MLEADERVER
 70
     0
  0
APPID
  2
ACAD_EXEMPT_FROM_CAD_STANDARDS
 70
     0
  0
APPID
  2
ACAD_NAV_VCDISPLAY
 70
     0
  0
APPID
  2
ACAECLAYERSTANDARD
 70
     0
  0
APPID
  2
ACCMTRANSPARENCY
 70
     0
  0
APPID
  2
ACAD_DSTYLE_DIMJAG
 70
     0
  0
APPID
  2
ACAD_DSTYLE_DIMTALN
 70
     0
  0
APPID
  2
ACDBATTR
 70
     0
  0
ENDTAB
  0
TABLE
  2
DIMSTYLE
 70
     1
  0
DIMSTYLE
  2
STANDARD
 70
     0
  3

  4

  5

  6

  7

 40
1.0
 41
0.1875
 42
0.0625
 43
0.38
 44
0.125
 45
0.0
 46
0.0
 47
0.01
 48
0.01
140
0.15625
141
0.09
142
0.0
143
25.3999999999999986
144
1.0
145
0.0
146
1.0
147
0.09
 71
     1
 72
     0
 73
     1
 74
     1
 75
     0
 76
     0
 77
     0
 78
     4
170
     0
171
     2
172
     0
173
     0
174
     0
175
     0
176
     0
177
     0
178
     0
  0
ENDTAB
  0
ENDSEC
  0
SECTION
  2
BLOCKS
  0
BLOCK
  8
0
  2
$MODEL_SPACE
 70
     0
 10
0.0
 20
0.0
 30
0.0
  3
$MODEL_SPACE
  1

  0
ENDBLK
  5
21
  8
0
  0
BLOCK
 67
     1
  8
0
  2
$PAPER_SPACE
 70
     0
 10
0.0
 20
0.0
 30
0.0
  3
$PAPER_SPACE
  1

  0
ENDBLK
  5
1D
 67
     1
  8
0
  0
BLOCK
  8
0
  2
_FILLED
 70
     0
 10
0.0
 20
0.0
 30
0.0
  3
_FILLED
  1

  0
SOLID
  5
27E58
  8
0
  6
BYBLOCK
 62
     0
 10
0.0
 20
0.0
 30
0.0
 11
-1.0
 21
0.1666666667
 31
0.0
 12
-1.0
 22
-0.1666666667
 32
0.0
 13
-1.0
 23
-0.1666666667
 33
0.0
  0
ENDBLK
  5
27E59
  8
0
  6
BYBLOCK
 62
     0
  0
BLOCK
  8
0
  2
A$CC23E797B
 70
     0
 10
0.0
 20
0.0
 30
0.0
  3
A$CC23E797B
  1

  0
LINE
  5
2B2F8
  8
0
 10
0.0
 20
27.9921259842999994
 30
0.0
 11
24.0159850394000003
 21
27.9921259842999994
 31
0.0
  0
LINE
  5
2B2F9
  8
0
 10
24.0159850394000003
 20
27.9921259842999994
 30
0.0
 11
24.0159850394000003
 21
0.0
 31
0.0
  0
LINE
  5
2B2FA
  8
0
 10
24.0159850394000003
 20
0.0
 30
0.0
 11
0.0000000000000009
 21
0.0
 31
0.0
  0
LINE
  5
2B2FB
  8
0
 10
0.0000000000000009
 20
0.0
 30
0.0
 11
0.0000000000000009
 21
27.9921259842999994
 31
0.0
  0
LINE
  5
2B2FC
  8
0
 10
1.2598425197000001
 20
27.9921259842999994
 30
0.0
 11
1.2598425197000001
 21
0.0
 31
0.0
  0
LINE
  5
2B2FD
  8
0
 10
22.7561425196999991
 20
27.9921259842999994
 30
0.0
 11
22.7561425196999991
 21
0.0
 31
0.0
  0
LINE
  5
2B2FE
  8
0
 10
1.2598425197000001
 20
26.7322859842999989
 30
0.0
 11
22.7561425196999991
 21
26.7322859842999989
 31
0.0
  0
LINE
  5
2B2FF
  8
0
 10
1.3578425196999999
 20
26.6342859842999999
 30
0.0
 11
11.9483937008000005
 21
26.6342859842999999
 31
0.0
  0
LINE
  5
2B300
  8
0
 10
11.9483937008000005
 20
26.6342859842999999
 30
0.0
 11
11.9483937008000005
 21
8.6009043621999979
 31
0.0
  0
LINE
  5
2B301
  8
0
 10
11.9483937008000005
 20
8.6009043621999979
 30
0.0
 11
1.3578425196999999
 21
8.6009043621999979
 31
0.0
  0
LINE
  5
2B302
  8
0
 10
1.3578425196999999
 20
8.6009043621999979
 30
0.0
 11
1.3578425196999999
 21
26.6342859842999999
 31
0.0
  0
LINE
  5
2B303
  8
0
 10
1.2598425197000001
 20
25.1571259842999986
 30
0.0
 11
1.299661999999999
 21
25.1571259842999986
 31
0.0
  0
LINE
  5
2B304
  8
0
 10
1.299661999999999
 20
25.1571259842999986
 30
0.0
 11
1.299661999999999
 21
22.6374409448999998
 31
0.0
  0
LINE
  5
2B305
  8
0
 10
1.299661999999999
 20
22.6374409448999998
 30
0.0
 11
1.2598425197000001
 21
22.6374409448999998
 31
0.0
  0
LINE
  5
2B306
  8
0
 10
1.299661999999999
 20
23.3376747046999995
 30
0.0
 11
1.3551319398999999
 21
23.3376747046999995
 31
0.0
  0
LINE
  5
2B307
  8
0
 10
1.3551319398999999
 20
23.3376747046999995
 30
0.0
 11
1.3551319398999999
 21
23.1970497046999995
 31
0.0
  0
LINE
  5
2B308
  8
0
 10
1.3551319398999999
 20
23.1970497046999995
 30
0.0
 11
1.299661999999999
 21
23.1970497046999995
 31
0.0
  0
LINE
  5
2B309
  8
0
 10
1.299661999999999
 20
24.5975172244000007
 30
0.0
 11
1.3551319398999999
 21
24.5975172244000007
 31
0.0
  0
LINE
  5
2B30A
  8
0
 10
1.3551319398999999
 20
24.5975172244000007
 30
0.0
 11
1.3551319398999999
 21
24.4568922244000007
 31
0.0
  0
LINE
  5
2B30B
  8
0
 10
1.3551319398999999
 20
24.4568922244000007
 30
0.0
 11
1.2996619999999981
 21
24.4568922244000007
 31
0.0
  0
LINE
  5
2B30C
  8
0
 10
1.3578425196999999
 20
24.4689316536000092
 30
0.0
 11
11.9483937008000005
 21
24.4689316535999986
 31
0.0
  0
LINE
  5
2B30D
  8
0
 10
1.3578425196999999
 20
22.9728686613999891
 30
0.0
 11
11.9483937008000005
 21
22.9728686613999891
 31
0.0
  0
LINE
  5
2B30E
  8
0
 10
1.357842519699999
 20
18.2090891339000009
 30
0.0
 11
11.9483937008000005
 21
18.2090891339000009
 31
0.0
  0
LINE
  5
2B30F
  8
0
 10
1.357842519699999
 20
16.7130261418000003
 30
0.0
 11
11.9483937008000005
 21
16.7130261418000003
 31
0.0
  0
LINE
  5
2B310
  8
0
 10
1.2598425197000001
 20
16.2591259842999989
 30
0.0
 11
1.3578425196999999
 21
16.2591259842999989
 31
0.0
  0
LINE
  5
2B311
  8
0
 10
1.357842519699999
 20
14.5476718110000007
 30
0.0
 11
11.9483937008000005
 21
14.5476718110000007
 31
0.0
  0
LINE
  5
2B312
  8
0
 10
1.3578425196999999
 20
13.0516088189000001
 30
0.0
 11
11.9483937008000005
 21
13.0516088189000001
 31
0.0
  0
LINE
  5
2B313
  8
0
 10
1.2598425197000001
 20
12.5584409448999992
 30
0.0
 11
1.299661999999999
 21
12.5584409448999992
 31
0.0
  0
LINE
  5
2B314
  8
0
 10
1.299661999999999
 20
12.5584409448999992
 30
0.0
 11
1.299661999999999
 21
10.0387559055000004
 31
0.0
  0
LINE
  5
2B315
  8
0
 10
1.299661999999999
 20
10.0387559055000004
 30
0.0
 11
1.2598425197000001
 21
10.0387559055000004
 31
0.0
  0
LINE
  5
2B316
  8
0
 10
1.299661999999999
 20
10.7389896654000001
 30
0.0
 11
1.3551319398999999
 21
10.7389896654000001
 31
0.0
  0
LINE
  5
2B317
  8
0
 10
1.3551319398999999
 20
10.7389896654000001
 30
0.0
 11
1.3551319398999999
 21
10.5983646654000001
 31
0.0
  0
LINE
  5
2B318
  8
0
 10
1.3551319398999999
 20
10.5983646654000001
 30
0.0
 11
1.299661999999999
 21
10.5983646654000001
 31
0.0
  0
LINE
  5
2B319
  8
0
 10
1.299661999999999
 20
11.9988321850999995
 30
0.0
 11
1.3551319398999999
 21
11.9988321850999995
 31
0.0
  0
LINE
  5
2B31A
  8
0
 10
1.3551319398999999
 20
11.9988321850999995
 30
0.0
 11
1.3551319398999999
 21
11.8582071850999995
 31
0.0
  0
LINE
  5
2B31B
  8
0
 10
1.3551319398999999
 20
11.8582071850999995
 30
0.0
 11
1.299661999999999
 21
11.8582071850999995
 31
0.0
  0
LINE
  5
2B31C
  8
0
 10
1.2598425197000001
 20
15.6681259842999996
 30
0.0
 11
1.3578425196999999
 21
15.6681259842999996
 31
0.0
  0
LINE
  5
2B31D
  8
0
 10
12.0675913385999998
 20
8.6009043621999979
 30
0.0
 11
22.6581425197000002
 21
8.6009043621999979
 31
0.0
  0
LINE
  5
2B31E
  8
0
 10
22.6581425197000002
 20
8.6009043621999979
 30
0.0
 11
22.6581425197000002
 21
26.6342859842999999
 31
0.0
  0
LINE
  5
2B31F
  8
0
 10
22.6581425197000002
 20
26.6342859842999999
 30
0.0
 11
12.0675913385999998
 21
26.6342859842999999
 31
0.0
  0
LINE
  5
2B320
  8
0
 10
12.0675913385999998
 20
26.6342859842999999
 30
0.0
 11
12.0675913385999998
 21
8.6009043621999979
 31
0.0
  0
LINE
  5
2B321
  8
0
 10
12.0675913385999998
 20
13.0516088189000001
 30
0.0
 11
22.6581425197000002
 21
13.0516088189000001
 31
0.0
  0
LINE
  5
2B322
  8
0
 10
11.9483937008000005
 20
16.2591259842999989
 30
0.0
 11
12.0675913385999998
 21
16.2591259842999989
 31
0.0
  0
LINE
  5
2B323
  8
0
 10
11.9483937008000005
 20
15.6681259842999996
 30
0.0
 11
12.0675913385999998
 21
15.6681259842999996
 31
0.0
  0
LINE
  5
2B324
  8
0
 10
12.0675913385999998
 20
14.5476718110000007
 30
0.0
 11
22.6581425197000002
 21
14.5476718110000007
 31
0.0
  0
LINE
  5
2B325
  8
0
 10
12.0675913385999998
 20
16.7130261418000003
 30
0.0
 11
22.6581425197000002
 21
16.7130261418000003
 31
0.0
  0
LINE
  5
2B326
  8
0
 10
12.0675913385999998
 20
18.2090891339000009
 30
0.0
 11
22.6581425197000002
 21
18.2090891339000009
 31
0.0
  0
LINE
  5
2B327
  8
0
 10
12.0675913385999998
 20
22.9728686613999997
 30
0.0
 11
22.6581425197000002
 21
22.9728686613999891
 31
0.0
  0
LINE
  5
2B328
  8
0
 10
12.0675913385999998
 20
24.4689316535999986
 30
0.0
 11
22.6581425197000002
 21
24.4689316536000092
 31
0.0
  0
LINE
  5
2B329
  8
0
 10
22.7561425196999991
 20
25.1571259842999986
 30
0.0
 11
22.7163230393999989
 21
25.1571259842999986
 31
0.0
  0
LINE
  5
2B32A
  8
0
 10
22.7163230393999989
 20
25.1571259842999986
 30
0.0
 11
22.7163230393999989
 21
22.6374409448999998
 31
0.0
  0
LINE
  5
2B32B
  8
0
 10
22.7163230393999989
 20
22.6374409448999998
 30
0.0
 11
22.7561425196999991
 21
22.6374409448999998
 31
0.0
  0
LINE
  5
2B32C
  8
0
 10
22.6581425197000002
 20
16.2591259842999989
 30
0.0
 11
22.7561425196999991
 21
16.2591259842999989
 31
0.0
  0
LINE
  5
2B32D
  8
0
 10
22.6581425197000002
 20
15.6681259842999996
 30
0.0
 11
22.7561425196999991
 21
15.6681259842999996
 31
0.0
  0
LINE
  5
2B32E
  8
0
 10
22.7561425196999991
 20
12.5584409448999992
 30
0.0
 11
22.7163230393999989
 21
12.5584409448999992
 31
0.0
  0
LINE
  5
2B32F
  8
0
 10
22.7163230393999989
 20
12.5584409448999992
 30
0.0
 11
22.7163230393999989
 21
10.0387559055000004
 31
0.0
  0
LINE
  5
2B330
  8
0
 10
22.7163230393999989
 20
10.0387559055000004
 30
0.0
 11
22.7561425196999991
 21
10.0387559055000004
 31
0.0
  0
LINE
  5
2B331
  8
0
 10
1.2598425197000001
 20
8.5039279843000006
 30
0.0
 11
22.7561425196999991
 21
8.5039279843000006
 31
0.0
  0
LINE
  5
2B332
  8
0
 10
22.7561425196999991
 20
7.2440879842999983
 30
0.0
 11
1.2598425197000001
 21
7.2440879843000001
 31
0.0
  0
CIRCLE
  5
2B333
  8
0
 10
10.3342204725000002
 20
10.8262565905999999
 30
0.0
 40
0.4415145545999999
  0
CIRCLE
  5
2B334
  8
0
 10
13.6817645670000001
 20
10.8262565905999999
 30
0.0
 40
0.4415145546000004
  0
ENDBLK
  5
2B336
  8
0
  0
ENDSEC
  0
SECTION
  2
ENTITIES
  0
ATTDEF
  5
29A98
  8
DEFPOINTS
 10
3772.6685367939949174
 20
111.7349596682922055
 30
0.0
 40
0.001
  1
K-8699T
  3

  2
MODELNUMBER
 70
     0
1001
ACDBATTR
1070
     0
1070
     1
  0
ATTDEF
  5
29A99
  8
DEFPOINTS
 10
3772.6685367939949174
 20
111.7332930016255972
 30
0.0
 40
0.001
  1
ADAIR
  3

  2
TRADENAME
 70
     0
1001
ACDBATTR
1070
     0
1070
     1
  0
ATTDEF
  5
29A9A
  8
DEFPOINTS
 10
3772.6685367939949174
 20
111.7316263349589036
 30
0.0
 40
0.001
  1
TOILET
  3

  2
PRODUCT
 70
     0
1001
ACDBATTR
1070
     0
1070
     1
  0
ARC
  5
2DF6C
  8
0
 10
3745.6688528309300636
 20
126.8904705080090025
 30
0.0
 40
0.1948820948426244
 50
89.9985152843460554
 51
167.7835336877878945
  0
ARC
  5
2DF6D
  8
0
 10
3765.0429060532019321
 20
122.6524658887452972
 30
0.0
 40
20.0270429437887998
 50
167.6623002443980113
 51
172.7360631631987076
  0
LINE
  5
2DF6E
  8
0
 10
3745.6688578809439605
 20
127.0853526027862017
 30
0.0
 11
3771.765779995642788
 21
127.0853526027862017
 31
0.0
  0
LINE
  5
2DF6F
  8
0
 10
3758.8524463674439176
 20
125.982938101486198
 30
0.0
 11
3771.9316598348441403
 21
125.9829903980862014
 31
0.0
  0
LINE
  5
2DF70
  8
0
 10
3771.9316598348441403
 20
125.9829903980862014
 30
0.0
 11
3771.9321977601011895
 21
126.887690615149296
 31
0.0
  0
LINE
  5
2DF71
  8
0
 10
3748.1928192097439023
 20
120.8680230268862061
 30
0.0
 11
3746.9635143811437956
 21
111.7309978064862008
 31
0.0
  0
LINE
  5
2DF72
  8
0
 10
3746.9635143811437956
 20
111.7309978064862008
 30
0.0
 11
3771.2375301272991237
 21
111.7309978064862008
 31
0.0
  0
LINE
  5
2DF73
  8
0
 10
3771.2375301272991237
 20
111.7309978064862008
 30
0.0
 11
3770.9984770205442146
 21
118.5765833287861994
 31
0.0
  0
ARC
  5
2DF74
  8
0
 10
3756.4779385996780547
 20
124.5326289365716974
 30
0.0
 40
3.8922381396360848
 50
295.0145037226109821
 51
320.0071785045456068
  0
ARC
  5
2DF75
  8
0
 10
3783.9940677243221216
 20
134.6654471516800982
 30
0.0
 40
17.1415955861715403
 50
210.4319434477291964
 51
213.0146088214864903
  0
ARC
  5
2DF76
  8
0
 10
3771.142312441832928
 20
126.2735490007083001
 30
0.0
 40
1.792975109402372
 50
211.9102523260654891
 51
225.5909529867390972
  0
ARC
  5
2DF77
  8
0
 10
3770.5603687115240064
 20
125.7873362785296933
 30
0.0
 40
1.0411523006277661
 50
229.748268375012799
 51
259.030411387022184
  0
LINE
  5
2DF78
  8
0
 10
3771.0887603409278199
 20
125.9829870277934987
 30
0.0
 11
3770.7395677031440755
 21
124.7652075790861943
 31
0.0
  0
LINE
  5
2DF79
  8
0
 10
3770.7395677031440755
 20
124.7652075790861943
 30
0.0
 11
3745.5254040557438202
 21
124.7652075790861943
 31
0.0
  0
ARC
  5
2DF7A
  8
0
 10
-7050.6372587909681897
 20
-634.2178636140197341
 30
0.0
 40
10847.7877685768708034
 50
3.9793034402840868
 51
4.0068474983826858
  0
ARC
  5
2DF7B
  8
0
 10
3770.7876893033640044
 20
123.7888135055080028
 30
0.0
 40
0.1526840301018938
 50
164.9711963715797083
 51
183.7491280928875028
  0
ARC
  5
2DF7C
  8
0
 10
3770.5910260878608824
 20
124.5153197401734957
 30
0.0
 40
0.1999442532337045
 50
2.0052941132577802
 51
27.76890935884364
  0
ARC
  5
2DF7D
  8
0
 10
3054.2661726827518578
 20
99.4235592763291862
 30
0.0
 40
716.9641258701675497
 50
1.981948497613246
 51
2.0061627496725021
  0
ARC
  5
2DF7E
  8
0
 10
3770.0847107313152264
 20
124.3361319087493939
 30
0.0
 40
0.733555887353322
 50
333.9956150667268844
 51
345.2987333553019766
  0
ARC
  5
2DF7F
  8
0
 10
3770.5405710324989741
 20
124.2111503791020937
 30
0.0
 40
0.2609536016742306
 50
346.4409721009577083
 51
1.8330094659327829
  0
ARC
  5
2DF80
  8
0
 10
3769.6018831569108443
 20
124.5293776647819044
 30
0.0
 40
1.2528056123691951
 50
325.9772424375880746
 51
335.734195339052178
  0
ARC
  5
2DF81
  8
0
 10
3758.5642752229828147
 20
172.4822514487792944
 30
0.0
 40
50.6128077359160216
 50
279.7308712652862255
 51
280.8603197864555909
  0
ARC
  5
2DF82
  8
0
 10
3766.774796807878829
 20
131.4533305654512958
 30
0.0
 40
8.7780678481482095
 50
278.6863327145730977
 51
291.7024962649433064
  0
ARC
  5
2DF83
  8
0
 10
3769.3381972738948207
 20
124.720663690807001
 30
0.0
 40
1.5784196497723779
 50
295.6243283158502209
 51
325.5778467029517742
  0
ARC
  5
2DF84
  8
0
 10
3767.4684958109151012
 20
120.1567508458018949
 30
0.0
 40
2.4657943548580352
 50
98.1513381484746645
 51
106.3967536779379941
  0
ARC
  5
2DF85
  8
0
 10
3769.2477744051279842
 20
114.9506167275029043
 30
0.0
 40
7.9659972300726993
 50
108.1037302661653996
 51
113.462184243607993
  0
ARC
  5
2DF86
  8
0
 10
3770.243355872004031
 20
112.3468537605932056
 30
0.0
 40
10.7515817272043996
 50
112.8045535102253041
 51
115.8066660985677032
  0
ARC
  5
2DF87
  8
0
 10
3764.4526121110120584
 20
118.9664722260934013
 30
0.0
 40
3.2548767410936899
 50
30.7246146280995411
 51
70.0569103610516777
  0
ARC
  5
2DF88
  8
0
 10
3763.0658346092868669
 20
118.4797983358165965
 30
0.0
 40
4.704600410639185
 50
359.9814984135522877
 51
27.1885979093200589
  0
ARC
  5
2DF89
  8
0
 10
3766.4150302360872047
 20
274.7103015510786008
 30
0.0
 40
156.2379017492195885
 50
270.4970620627825042
 51
271.2456123587439265
  0
ARC
  5
2DF8A
  8
0
 10
3768.8190340290111635
 20
162.8697587565482081
 30
0.0
 40
44.371537155373737
 50
271.2814972158057003
 51
272.0888625482700718
  0
ARC
  5
2DF8B
  8
0
 10
3763.9540496678500858
 20
118.7862104446756035
 30
0.0
 40
4.6879290965864771
 50
1.089205344031237
 51
48.0606111782195882
  0
ARC
  5
2DF8C
  8
0
 10
3764.4289659803239374
 20
118.7522968344928955
 30
0.0
 40
5.350529556191626
 50
0.5907468504529687
 51
48.3975793903434095
  0
ARC
  5
2DF8D
  8
0
 10
3768.739712517784028
 20
118.8699557091589014
 30
0.0
 40
0.0987268487826609
 50
176.8832043578279922
 51
271.2884617467353223
  0
ARC
  5
2DF8E
  8
0
 10
3770.7422083189781006
 20
118.5545916153596977
 30
0.0
 40
0.2581742714676657
 50
9.0176111045199168
 51
89.6030037103559494
  0
LINE
  5
2DF8F
  8
0
 10
3770.7439971664039149
 20
118.8127596894370015
 30
0.0
 11
3769.5365972338299798
 21
118.8061302603317984
 31
0.0
  0
ARC
  5
2DF90
  8
0
 10
3770.0689562006691631
 20
129.3348802453919859
 30
0.0
 40
10.8134167822407594
 50
271.9470532356521062
 51
274.1137614371260725
  0
ARC
  5
2DF91
  8
0
 10
3770.7762395736131111
 20
119.6474505281213965
 30
0.0
 40
1.1002577769820381
 50
273.5662445530982154
 51
281.6655348146189226
  0
ARC
  5
2DF92
  8
0
 10
3768.6727839410518754
 20
129.4175281983526133
 30
0.0
 40
10.6464989364491096
 50
270.3721362207435277
 51
274.653860386615122
  0
ARC
  5
2DF93
  8
0
 10
3767.2178668510941861
 20
122.4242691660600997
 30
0.0
 40
0.1996358824886611
 50
119.7265658267246948
 51
229.1160450586183117
  0
LINE
  5
2DF94
  8
0
 10
3768.6687971854871648
 20
118.8012679641407061
 30
0.0
 11
3767.7704347746439453
 21
118.4782791563861934
 31
0.0
  0
LINE
  5
2DF95
  8
0
 10
3770.7395677031440755
 20
124.7652075790861943
 30
0.0
 11
3770.7394392525438889
 21
124.7243878578861995
 31
0.0
  0
ARC
  5
2DF96
  8
0
 10
3770.9894064522818553
 20
124.7243965286008063
 30
0.0
 40
0.2499671998885548
 50
180.0019874421658983
 51
207.6291364908728099
  0
ARC
  5
2DF97
  8
0
 10
3767.4409346385141362
 20
107.317793696248998
 30
0.0
 40
16.7385547521607307
 50
114.7718786525735055
 51
118.4770500013278962
  0
ARC
  5
2DF98
  8
0
 10
3765.7054438324012153
 20
111.5865004774647957
 30
0.0
 40
12.1373245925470403
 50
112.6407238176329031
 51
115.7765704392634944
  0
ARC
  5
2DF99
  8
0
 10
3609.9424809203242148
 20
504.093674157268822
 30
0.0
 40
410.1488047816870903
 50
291.6157522457435221
 51
291.7857171112200945
  0
ARC
  5
2DF9A
  8
0
 10
3770.9495602460001464
 20
101.4060108125590034
 30
0.0
 40
23.5338992615124099
 50
108.2137440010686049
 51
111.9212155948278991
  0
ARC
  5
2DF9B
  8
0
 10
3769.2388522552141694
 20
105.8942789045994033
 30
0.0
 40
18.7371194930626501
 50
96.3821000934369465
 51
107.5344792003496934
  0
ARC
  5
2DF9C
  8
0
 10
3770.3497644122307975
 20
97.1389659639918648
 30
0.0
 40
27.561970744890079
 50
93.0547701093264976
 51
96.6540087282355245
  0
ARC
  5
2DF9D
  8
0
 10
3769.7252588317242044
 20
112.1716197252649039
 30
0.0
 40
12.51865555165171
 50
87.2631351304216878
 51
93.8670936897740802
  0
ARC
  5
2DF9E
  8
0
 10
3769.5353285733422126
 20
117.9858414064988068
 30
0.0
 40
6.7363652259136089
 50
79.456659714504724
 51
83.2850248809763087
  0
ARC
  5
2DF9F
  8
0
 10
3759.730926068215922
 20
125.4619302798499945
 30
0.0
 40
2.7384076730182429
 50
328.8228916864372877
 51
345.2604116057968895
  0
ARC
  5
2DFA0
  8
0
 10
3769.3562028393348555
 20
105.7297010224204996
 30
0.0
 40
19.2033888624232389
 50
97.5817255333368365
 51
112.4440726366445062
  0
ARC
  5
2DFA1
  8
0
 10
3761.9663970765341219
 20
123.5895505504286973
 30
0.0
 40
0.1254419841208871
 50
153.6085538421110073
 51
297.6988021222941256
  0
ARC
  5
2DFA2
  8
0
 10
3720.5218378031117936
 20
146.675007217345609
 30
0.0
 40
47.3150820360561184
 50
330.8740820753391176
 51
331.4256980144485851
  0
ARC
  5
2DFA3
  8
0
 10
3755.4256501049499093
 20
127.5216588496298016
 30
0.0
 40
7.0526874793723584
 50
275.3480714092568178
 51
292.4926636395213109
  0
ARC
  5
2DFA4
  8
0
 10
3753.5927382049540029
 20
151.8467269886862141
 30
0.0
 40
31.4458140983448686
 50
260.1120804278460241
 51
274.5421372529427799
  0
ARC
  5
2DFA5
  8
0
 10
3747.821169899853885
 20
120.9180332403919067
 30
0.0
 40
0.3749989746599811
 50
352.3361486880065172
 51
62.610215322393131
  0
ARC
  5
2DFA6
  8
0
 10
3749.1357865825170848
 20
124.9165241643027997
 30
0.0
 40
3.6135520888165269
 50
182.3999480935061115
 51
206.8728524020006034
  0
ARC
  5
2DFA7
  8
0
 10
3750.0858398158661657
 20
125.4889962422662961
 30
0.0
 40
4.720473815491018
 50
207.8586813449034878
 51
234.1305552301058128
  0
ARC
  5
2DFA8
  8
0
 10
3750.3880341198960195
 20
125.9157842695413052
 30
0.0
 40
5.2433936829296668
 50
234.1872442563449965
 51
242.8294237830897089
  0
ARC
  5
2DFA9
  8
0
 10
3745.3278278145680815
 20
124.7680675810695021
 30
0.0
 40
0.1975969399777073
 50
359.1706766051224804
 51
86.1027185449940049
  0
ARC
  5
2DFAA
  8
0
 10
3745.3720422665519436
 20
125.1598114494208005
 30
0.0
 40
0.1970236860264506
 50
172.7456446174151949
 51
261.0109239651235953
  0
LINE
  5
2DFAB
  8
0
 10
3745.3412580740778139
 20
124.9652075790861971
 30
0.0
 11
3758.5970976993448858
 21
124.9652075790861971
 31
0.0
  0
LINE
  5
2DFAC
  8
0
 10
3758.0000081038438111
 20
125.3111004538861977
 30
0.0
 11
3758.8524463674439176
 21
125.982938101486198
 31
0.0
  0
ARC
  5
2DFAD
  8
0
 10
3757.4072211300222079
 20
125.7675761852823939
 30
0.0
 40
0.7481754404462072
 50
307.9875786265728834
 51
322.4019230075883229
  0
ARC
  5
2DFAE
  8
0
 10
3757.4706684876100553
 20
125.2794946920905943
 30
0.0
 40
0.4098378447864198
 50
309.9274967104710754
 51
345.6481858220312802
  0
ARC
  5
2DFAF
  8
0
 10
3759.835601287154077
 20
124.2847606725026992
 30
0.0
 40
2.2092886445889839
 50
162.0616390525655959
 51
167.4397112684594902
  0
ARC
  5
2DFB0
  8
0
 10
3762.691137286709818
 20
124.8993347690637989
 30
0.0
 40
0.4096204498833117
 50
164.556493122453702
 51
179.9992842015678889
  0
LINE
  5
2DFB1
  8
0
 10
3762.2963068060448677
 20
125.0084118266861992
 30
0.0
 11
3762.5650401005118511
 21
125.9829529461119932
 31
0.0
  0
LINE
  5
2DFB2
  8
0
 10
3762.2815168368588274
 20
124.8993398864682973
 30
0.0
 11
3762.2815164681442184
 21
124.7652075790861943
 31
0.0
  0
CIRCLE
  5
2DFB3
  8
0
 10
3765.0357307998660872
 20
112.9769982573878053
 30
0.0
 40
0.5293615010288343
  0
ARC
  5
2DFB4
  8
0
 10
3912.9628378237871402
 20
-30417.2399840903890436
 30
0.0
 40
30545.5807292164790852
 50
90.2927761301617551
 51
90.3072218252385142
  0
ARC
  5
2DFB5
  8
0
 10
3766.8867961329838181
 20
-1656.1009308755349139
 30
0.0
 40
1784.0709596302060618
 50
90.2788148966022845
 51
90.3214223789252912
  0
LINE
  5
2DFB6
  8
0
 10
3758.2051165888510695
 20
127.9489051537546942
 30
0.0
 11
3761.4068102291271316
 21
127.9656666919951959
 31
0.0
  0
ARC
  5
2DFB7
  8
0
 10
3761.3941501535909993
 20
130.7404861611910007
 30
0.0
 40
2.7748483323415392
 50
270.2616011063439032
 51
284.1746541092036864
  0
ARC
  5
2DFB8
  8
0
 10
3761.3991401140301605
 20
130.7506411654586032
 30
0.0
 40
2.783481858607403
 50
284.0238791701855803
 51
297.9778789234683813
  0
ARC
  5
2DFB9
  8
0
 10
3763.1515768591489177
 20
127.3996368135286019
 30
0.0
 40
0.9983072985901033
 50
90.6461171493438371
 51
116.5755454684554024
  0
ARC
  5
2DFBA
  8
0
 10
4879.531515067723376
 20
-13008.7167765729591338
 30
0.0
 40
13184.4647528302302817
 50
94.8565840552144408
 51
94.8573217234479102
  0
ARC
  5
2DFBB
  8
0
 10
3749.7101074570209676
 20
135.028191475455003
 30
0.0
 40
15.1485293418449807
 50
334.2835965600435202
 51
334.5198742430706034
  0
ARC
  5
2DFBC
  8
0
 10
3763.3078015938640419
 20
128.4265235192636112
 30
0.0
 40
0.0143663421122935
 50
276.6141184726128017
 51
319.6794368081642119
  0
ARC
  5
2DFBD
  8
0
 10
3763.3819608977291864
 20
128.3609918622213968
 30
0.0
 40
0.0846016570218049
 50
124.8491183458812941
 51
138.33977860189691
  0
ARC
  5
2DFBE
  8
0
 10
3763.2997168908918866
 20
128.4889694221915022
 30
0.0
 40
0.0676550277263343
 50
300.0720399559999123
 51
329.8478773373961985
  0
ARC
  5
2DFBF
  8
0
 10
3765.8929963116979707
 20
128.5587974438388983
 30
0.0
 40
2.5082371508034811
 50
176.5454343706830969
 51
181.0844892339854937
  0
ARC
  5
2DFC0
  8
0
 10
3763.4871131147810956
 20
128.7064140897709876
 30
0.0
 40
0.0978596317072073
 50
163.1771870752650955
 51
177.9373140227266958
  0
ARC
  5
2DFC1
  8
0
 10
3754.1527359341607735
 20
133.1875912398525088
 30
0.0
 40
10.2576098004876499
 50
334.2717939610138842
 51
335.2208566039058724
  0
ARC
  5
2DFC2
  8
0
 10
3763.3955197848467833
 20
128.9043979849307107
 30
0.0
 40
0.0700278938099939
 50
1.19577833000218
 51
89.1116712661347492
  0
LINE
  5
2DFC3
  8
0
 10
3763.4655324282512083
 20
128.9058593798158938
 30
0.0
 11
3763.4659286858441192
 21
128.8884053181861873
 31
0.0
  0
ARC
  5
2DFC4
  8
0
 10
3760.7509845092718024
 20
-46.0139771357197205
 30
0.0
 40
175.00839281082051
 50
89.1338204496058779
 51
90.9756839624638758
  0
ARC
  5
2DFC5
  8
0
 10
3760.7509130256507888
 20
-46.0055819728504218
 30
0.0
 40
174.9999976479367945
 50
90.9757073653988186
 51
93.4479770669681358
  0
ARC
  5
2DFC6
  8
0
 10
3760.7484658549910819
 20
-45.9687778314083175
 30
0.0
 40
174.9631129505478953
 50
93.447901991249978
 51
94.872677214376111
  0
ARC
  5
2DFC7
  8
0
 10
3745.9527949755001828
 20
128.1246944707316118
 30
0.0
 40
0.2463183600667361
 50
105.5440091851979929
 51
158.5922750333550937
  0
ARC
  5
2DFC8
  8
0
 10
3745.7739476627671138
 20
128.1171108909830991
 30
0.0
 40
0.0782524259524807
 50
169.0056712001351116
 51
255.2930134771127086
  0
ARC
  5
2DFC9
  8
0
 10
3746.3332803397879616
 20
127.9745822486222977
 30
0.0
 40
0.655344645643515
 50
158.5155623085649097
 51
166.0981856606551901
  0
ARC
  5
2DFCA
  8
0
 10
3748.2807102751899038
 20
152.34941339624541
 30
0.0
 40
24.4389345043680493
 50
264.0654836640055123
 51
268.6946019137299118
  0
ARC
  5
2DFCB
  8
0
 10
3748.8238221647661703
 20
163.6187992448028012
 30
0.0
 40
35.718915410050009
 50
268.2354514538110948
 51
270.5669008830352027
  0
ARC
  5
2DFCC
  8
0
 10
3762.929579834174092
 20
129.3921804598512892
 30
0.0
 40
0.8825044356143122
 50
268.5291745026908075
 51
287.203677496952821
  0
ARC
  5
2DFCD
  8
0
 10
3763.1249279022331393
 20
128.8031512777878902
 30
0.0
 40
0.2623436129876242
 50
284.4964159781151807
 51
330.4979091600980041
  0
ARC
  5
2DFCE
  8
0
 10
3751.435410189844788
 20
134.5872321734977959
 30
0.0
 40
13.3042037676727798
 50
333.6107868572909183
 51
334.7204017710411108
  0
ARC
  5
2DFCF
  8
0
 10
3745.5421266085400021
 20
699.6711057923156432
 30
0.0
 40
571.425054991245247
 50
270.0196865388639935
 51
271.7414060858728249
  0
ARC
  5
2DFD0
  8
0
 10
3756.9785835906100147
 20
127.9969439425205024
 30
0.0
 40
0.0937412168032184
 50
231.3739077497810115
 51
270.580662234574902
  0
ARC
  5
2DFD1
  8
0
 10
3757.417527438074103
 20
153.9699025363898102
 30
0.0
 40
26.0703745017835686
 50
269.0373602213064146
 51
271.414978843329493
  0
ARC
  5
2DFD2
  8
0
 10
3758.2065204056420953
 20
127.8975526995119054
 30
0.0
 40
0.0513716386572947
 50
91.5658988751068961
 51
105.5675135312392996
  0
ARC
  5
2DFD3
  8
0
 10
3758.1980053188967759
 20
127.9227264542281972
 30
0.0
 40
0.0248782622965732
 50
102.2337311836759994
 51
132.329909675033889
  0
ARC
  5
2DFD4
  8
0
 10
3758.1116986651650222
 20
128.0121805456684001
 30
0.0
 40
0.1012772181957861
 50
276.7316846657623159
 51
299.2941488934681047
  0
ARC
  5
2DFD5
  8
0
 10
3758.122554172774926
 20
127.9889020218028008
 30
0.0
 40
0.0756884671298867
 50
300.7498028074239187
 51
320.852490281724215
  0
ARC
  5
2DFD6
  8
0
 10
3757.9867654540821604
 20
129.9181197978645059
 30
0.0
 40
2.0120229930468172
 50
272.1228982570369226
 51
273.0872258414887028
  0
ARC
  5
2DFD7
  8
0
 10
3758.0752316961297765
 20
128.285765025357108
 30
0.0
 40
0.3772730384686425
 50
273.0226138479129077
 51
277.3613440594742769
  0
ARC
  5
2DFD8
  8
0
 10
3763.1842937202509347
 20
128.3192298125239006
 30
0.0
 40
0.2301411774610607
 50
164.7325430912678996
 51
180.4869881572722079
  0
ARC
  5
2DFD9
  8
0
 10
3763.1499007498969149
 20
127.4633276087252938
 30
0.0
 40
0.8760925190528422
 50
102.9102075173830002
 51
118.6695584736958011
  0
ARC
  5
2DFDA
  8
0
 10
3763.2296545401932235
 20
126.4671983090898948
 30
0.0
 40
1.8733495770278881
 50
89.172695558583257
 51
96.4308799397073813
  0
ARC
  5
2DFDB
  8
0
 10
3763.1309569436371021
 20
127.499967089753099
 30
0.0
 40
0.8362099125585505
 50
97.636770023927042
 51
102.2059025059866997
  0
ARC
  5
2DFDC
  8
0
 10
3763.2567031105450042
 20
127.9603526020873971
 30
0.0
 40
0.3799999999987559
 50
50.446231515298571
 51
89.9999798700351334
  0
ARC
  5
2DFDD
  8
0
 10
3763.3816978503459723
 20
128.0960192173714915
 30
0.0
 40
0.1960546817379918
 50
7.012897318018652
 51
53.3645486427661311
  0
ARC
  5
2DFDE
  8
0
 10
3762.8880538942498788
 20
128.0053565371738955
 30
0.0
 40
0.7500036383429931
 50
270.0019964422209
 51
299.1019403505108016
  0
ARC
  5
2DFDF
  8
0
 10
3763.5400687282581202
 20
127.8238856147936957
 30
0.0
 40
0.0699996829531479
 50
351.7365247431309854
 51
6.598539669101438
  0
ARC
  5
2DFE0
  8
0
 10
3763.3292031984351524
 20
127.8220519284224963
 30
0.0
 40
0.2802592278624802
 50
355.7997838268790929
 51
358.3178336968177859
  0
ARC
  5
2DFE1
  8
0
 10
3763.5407138966170351
 20
127.8087874767026051
 30
0.0
 40
0.0683825335637619
 50
343.2519340653140034
 51
353.9036427387152912
  0
ARC
  5
2DFE2
  8
0
 10
3762.8880515767691577
 20
128.0053537378269937
 30
0.0
 40
0.7500029532915526
 50
335.0926539074991979
 51
343.2401399001075788
  0
ARC
  5
2DFE3
  8
0
 10
3762.8881136061968391
 20
128.0052974914108859
 30
0.0
 40
0.7499230053350063
 50
299.1001482702885141
 51
335.0945556437621917
  0
LINE
  5
2DFE4
  8
0
 10
3763.5762857869449363
 20
128.1199560751861952
 30
0.0
 11
3763.6096047119449395
 21
127.8319294065861982
 31
0.0
  0
LINE
  5
2DFE5
  8
0
 10
3762.8880636146118377
 20
127.2553526021440007
 30
0.0
 11
3745.4785479700440192
 21
127.2553526020862051
 31
0.0
  0
LINE
  5
2DFE6
  8
0
 10
3745.413329187043928
 20
127.3469877288862051
 30
0.0
 11
3745.5344057339789288
 21
127.7196266876902939
 31
0.0
  0
ARC
  5
2DFE7
  8
0
 10
3761.3013005946759222
 20
130.9046779068740989
 30
0.0
 40
3.031492534612565
 50
269.9274627435009961
 51
286.5181476015449107
  0
ARC
  5
2DFE8
  8
0
 10
3761.3163856275441503
 20
130.8535789188100011
 30
0.0
 40
2.9782134545597261
 50
286.5194162690390272
 51
298.327695513880883
  0
LINE
  5
2DFE9
  8
0
 10
3762.8172525696068078
 20
128.340298671924387
 30
0.0
 11
3762.8264928572448298
 21
128.2775422222709096
 31
0.0
  0
ARC
  5
2DFEA
  8
0
 10
3756.5178064551150783
 20
809.4711680122566122
 30
0.0
 40
681.6147385002717556
 50
269.8944463624662262
 51
270.4017758981964903
  0
ARC
  5
2DFEB
  8
0
 10
3774.3498760967058843
 20
-23131.5245555313413206
 30
0.0
 40
23259.3899739162588958
 50
90.0470196909130465
 51
90.0618143363506078
  0
ARC
  5
2DFEC
  8
0
 10
3749.423102271145126
 20
-82.4638951765831933
 30
0.0
 40
210.3158434649704986
 50
90.0454770301074774
 51
90.4255912493426166
  0
ARC
  5
2DFED
  8
0
 10
3745.347757147737866
 20
294.678831494306678
 30
0.0
 40
166.8516129271565944
 50
270.1217054108838056
 51
270.8630288836474733
  0
ARC
  5
2DFEE
  8
0
 10
3745.7058153805492111
 20
127.6376078420268954
 30
0.0
 40
0.1900219934153051
 50
91.0972912282500431
 51
154.4290675178486936
  0
ARC
  5
2DFEF
  8
0
 10
3747.6942408462559797
 20
127.6930451385634058
 30
0.0
 40
0.2263055373020746
 50
42.5726057968873803
 51
81.1671126180415854
  0
ARC
  5
2DFF0
  8
0
 10
3748.4057994199438326
 20
127.1522827913244953
 30
0.0
 40
0.0669311601078744
 50
180.0009084628493952
 51
269.6912827159337098
  0
ARC
  5
2DFF1
  8
0
 10
3748.2614737250960388
 20
127.1698961159583945
 30
0.0
 40
0.0773950353378449
 50
0.1642175959072711
 51
57.571442216760758
  0
LINE
  5
2DFF2
  8
0
 10
3748.3388682598438209
 20
127.1522817300862016
 30
0.0
 11
3748.338868442544026
 21
127.1701179404861932
 31
0.0
  0
ARC
  5
2DFF3
  8
0
 10
3748.3257230389222059
 20
127.3747060976679961
 30
0.0
 40
0.1413263931759781
 50
237.6209455136159079
 51
260.7379861738942282
  0
ARC
  5
2DFF4
  8
0
 10
3747.7295537137069914
 20
138.2260687739278069
 30
0.0
 40
11.1209001334340698
 50
264.8184597400506846
 51
269.5165228568508837
  0
ARC
  5
2DFF5
  8
0
 10
3763.6771880494338802
 20
320.9298341055962851
 30
0.0
 40
194.5192945769813093
 50
264.6581699839903763
 51
265.000441048310222
  0
ARC
  5
2DFF6
  8
0
 10
3745.4811614227728569
 20
127.3252250506103991
 30
0.0
 40
0.0712378155880114
 50
162.2121530748686098
 51
212.1611579230805091
  0
ARC
  5
2DFF7
  8
0
 10
3745.4791469124411378
 20
127.324495683895293
 30
0.0
 40
0.0691456758883591
 50
212.5380855574327938
 51
269.5036956362287128
  0
ARC
  5
2DFF8
  8
0
 10
3749.4056722676168647
 20
127.1520279416458976
 30
0.0
 40
0.0664758338189641
 50
280.9225486482766883
 51
315.4009250609337869
  0
ARC
  5
2DFF9
  8
0
 10
3749.4101770575412047
 20
127.1195185777629035
 30
0.0
 40
0.0337465467207678
 50
273.4333024321894072
 51
283.8725572634726859
  0
LINE
  5
2DFFA
  8
0
 10
3749.4121980227278073
 20
127.0858325997409963
 30
0.0
 11
3749.3995257761648645
 21
127.0853526027862017
 31
0.0
  0
LINE
  5
2DFFB
  8
0
 10
3749.3149315343439412
 20
127.1901149088862013
 30
0.0
 11
3748.4240755800219631
 21
127.2553526020862051
 31
0.0
  0
ARC
  5
2DFFC
  8
0
 10
3760.0928492717130212
 20
130.2169054309657952
 30
0.0
 40
3.1115836687853591
 50
270.2550962300219908
 51
278.0320056907144135
  0
ARC
  5
2DFFD
  8
0
 10
3762.1045098257040991
 20
117.6130989241462999
 30
0.0
 40
9.6524242234613435
 50
94.1001748336649371
 51
99.4024016866693643
  0
LINE
  5
2DFFE
  8
0
 10
3760.1067028342440608
 20
127.1053526352861951
 30
0.0
 11
3749.4530055463437748
 21
127.1053524961861996
 31
0.0
  0
ARC
  5
2DFFF
  8
0
 10
3748.4688030588167749
 20
116.4520724024615959
 30
0.0
 40
10.7713272286604198
 50
83.5566800996622163
 51
85.4945581627156912
  0
ARC
  5
2E000
  8
0
 10
3751.1823612638750092
 20
139.6000189293098117
 30
0.0
 40
12.5353071446516608
 50
263.1053183764640835
 51
264.6088514119219894
  0
ARC
  5
2E001
  8
0
 10
3750.3441872414127829
 20
131.0023528478265007
 30
0.0
 40
3.8970139927828331
 50
265.0010701755844025
 51
269.8480241993349864
  0
ARC
  5
2E002
  8
0
 10
3749.5959825860509227
 20
126.9629018812465944
 30
0.0
 40
0.201828173405318
 50
129.7546985138878881
 51
135.1056726029466972
  0
ARC
  5
2E003
  8
0
 10
3749.5037528282027779
 20
127.0662580302043949
 30
0.0
 40
0.0635700859726387
 50
112.2286885150519993
 51
125.4163867722023014
  0
ARC
  5
2E004
  8
0
 10
3749.4138545487658121
 20
126.9512763967606048
 30
0.0
 40
0.2165473301058061
 50
64.518224855070784
 51
74.8448212792637264
  0
ARC
  5
2E005
  8
0
 10
3749.4668813051271172
 20
127.312809423911304
 30
0.0
 40
0.188143221343711
 50
273.9079571253959102
 51
283.2576708540967729
  0
ARC
  5
2E006
  8
0
 10
3749.4862211127269802
 20
127.1048701953063045
 30
0.0
 40
0.0467670306539532
 50
49.1408072807320124
 51
63.5958656539645517
  0
ARC
  5
2E007
  8
0
 10
3749.5053224856978886
 20
127.1481946992016958
 30
0.0
 40
0.0191029019347645
 50
284.2611254099281837
 51
311.7880381691513207
  0
ARC
  5
2E008
  8
0
 10
3749.5135468476801179
 20
127.1363322394552
 30
0.0
 40
0.0050958108400822
 50
332.1448846978848906
 51
50.0903457213317722
  0
ARC
  5
2E009
  8
0
 10
3749.1871673508189815
 20
126.1032710085466988
 30
0.0
 40
1.0943278075133069
 50
74.9963577384972666
 51
83.2953528835098638
  0
LINE
  5
2E00A
  8
0
 10
3747.6357136915580668
 20
127.1055645664714007
 30
0.0
 11
3748.3580780788979609
 21
127.1053524833968993
 31
0.0
  0
ARC
  5
2E00B
  8
0
 10
3755.3118776670139596
 20
127.1806046752068937
 30
0.0
 40
0.0747591521797173
 50
57.9187628447978327
 51
90.9929099589127475
  0
ARC
  5
2E00C
  8
0
 10
3755.4788840130117933
 20
127.1560407116384965
 30
0.0
 40
0.0528436231434546
 50
208.4499119223665105
 51
253.5788291548934126
  0
ARC
  5
2E00D
  8
0
 10
3754.1479726989859955
 20
126.4195962894753933
 30
0.0
 40
1.4682355485941929
 50
28.9757090777439608
 51
32.6574961232778591
  0
ARC
  5
2E00E
  8
0
 10
3755.2813594837020901
 20
127.1402334457249026
 30
0.0
 40
0.1252522499769731
 50
34.8908254655337302
 51
55.8983128526623219
  0
ARC
  5
2E00F
  8
0
 10
3638.4939768139402076
 20
136.9688465361242038
 30
0.0
 40
110.893557691595305
 50
355.2849778854929923
 51
355.3093354204002026
  0
LINE
  5
2E010
  8
0
 10
3749.012256233143944
 20
127.8534172144861998
 30
0.0
 11
3749.0119554726511524
 21
127.8515464122170044
 31
0.0
  0
ARC
  5
2E011
  8
0
 10
3758.27686017171618
 20
127.1845915551251949
 30
0.0
 40
0.0707636942844748
 50
90.4956028061598943
 51
167.1222180215879973
  0
ARC
  5
2E012
  8
0
 10
3758.1394997944607894
 20
127.2153527640704027
 30
0.0
 40
0.0700003698680813
 50
269.860363813982076
 51
347.6348584364044996
  0
ARC
  5
2E013
  8
0
 10
3757.5384539333149405
 20
127.2163248241404006
 30
0.0
 40
0.0709749052999566
 50
203.7523918796775035
 51
269.5017849855001941
  0
LINE
  5
2E014
  8
0
 10
3757.5378367793450707
 20
127.1453526020862057
 30
0.0
 11
3758.1393291959439011
 21
127.1453526020862057
 31
0.0
  0
ARC
  5
2E015
  8
0
 10
3757.4973046683448956
 20
127.3671255372127007
 30
0.0
 40
0.1682319850870117
 50
244.7590386828123883
 51
258.6764056190119163
  0
ARC
  5
2E016
  8
0
 10
3757.4060274948487859
 20
127.1548014594495015
 30
0.0
 40
0.0750738652915878
 50
26.0216786649328888
 51
39.1193224897868106
  0
ARC
  5
2E017
  8
0
 10
3757.4911610182280128
 20
126.9532236306056063
 30
0.0
 40
0.3012830240047879
 50
91.0784530429410495
 51
101.6920135390782036
  0
ARC
  5
2E018
  8
0
 10
3757.4458882325438935
 20
127.2585992216818056
 30
0.0
 40
0.0481427349996607
 50
223.4799495123698989
 51
245.0314243657518034
  0
ARC
  5
2E019
  8
0
 10
3757.4179803972738227
 20
127.2323783410217004
 30
0.0
 40
0.0101525531191402
 50
125.5564156115661945
 51
177.0993160764749916
  0
ARC
  5
2E01A
  8
0
 10
3757.4379238660999363
 20
127.2046068647761956
 30
0.0
 40
0.0443431297648846
 50
100.1548434233654064
 51
125.6541552265044004
  0
ARC
  5
2E01B
  8
0
 10
3757.4201483081728838
 20
127.2336942398747937
 30
0.0
 40
0.0123335675490976
 50
183.7289406932812881
 51
221.8083768563388105
  0
ARC
  5
2E01C
  8
0
 10
3761.919796902555845
 20
118.1938592532613939
 30
0.0
 40
9.0610672322518369
 50
90.8702615647865031
 51
93.1977055526355969
  0
ARC
  5
2E01D
  8
0
 10
3760.8350436628370517
 20
109.6272278506260989
 30
0.0
 40
17.6520811256427699
 50
86.6322145862459934
 51
86.924291328736345
  0
ARC
  5
2E01E
  8
0
 10
3761.7633688011442246
 20
125.8764580188637012
 30
0.0
 40
1.376660121601148
 50
82.4757910175710407
 51
85.4734192279225624
  0
ARC
  5
2E01F
  8
0
 10
3761.9695119082439305
 20
127.4372141034696
 30
0.0
 40
0.1976506915575411
 50
262.477302011648419
 51
270.1051862487432231
  0
LINE
  5
2E020
  8
0
 10
3761.9698747643437855
 20
127.2395637449861994
 30
0.0
 11
3762.1337551109299966
 21
127.239832733481407
 31
0.0
  0
ARC
  5
2E021
  8
0
 10
3762.1080945961798534
 20
128.8720670497044125
 30
0.0
 40
1.632450276682526
 50
270.9006784227872231
 51
274.9768899620050888
  0
ARC
  5
2E022
  8
0
 10
3762.103356991245164
 20
128.918798249692486
 30
0.0
 40
1.679416427074218
 50
274.9995988512325198
 51
277.9079926690374123
  0
ARC
  5
2E023
  8
0
 10
3762.1073532616251214
 20
128.8749917644595939
 30
0.0
 40
1.649169391940408
 50
271.7475884953365153
 51
277.7509732382745824
  0
LINE
  5
2E024
  8
0
 10
3762.3297733985441482
 20
127.2408898809862023
 30
0.0
 11
3762.3297733985441482
 21
127.2547113075776934
 31
0.0
  0
LINE
  5
2E025
  8
0
 10
3762.2482108793437874
 20
127.2318487959861955
 30
0.0
 11
3762.2482108793437874
 21
127.2456411113249004
 31
0.0
  0
LINE
  5
2E026
  8
0
 10
3762.1576483985440973
 20
127.2265894826985004
 30
0.0
 11
3762.1576483985440973
 21
127.2403690609477991
 31
0.0
  0
ARC
  5
2E027
  8
0
 10
3763.2572466986739528
 20
127.1484576873235
 30
0.0
 40
0.0631050993384628
 50
177.4687613899365886
 51
269.9607577111548267
  0
LINE
  5
2E028
  8
0
 10
3763.1942031716412203
 20
127.1512446658860966
 30
0.0
 11
3763.1942031716412203
 21
127.3206828357067053
 31
0.0
  0
LINE
  5
2E029
  8
0
 10
3764.2632755272929899
 20
127.0853526027862017
 30
0.0
 11
3763.5682967736720457
 21
127.6894884152033995
 31
0.0
  0
LINE
  5
2E02A
  8
0
 10
3763.5981957614089879
 20
127.9305544977329987
 30
0.0
 11
3764.4908097314441875
 21
127.1546170115861969
 31
0.0
  0
LINE
  5
2E02B
  8
0
 10
3764.4908097314441875
 20
127.1546170115861969
 30
0.0
 11
3764.4965963215431657
 21
127.1310620492862
 31
0.0
  0
LINE
  5
2E02C
  8
0
 10
3764.4501329707441073
 20
127.1078270336862062
 30
0.0
 11
3764.4852281464441148
 21
127.1102198667861956
 31
0.0
  0
LINE
  5
2E02D
  8
0
 10
3764.4852281464441148
 20
127.1102198667861956
 30
0.0
 11
3764.4878509499440042
 21
127.1121087891861947
 31
0.0
  0
LINE
  5
2E02E
  8
0
 10
3764.4878509499440042
 20
127.1121087891861947
 30
0.0
 11
3764.4995566573438737
 21
127.1110806928862047
 31
0.0
  0
LINE
  5
2E02F
  8
0
 10
3764.4995566573438737
 20
127.1110806928862047
 30
0.0
 11
3764.511008553443844
 21
127.124254592386194
 31
0.0
  0
LINE
  5
2E030
  8
0
 10
3764.4747845063570821
 20
127.1095078063053023
 30
0.0
 11
3764.495331909343804
 21
127.1293501940862001
 31
0.0
  0
LINE
  5
2E031
  8
0
 10
3764.495331909343804
 20
127.1293501940862001
 30
0.0
 11
3764.4965963215431657
 21
127.1310620492862
 31
0.0
  0
ARC
  5
2E032
  8
0
 10
3764.5217872487551176
 20
127.1657344000110044
 30
0.0
 40
0.0428573764777029
 50
234.0000109628689131
 51
255.4336170758855928
  0
ARC
  5
2E033
  8
0
 10
3764.2304657580839375
 20
127.1512007769103008
 30
0.0
 40
0.0276313449792096
 50
227.3524639700665944
 51
267.563736256618995
  0
LINE
  5
2E034
  8
0
 10
3764.2117458963439276
 20
127.130876948486204
 30
0.0
 11
3763.56853819955586
 21
127.6900088690105974
 31
0.0
  0
LINE
  5
2E035
  8
0
 10
3764.2292912028401588
 20
127.1235944072586932
 30
0.0
 11
3764.4501329700278802
 21
127.1078270337373937
 31
0.0
  0
LINE
  5
2E036
  8
0
 10
3764.4573598838242106
 20
127.1083197737642934
 30
0.0
 11
3764.4851335230441691
 21
127.1071290197861998
 31
0.0
  0
LINE
  5
2E037
  8
0
 10
3764.4851335230441691
 20
127.1071290197861998
 30
0.0
 11
3764.4895024329048283
 21
127.1010627085055944
 31
0.0
  0
LINE
  5
2E038
  8
0
 10
3764.4895024329048283
 20
127.1010627085055944
 30
0.0
 11
3764.4907525762441765
 21
127.1009527561862029
 31
0.0
  0
LINE
  5
2E039
  8
0
 10
3764.4907525762441765
 20
127.1009527561862029
 30
0.0
 11
3764.4771915697438089
 21
127.0853526027862017
 31
0.0
  0
LINE
  5
2E03A
  8
0
 10
3764.3404021443438978
 20
127.1156614526400972
 30
0.0
 11
3764.3404250496569148
 21
127.0853526027862017
 31
0.0
  0
LINE
  5
2E03B
  8
0
 10
3763.4472426354218442
 20
128.8481553318941906
 30
0.0
 11
3763.6366762379439024
 21
127.9623481001862046
 31
0.0
  0
LINE
  5
2E03C
  8
0
 10
3763.6366762379439024
 20
127.9623481001862046
 30
0.0
 11
3763.632018971342859
 21
127.9011764445740056
 31
0.0
  0
ARC
  5
2E03D
  8
0
 10
3758.1824863486831418
 20
92.8753287553383586
 30
0.0
 40
32.0925571666534566
 50
87.005320942129444
 51
89.2597616549536355
  0
ARC
  5
2E03E
  8
0
 10
3759.7935427928250647
 20
123.2816846434953959
 30
0.0
 40
1.643683447991038
 50
64.4966353927970459
 51
87.7140253502383587
  0
ARC
  5
2E03F
  8
0
 10
3767.070457529171108
 20
127.4863288883399974
 30
0.0
 40
0.4009775075965859
 50
183.0609029726053905
 51
269.8585441412303112
  0
ARC
  5
2E040
  8
0
 10
3771.7330775804189216
 20
126.8886119036173028
 30
0.0
 40
0.1991223109775548
 50
359.7349060012917903
 51
40.1628718348254665
  0
ARC
  5
2E041
  8
0
 10
3771.7359265906179644
 20
126.8880122118884941
 30
0.0
 40
0.197345190298598
 50
40.829432288162657
 51
89.6004061903109346
  0
ARC
  5
2E042
  8
0
 10
3771.7586542067060691
 20
127.4879370009018942
 30
0.0
 40
0.4069717719604039
 50
322.1239175757957014
 51
359.6197693039060255
  0
ARC
  5
2E043
  8
0
 10
3771.7654908215240539
 20
127.4853780757253929
 30
0.0
 40
0.4000255774596446
 50
270.0414184967622759
 51
294.3177602868004215
  0
ARC
  5
2E044
  8
0
 10
3771.7653213351350132
 20
127.4855420485802995
 30
0.0
 40
0.4002448053338344
 50
294.3302038058740209
 51
321.8085683582149841
  0
LINE
  5
2E045
  8
0
 10
3772.165507227443868
 20
127.485336307186202
 30
0.0
 11
3772.165507227443868
 21
141.0618329176861891
 31
0.0
  0
LINE
  5
2E046
  8
0
 10
3766.0213341676439995
 20
140.1445809491862065
 30
0.0
 11
3766.6700520802619394
 21
127.4649177210988
 31
0.0
  0
LINE
  5
2E047
  8
0
 10
3765.905788857243806
 20
141.2588329176861919
 30
0.0
 11
3771.9684907157438829
 21
141.2588329176861919
 31
0.0
  0
LINE
  5
2E048
  8
0
 10
3765.7677972070441683
 20
140.1445809491862065
 30
0.0
 11
3772.106463709144009
 21
140.1445809491862065
 31
0.0
  0
ARC
  5
2E049
  8
0
 10
3772.1062974417759506
 20
140.2039821154035053
 30
0.0
 40
0.059401468358637
 50
270.1827445079644008
 51
355.3958724790164183
  0
ARC
  5
2E04A
  8
0
 10
3771.9684790411370159
 20
141.0618047297087116
 30
0.0
 40
0.1970281883234176
 50
0.0081970613734035
 51
89.9966050253206049
  0
ARC
  5
2E04B
  8
0
 10
3765.768076874298913
 20
140.2038766624932862
 30
0.0
 40
0.0592963728263848
 50
180.2857374551635132
 51
269.7297674036295234
  0
ARC
  5
2E04C
  8
0
 10
3765.9063109283010817
 20
141.0613118040579934
 30
0.0
 40
0.197521803573973
 50
90.1514389926938833
 51
179.8488387325375015
  0
LINE
  5
2E04D
  8
0
 10
3765.7087888196438143
 20
141.0618329176861891
 30
0.0
 11
3765.7087812388440398
 21
140.203580949186204
 31
0.0
  0
ENDSEC
  0
EOF
