  0
SECTION
  2
HEADER
  9
$ACADVER
  1
AC1009
  9
$INSBASE
 10
4243.7283232844602026
 20
239.8468084533299987
 30
0.0
  9
$EXTMIN
 10
4233.0748475828986557
 20
221.6341703500428935
 30
0.0
  9
$EXTMAX
 10
4254.3817989860199305
 20
239.851592434908099
 30
0.0
  9
$LIMMIN
 10
0.0
 20
0.0
  9
$LIMMAX
 10
11.6929133858000007
 20
8.2677165353999982
  9
$ORTHOMODE
 70
     0
  9
$REGENMODE
 70
     1
  9
$FILLMODE
 70
     1
  9
$QTEXTMODE
 70
     0
  9
$MIRRTEXT
 70
     0
  9
$DRAGMODE
 70
     2
  9
$LTSCALE
 40
0.6431102362
  9
$OSMODE
 70
  3839
  9
$ATTMODE
 70
     1
  9
$TEXTSIZE
 40
0.2
  9
$TRACEWID
 40
0.05
  9
$TEXTSTYLE
  7
STANDARD
  9
$CLAYER
  8
0
  9
$CELTYPE
  6
BYLAYER
  9
$CECOLOR
 62
     1
  9
$DIMSCALE
 40
1.0
  9
$DIMASZ
 40
0.1875
  9
$DIMEXO
 40
0.0625
  9
$DIMDLI
 40
0.4443307087
  9
$DIMRND
 40
0.0
  9
$DIMDLE
 40
0.0
  9
$DIMEXE
 40
0.125
  9
$DIMTP
 40
0.01
  9
$DIMTM
 40
0.01
  9
$DIMTXT
 40
2.0
  9
$DIMCEN
 40
0.1052362205
  9
$DIMTSZ
 40
0.0
  9
$DIMTOL
 70
     1
  9
$DIMLIM
 70
     0
  9
$DIMTIH
 70
     1
  9
$DIMTOH
 70
     1
  9
$DIMSE1
 70
     0
  9
$DIMSE2
 70
     0
  9
$DIMTAD
 70
     0
  9
$DIMZIN
 70
     0
  9
$DIMBLK
  1

  9
$DIMASO
 70
     1
  9
$DIMSHO
 70
     1
  9
$DIMPOST
  1
\X
  9
$DIMAPOST
  1

  9
$DIMALT
 70
     1
  9
$DIMALTD
 70
     2
  9
$DIMALTF
 40
25.3999999999999986
  9
$DIMLFAC
 40
1.0
  9
$DIMTOFL
 70
     0
  9
$DIMTVP
 40
0.0
  9
$DIMTIX
 70
     0
  9
$DIMSOXD
 70
     0
  9
$DIMSAH
 70
     0
  9
$DIMBLK1
  1

  9
$DIMBLK2
  1

  9
$DIMSTYLE
  2
STANDARD
  9
$DIMCLRD
 70
     0
  9
$DIMCLRE
 70
     0
  9
$DIMCLRT
 70
     0
  9
$DIMTFAC
 40
1.0
  9
$DIMGAP
 40
0.09
  9
$LUNITS
 70
     2
  9
$LUPREC
 70
     4
  9
$SKETCHINC
 40
0.1
  9
$FILLETRAD
 40
0.0
  9
$AUNITS
 70
     0
  9
$AUPREC
 70
     0
  9
$MENU
  1
.
  9
$ELEVATION
 40
0.0
  9
$PELEVATION
 40
0.0
  9
$THICKNESS
 40
0.0
  9
$LIMCHECK
 70
     0
  9
$BLIPMODE
 70
     0
  9
$CHAMFERA
 40
0.0
  9
$CHAMFERB
 40
0.0
  9
$SKPOLY
 70
     0
  9
$TDCREATE
 40
2458060.468368056230247
  9
$TDUPDATE
 40
2459046.4393981480970979
  9
$TDINDWG
 40
0.5618357639
  9
$TDUSRTIMER
 40
0.5618357639
  9
$USRTIMER
 70
     1
  9
$ANGBASE
 50
0.0
  9
$ANGDIR
 70
     0
  9
$PDMODE
 70
     0
  9
$PDSIZE
 40
0.3125
  9
$PLINEWID
 40
0.0
  9
$COORDS
 70
     1
  9
$SPLFRAME
 70
     0
  9
$SPLINETYPE
 70
     6
  9
$SPLINESEGS
 70
     8
  9
$ATTDIA
 70
     1
  9
$ATTREQ
 70
     1
  9
$HANDLING
 70
     1
  9
$HANDSEED
  5
9776
  9
$SURFTAB1
 70
     6
  9
$SURFTAB2
 70
     6
  9
$SURFTYPE
 70
     6
  9
$SURFU
 70
     6
  9
$SURFV
 70
     6
  9
$UCSNAME
  2

  9
$UCSORG
 10
0.0
 20
0.0
 30
0.0
  9
$UCSXDIR
 10
1.0
 20
0.0
 30
0.0
  9
$UCSYDIR
 10
0.0
 20
1.0
 30
0.0
  9
$PUCSNAME
  2

  9
$PUCSORG
 10
0.0
 20
0.0
 30
0.0
  9
$PUCSXDIR
 10
1.0
 20
0.0
 30
0.0
  9
$PUCSYDIR
 10
0.0
 20
1.0
 30
0.0
  9
$USERI1
 70
     0
  9
$USERI2
 70
     0
  9
$USERI3
 70
     0
  9
$USERI4
 70
     0
  9
$USERI5
 70
     0
  9
$USERR1
 40
0.0
  9
$USERR2
 40
0.0
  9
$USERR3
 40
0.0
  9
$USERR4
 40
0.0
  9
$USERR5
 40
0.0
  9
$WORLDVIEW
 70
     1
  9
$SHADEDGE
 70
     3
  9
$SHADEDIF
 70
    70
  9
$TILEMODE
 70
     1
  9
$MAXACTVP
 70
    64
  9
$PLIMCHECK
 70
     0
  9
$PEXTMIN
 10
1.0000000000000000E+20
 20
1.0000000000000000E+20
 30
1.0000000000000000E+20
  9
$PEXTMAX
 10
-1.0000000000000000E+20
 20
-1.0000000000000000E+20
 30
-1.0000000000000000E+20
  9
$PLIMMIN
 10
0.0
 20
0.0
  9
$PLIMMAX
 10
12.0
 20
9.0
  9
$UNITMODE
 70
     0
  9
$VISRETAIN
 70
     1
  9
$PLINEGEN
 70
     0
  9
$PSLTSCALE
 70
     1
  0
ENDSEC
  0
SECTION
  2
TABLES
  0
TABLE
  2
VPORT
 70
     1
  0
VPORT
  2
*ACTIVE
 70
     0
 10
0.0
 20
0.0
 11
1.0
 21
1.0
 12
0.0
 22
0.0
 13
0.0
 23
0.0
 14
1.0
 24
1.0
 15
0.0
 25
0.0
 16
0.0
 26
0.0
 36
116.3817525504056931
 17
4243.728271484375
 27
230.7428814835672028
 37
0.0
 40
28.0333409176974513
 41
3.314341846758349
 42
50.0
 43
0.0
 44
0.0
 50
0.0
 51
0.0
 71
     0
 72
   100
 73
     1
 74
     1
 75
     0
 76
     0
 77
     0
 78
     0
  0
ENDTAB
  0
TABLE
  2
LTYPE
 70
     2
  0
LTYPE
  2
CONTINUOUS
 70
     0
  3
Solid line
 72
    65
 73
     0
 40
0.0
  0
LTYPE
  2
PHANTOM2
 70
     0
  3
___ _ _ ___ _ _ ___ _ _ ___ _ _
 72
    65
 73
     6
 40
1.25
 49
0.625
 49
-0.125
 49
0.125
 49
-0.125
 49
0.125
 49
-0.125
  0
ENDTAB
  0
TABLE
  2
LAYER
 70
     2
  0
LAYER
  2
0
 70
     0
 62
   255
  6
CONTINUOUS
  0
LAYER
  2
DEFPOINTS
 70
     0
 62
     7
  6
CONTINUOUS
  0
ENDTAB
  0
TABLE
  2
STYLE
 70
     1
  0
STYLE
  2
STANDARD
 70
     0
 40
0.0
 41
0.8
 50
0.0
 71
     0
 42
0.2
  3
txt
  4

  0
ENDTAB
  0
TABLE
  2
VIEW
 70
     0
  0
ENDTAB
  0
TABLE
  2
UCS
 70
     0
  0
ENDTAB
  0
TABLE
  2
APPID
 70
     9
  0
APPID
  2
ACAD
 70
     0
  0
APPID
  2
ACAD_MLEADERVER
 70
     0
  0
APPID
  2
ACAD_EXEMPT_FROM_CAD_STANDARDS
 70
     0
  0
APPID
  2
ACAD_NAV_VCDISPLAY
 70
     0
  0
APPID
  2
ACAECLAYERSTANDARD
 70
     0
  0
APPID
  2
ACCMTRANSPARENCY
 70
     0
  0
APPID
  2
ACAD_DSTYLE_DIMJAG
 70
     0
  0
APPID
  2
ACAD_DSTYLE_DIMTALN
 70
     0
  0
APPID
  2
ACDBATTR
 70
     0
  0
ENDTAB
  0
TABLE
  2
DIMSTYLE
 70
     1
  0
DIMSTYLE
  2
STANDARD
 70
     0
  3

  4

  5

  6

  7

 40
1.0
 41
0.1875
 42
0.0625
 43
0.38
 44
0.125
 45
0.0
 46
0.0
 47
0.01
 48
0.01
140
0.15625
141
0.09
142
0.0
143
25.3999999999999986
144
1.0
145
0.0
146
1.0
147
0.09
 71
     1
 72
     0
 73
     1
 74
     1
 75
     0
 76
     0
 77
     0
 78
     4
170
     0
171
     2
172
     0
173
     0
174
     0
175
     0
176
     0
177
     0
178
     0
  0
ENDTAB
  0
ENDSEC
  0
SECTION
  2
BLOCKS
  0
BLOCK
  8
0
  2
$MODEL_SPACE
 70
     0
 10
0.0
 20
0.0
 30
0.0
  3
$MODEL_SPACE
  1

  0
ENDBLK
  5
21
  8
0
  0
BLOCK
 67
     1
  8
0
  2
$PAPER_SPACE
 70
     0
 10
0.0
 20
0.0
 30
0.0
  3
$PAPER_SPACE
  1

  0
ENDBLK
  5
1D
 67
     1
  8
0
  0
BLOCK
  8
0
  2
_FILLED
 70
     0
 10
0.0
 20
0.0
 30
0.0
  3
_FILLED
  1

  0
SOLID
  5
6F59
  8
0
  6
BYBLOCK
 62
     0
 10
0.0
 20
0.0
 30
0.0
 11
-1.0
 21
0.1666666667
 31
0.0
 12
-1.0
 22
-0.1666666667
 32
0.0
 13
-1.0
 23
-0.1666666667
 33
0.0
  0
ENDBLK
  5
6F5A
  8
0
  6
BYBLOCK
 62
     0
  0
ENDSEC
  0
SECTION
  2
ENTITIES
  0
ATTDEF
  5
3930
  8
DEFPOINTS
 10
4243.7287776550801937
 20
239.850592434908009
 30
0.0
 40
0.001
  1
K-8700T-1
  3

  2
MODELNUMBER
 70
     0
1001
ACDBATTR
1070
     0
1070
     1
  0
ATTDEF
  5
3931
  8
DEFPOINTS
 10
4243.7287776550801937
 20
239.848925768241287
 30
0.0
 40
0.001
  1
SACRAMENTO
  3

  2
TRADENAME
 70
     0
1001
ACDBATTR
1070
     0
1070
     1
  0
ATTDEF
  5
3932
  8
DEFPOINTS
 10
4243.7287776550801937
 20
239.8472591015745934
 30
0.0
 40
0.001
  1
BATHROOM SINK
  3

  2
PRODUCT
 70
     0
1001
ACDBATTR
1070
     0
1070
     1
  0
CIRCLE
  5
95AD
  8
0
 10
4243.7283232844602026
 20
231.8541675854669961
 30
0.0
 40
0.9155124877421059
  0
CIRCLE
  5
95AE
  8
0
 10
4243.7283232844602026
 20
231.8541675854669961
 30
0.0
 40
1.445838337742112
  0
ARC
  5
95AF
  8
0
 10
4243.7026698633771957
 20
236.6020906599538876
 30
0.0
 40
2.1082805112917979
 50
257.4543565120263224
 51
270.6971885490622185
  0
ARC
  5
95B0
  8
0
 10
4243.2495616059950407
 20
234.5672077973796092
 30
0.0
 40
0.0235626758707271
 50
103.1920551056461051
 51
258.1298147690134215
  0
ARC
  5
95B1
  8
0
 10
4243.6774974089876196
 20
232.6745414479391911
 30
0.0
 40
1.964003902918211
 50
88.5170939367334881
 51
102.7458890114193935
  0
CIRCLE
  5
95B2
  8
0
 10
4243.7283232844602026
 20
237.0959352644248952
 30
0.0
 40
0.625
  0
LINE
  5
95B3
  8
0
 10
4234.1414938305979376
 20
239.8468084533299987
 30
0.0
 11
4253.315152738319739
 21
239.8468084533299987
 31
0.0
  0
ARC
  5
95B4
  8
0
 10
4243.7221774304571227
 20
234.607400058335088
 30
0.0
 40
12.9732311640407403
 50
270.0271429302559909
 51
282.9258927009607874
  0
ARC
  5
95B5
  8
0
 10
4243.7169437510319767
 20
234.5862597011976902
 30
0.0
 40
12.95380095383012
 50
282.9693714587439217
 51
301.5833896534272753
  0
ARC
  5
95B6
  8
0
 10
4246.2132005455123362
 20
230.3136878083047918
 30
0.0
 40
8.0074727832999262
 50
302.3791128307283884
 51
349.2310512334235
  0
ARC
  5
95B7
  8
0
 10
4222.2702006812432955
 20
231.5397325733796094
 30
0.0
 40
32.1977485176027187
 50
11.1450525039163004
 51
14.8440346384106192
  0
ARC
  5
95B8
  8
0
 10
4253.3147667173652735
 20
239.7646524631217062
 30
0.0
 40
0.0821568970889896
 50
16.8251959574655494
 51
89.7307900653106287
  0
ARC
  5
95B9
  8
0
 10
4243.7833441759348716
 20
234.0684290950802051
 30
0.0
 40
11.0316163744455196
 50
277.2006653967130205
 51
306.2149407217141857
  0
ARC
  5
95BA
  8
0
 10
4246.1231445666317086
 20
230.3635050110920872
 30
0.0
 40
6.6668743925204312
 50
308.8040470224735259
 51
343.0033059718653021
  0
ARC
  5
95BB
  8
0
 10
4248.2663156739354235
 20
229.8192578207006136
 30
0.0
 40
4.4594812496741243
 50
341.6411656992316921
 51
21.0228630954627818
  0
ARC
  5
95BC
  8
0
 10
4248.0528339671127469
 20
229.8087039468148873
 30
0.0
 40
4.6630166885065574
 50
20.2028664492029009
 51
73.2971757462507583
  0
ARC
  5
95BD
  8
0
 10
4245.6706704729031117
 20
216.3377039395923873
 30
0.0
 40
18.3194370041312986
 50
78.2763590260478139
 51
83.7878800261083967
  0
ARC
  5
95BE
  8
0
 10
4243.5837446555460701
 20
191.3265371869190119
 30
0.0
 40
43.4141632741531183
 50
84.6216975605186832
 51
89.809192209855766
  0
ARC
  5
95BF
  8
0
 10
4243.7539767055413904
 20
236.6020906599538876
 30
0.0
 40
2.1082805112917979
 50
269.3028114509377815
 51
282.5456434879737913
  0
ARC
  5
95C0
  8
0
 10
4244.2070849629235454
 20
234.5672077973796092
 30
0.0
 40
0.0235626758707271
 50
281.8701852309865217
 51
76.8079448943539234
  0
ARC
  5
95C1
  8
0
 10
4243.7791491599309666
 20
232.6745414479391911
 30
0.0
 40
1.964003902918211
 50
77.2541109885806208
 51
91.4829060632665261
  0
ARC
  5
95C2
  8
0
 10
4223.0328271594926264
 20
232.3581189500623054
 30
0.0
 40
30.7437096222258397
 50
0.9507933122089028
 51
11.6878925110253995
  0
ARC
  5
95C3
  8
0
 10
4252.4120235083173611
 20
238.4325657193182906
 30
0.0
 40
0.7431151148226145
 50
11.93086801905228
 51
89.9621257666151166
  0
ARC
  5
95C4
  8
0
 10
4269.5455758178268297
 20
4499.8340025201596291
 30
0.0
 40
4260.6927696465118061
 50
269.652819684319411
 51
269.7696020837004767
  0
ARC
  5
95C5
  8
0
 10
4252.4313291243615822
 20
238.4427525070819058
 30
0.0
 40
0.6647585698781638
 50
11.3679639178915792
 51
91.620390561195677
  0
ARC
  5
95C6
  8
0
 10
4224.9372391286879065
 20
232.2792228909098924
 30
0.0
 40
28.8410806711890189
 50
1.170286591024277
 51
12.6062552071498803
  0
POINT
  5
95C7
  8
DEFPOINTS
 10
4243.7283232844602026
 20
237.0959352644248952
 30
0.0
  0
ARC
  5
95C8
  8
0
 10
4230.712254568357821
 20
232.5948183736352917
 30
0.0
 40
23.6707276842090799
 50
350.8176194121166986
 51
359.4271051371114254
  0
ARC
  5
95C9
  8
0
 10
4223.4670413936473778
 20
232.1056444287013107
 30
0.0
 40
30.9157887095554216
 50
0.467953482899238
 51
10.5447665229513294
  0
ARC
  5
95CB
  8
0
 10
4271.28435239594819
 20
-2070.0607085630881556
 30
0.0
 40
2309.2450680993479182
 50
90.4682429511440347
 51
90.6837219930486924
  0
ARC
  5
95CC
  8
0
 10
4243.7344691384623729
 20
234.607400058335088
 30
0.0
 40
12.9732311640407403
 50
257.0741072990393263
 51
269.9728570697441228
  0
ARC
  5
95CD
  8
0
 10
4243.7397028178884284
 20
234.5862597011976902
 30
0.0
 40
12.95380095383012
 50
238.4166103465726962
 51
257.030628541256192
  0
ARC
  5
95CE
  8
0
 10
4241.2434460234071594
 20
230.3136878083047918
 30
0.0
 40
8.0074727832999262
 50
190.7689487665763863
 51
237.6208871692716116
  0
ARC
  5
95CF
  8
0
 10
4265.1864458876762001
 20
231.5397325733796094
 30
0.0
 40
32.1977485176027187
 50
165.1559653615894092
 51
168.854947496083696
  0
ARC
  5
95D0
  8
0
 10
4234.1418798515542221
 20
239.7646524631217062
 30
0.0
 40
0.0821568970889896
 50
90.2692099346893713
 51
163.1748040425345039
  0
ARC
  5
95D1
  8
0
 10
4243.6733023929837145
 20
234.0684290950802051
 30
0.0
 40
11.0316163744455196
 50
233.7850592782857007
 51
262.7993346032869795
  0
ARC
  5
95D2
  8
0
 10
4241.3335020022868775
 20
230.3635050110920872
 30
0.0
 40
6.6668743925204312
 50
196.9966940281346979
 51
231.1959529775265025
  0
ARC
  5
95D3
  8
0
 10
4239.1903308949840721
 20
229.8192578207006136
 30
0.0
 40
4.4594812496741243
 50
158.9771369045371898
 51
198.3588343007683079
  0
ARC
  5
95D4
  8
0
 10
4239.4038126018058392
 20
229.8087039468148873
 30
0.0
 40
4.6630166885065574
 50
106.7028242537491991
 51
159.7971335507970991
  0
ARC
  5
95D5
  8
0
 10
4241.785976096016384
 20
216.3377039395923873
 30
0.0
 40
18.3194370041312986
 50
96.2121199738916033
 51
101.7236409739522003
  0
ARC
  5
95D6
  8
0
 10
4243.8729019133734255
 20
191.3265371869190119
 30
0.0
 40
43.4141632741531183
 50
90.1908077901442482
 51
95.3783024394813168
  0
ARC
  5
95D7
  8
0
 10
4264.4238194094259597
 20
232.3581189500623054
 30
0.0
 40
30.7437096222258397
 50
168.3121074889745898
 51
179.0492066877910986
  0
ARC
  5
95D8
  8
0
 10
4235.0446230606021345
 20
238.4325657193182906
 30
0.0
 40
0.7431151148226145
 50
90.0378742333848976
 51
168.0691319809477022
  0
ARC
  5
95D9
  8
0
 10
4217.9110707510917564
 20
4499.8340025201596291
 30
0.0
 40
4260.6927696465118061
 50
270.2303979162995233
 51
270.347180315680589
  0
ARC
  5
95DA
  8
0
 10
4235.0253174445570039
 20
238.4427525070819058
 30
0.0
 40
0.6647585698781638
 50
88.3796094388043372
 51
168.6320360821084137
  0
ARC
  5
95DB
  8
0
 10
4262.5194074402306796
 20
232.2792228909098924
 30
0.0
 40
28.8410806711890189
 50
167.3937447928501001
 51
178.8297134089756923
  0
ARC
  5
95DC
  8
0
 10
4256.7443920005607652
 20
232.5948183736352917
 30
0.0
 40
23.6707276842090799
 50
180.572894862888603
 51
189.1823805878831877
  0
ARC
  5
95DD
  8
0
 10
4263.9896051752721178
 20
232.1056444287013107
 30
0.0
 40
30.9157887095554216
 50
169.4552334770469884
 51
179.5320465171006958
  0
ARC
  5
95DF
  8
0
 10
4216.1722941729713057
 20
-2070.0607085630881556
 30
0.0
 40
2309.2450680993479182
 50
89.3162780069513218
 51
89.5317570488559511
  0
ARC
  5
95E0
  8
0
 10
4243.7283232844602026
 20
231.9847493346892975
 30
0.0
 40
8.9768220034336732
 50
260.7835041492052142
 51
279.2164958507947858
  0
ENDSEC
  0
EOF
