  0
SECTION
  2
HEADER
  9
$ACADVER
  1
AC1009
  9
$INSBASE
 10
367.7920906593890891
 20
112.2023108651692951
 30
0.0
  9
$EXTMIN
 10
357.1041162059203771
 20
93.9683285740189831
 30
-0.0015258207003583
  9
$EXTMAX
 10
378.4709974028654074
 20
112.2113643228535977
 30
0.0000000349246037
  9
$LIMMIN
 10
0.0
 20
0.0
  9
$LIMMAX
 10
11.6929133858000007
 20
8.2677165353999982
  9
$ORTHOMODE
 70
     0
  9
$REGENMODE
 70
     1
  9
$FILLMODE
 70
     1
  9
$QTEXTMODE
 70
     0
  9
$MIRRTEXT
 70
     0
  9
$DRAGMODE
 70
     2
  9
$LTSCALE
 40
0.6431102362
  9
$OSMODE
 70
  4095
  9
$ATTMODE
 70
     1
  9
$TEXTSIZE
 40
0.2
  9
$TRACEWID
 40
0.05
  9
$TEXTSTYLE
  7
STANDARD
  9
$CLAYER
  8
0
  9
$CELTYPE
  6
BYLAYER
  9
$CECOLOR
 62
   256
  9
$DIMSCALE
 40
1.0
  9
$DIMASZ
 40
0.1875
  9
$DIMEXO
 40
0.0625
  9
$DIMDLI
 40
0.4443307087
  9
$DIMRND
 40
0.0
  9
$DIMDLE
 40
0.0
  9
$DIMEXE
 40
0.125
  9
$DIMTP
 40
0.01
  9
$DIMTM
 40
0.01
  9
$DIMTXT
 40
1.0
  9
$DIMCEN
 40
0.1052362205
  9
$DIMTSZ
 40
0.0
  9
$DIMTOL
 70
     1
  9
$DIMLIM
 70
     0
  9
$DIMTIH
 70
     0
  9
$DIMTOH
 70
     1
  9
$DIMSE1
 70
     0
  9
$DIMSE2
 70
     0
  9
$DIMTAD
 70
     0
  9
$DIMZIN
 70
     0
  9
$DIMBLK
  1

  9
$DIMASO
 70
     1
  9
$DIMSHO
 70
     1
  9
$DIMPOST
  1
\X
  9
$DIMAPOST
  1

  9
$DIMALT
 70
     1
  9
$DIMALTD
 70
     2
  9
$DIMALTF
 40
25.3999999999999986
  9
$DIMLFAC
 40
1.0
  9
$DIMTOFL
 70
     0
  9
$DIMTVP
 40
0.0
  9
$DIMTIX
 70
     0
  9
$DIMSOXD
 70
     0
  9
$DIMSAH
 70
     0
  9
$DIMBLK1
  1

  9
$DIMBLK2
  1

  9
$DIMSTYLE
  2
STANDARD
  9
$DIMCLRD
 70
     0
  9
$DIMCLRE
 70
     0
  9
$DIMCLRT
 70
     0
  9
$DIMTFAC
 40
1.0
  9
$DIMGAP
 40
0.09
  9
$LUNITS
 70
     2
  9
$LUPREC
 70
     4
  9
$SKETCHINC
 40
0.1
  9
$FILLETRAD
 40
0.0
  9
$AUNITS
 70
     0
  9
$AUPREC
 70
     0
  9
$MENU
  1
.
  9
$ELEVATION
 40
0.0
  9
$PELEVATION
 40
0.0
  9
$THICKNESS
 40
0.0
  9
$LIMCHECK
 70
     0
  9
$BLIPMODE
 70
     0
  9
$CHAMFERA
 40
0.0
  9
$CHAMFERB
 40
0.0
  9
$SKPOLY
 70
     0
  9
$TDCREATE
 40
2458172.5207638889551163
  9
$TDUPDATE
 40
2460027.3639583331532776
  9
$TDINDWG
 40
0.2924509028
  9
$TDUSRTIMER
 40
0.2924509028
  9
$USRTIMER
 70
     1
  9
$ANGBASE
 50
0.0
  9
$ANGDIR
 70
     0
  9
$PDMODE
 70
     0
  9
$PDSIZE
 40
0.3125
  9
$PLINEWID
 40
0.0
  9
$COORDS
 70
     1
  9
$SPLFRAME
 70
     0
  9
$SPLINETYPE
 70
     6
  9
$SPLINESEGS
 70
     8
  9
$ATTDIA
 70
     1
  9
$ATTREQ
 70
     1
  9
$HANDLING
 70
     1
  9
$HANDSEED
  5
1139A
  9
$SURFTAB1
 70
     6
  9
$SURFTAB2
 70
     6
  9
$SURFTYPE
 70
     6
  9
$SURFU
 70
     6
  9
$SURFV
 70
     6
  9
$UCSNAME
  2

  9
$UCSORG
 10
0.0
 20
0.0
 30
0.0
  9
$UCSXDIR
 10
1.0
 20
0.0
 30
0.0
  9
$UCSYDIR
 10
0.0
 20
1.0
 30
0.0
  9
$PUCSNAME
  2

  9
$PUCSORG
 10
0.0
 20
0.0
 30
0.0
  9
$PUCSXDIR
 10
1.0
 20
0.0
 30
0.0
  9
$PUCSYDIR
 10
0.0
 20
1.0
 30
0.0
  9
$USERI1
 70
     0
  9
$USERI2
 70
     0
  9
$USERI3
 70
     0
  9
$USERI4
 70
     0
  9
$USERI5
 70
     0
  9
$USERR1
 40
0.0
  9
$USERR2
 40
0.0
  9
$USERR3
 40
0.0
  9
$USERR4
 40
0.0
  9
$USERR5
 40
0.0
  9
$WORLDVIEW
 70
     1
  9
$SHADEDGE
 70
     3
  9
$SHADEDIF
 70
    70
  9
$TILEMODE
 70
     1
  9
$MAXACTVP
 70
    64
  9
$PLIMCHECK
 70
     0
  9
$PEXTMIN
 10
1.0000000000000000E+20
 20
1.0000000000000000E+20
 30
1.0000000000000000E+20
  9
$PEXTMAX
 10
-1.0000000000000000E+20
 20
-1.0000000000000000E+20
 30
-1.0000000000000000E+20
  9
$PLIMMIN
 10
0.0
 20
0.0
  9
$PLIMMAX
 10
12.0
 20
9.0
  9
$UNITMODE
 70
     0
  9
$VISRETAIN
 70
     1
  9
$PLINEGEN
 70
     0
  9
$PSLTSCALE
 70
     1
  0
ENDSEC
  0
SECTION
  2
TABLES
  0
TABLE
  2
VPORT
 70
     1
  0
VPORT
  2
*ACTIVE
 70
     0
 10
0.0
 20
0.0
 11
1.0
 21
1.0
 12
-61.8417323036608195
 22
33.3873049362176175
 13
0.0
 23
0.0
 14
1.0
 24
1.0
 15
0.0
 25
0.0
 16
0.0
 26
0.0
 36
14.6338572656650907
 17
429.6292891080536833
 27
69.7025415122186871
 37
0.0
 40
18.367845571517659
 41
2.1792237442922371
 42
50.0
 43
0.0
 44
0.0
 50
0.0
 51
0.0
 71
     0
 72
   100
 73
     1
 74
     1
 75
     0
 76
     0
 77
     0
 78
     1
  0
ENDTAB
  0
TABLE
  2
LTYPE
 70
     2
  0
LTYPE
  2
CONTINUOUS
 70
     0
  3
Solid line
 72
    65
 73
     0
 40
0.0
  0
LTYPE
  2
PHANTOM2
 70
     0
  3
___ _ _ ___ _ _ ___ _ _ ___ _ _
 72
    65
 73
     6
 40
1.25
 49
0.625
 49
-0.125
 49
0.125
 49
-0.125
 49
0.125
 49
-0.125
  0
ENDTAB
  0
TABLE
  2
LAYER
 70
     2
  0
LAYER
  2
0
 70
     0
 62
   255
  6
CONTINUOUS
  0
LAYER
  2
DEFPOINTS
 70
     0
 62
     7
  6
CONTINUOUS
  0
ENDTAB
  0
TABLE
  2
STYLE
 70
     1
  0
STYLE
  2
STANDARD
 70
     0
 40
0.0
 41
0.8
 50
0.0
 71
     0
 42
0.2
  3
txt
  4

  0
ENDTAB
  0
TABLE
  2
VIEW
 70
     0
  0
ENDTAB
  0
TABLE
  2
UCS
 70
     0
  0
ENDTAB
  0
TABLE
  2
APPID
 70
    10
  0
APPID
  2
ACAD
 70
     0
  0
APPID
  2
ACAD_MLEADERVER
 70
     0
  0
APPID
  2
ACAD_EXEMPT_FROM_CAD_STANDARDS
 70
     0
  0
APPID
  2
ACAD_DSTYLE_DIMJAG
 70
     0
  0
APPID
  2
ACAD_DSTYLE_DIMTALN
 70
     0
  0
APPID
  2
ACAD_NAV_VCDISPLAY
 70
     0
  0
APPID
  2
ACAECLAYERSTANDARD
 70
     0
  0
APPID
  2
ACCMTRANSPARENCY
 70
     0
  0
APPID
  2
DCO15
 70
     0
  0
APPID
  2
ACDBATTR
 70
     0
  0
ENDTAB
  0
TABLE
  2
DIMSTYLE
 70
     1
  0
DIMSTYLE
  2
STANDARD
 70
     0
  3

  4

  5

  6

  7

 40
1.0
 41
0.1875
 42
0.0625
 43
0.38
 44
0.125
 45
0.0
 46
0.0
 47
0.01
 48
0.01
140
0.15625
141
0.09
142
0.0
143
25.3999999999999986
144
1.0
145
0.0
146
1.0
147
0.09
 71
     1
 72
     0
 73
     1
 74
     1
 75
     0
 76
     0
 77
     0
 78
     4
170
     0
171
     2
172
     0
173
     0
174
     0
175
     0
176
     0
177
     0
178
     0
  0
ENDTAB
  0
ENDSEC
  0
SECTION
  2
BLOCKS
  0
BLOCK
  8
0
  2
$MODEL_SPACE
 70
     0
 10
0.0
 20
0.0
 30
0.0
  3
$MODEL_SPACE
  1

  0
ENDBLK
  5
21
  8
0
  0
BLOCK
 67
     1
  8
0
  2
$PAPER_SPACE
 70
     0
 10
0.0
 20
0.0
 30
0.0
  3
$PAPER_SPACE
  1

  0
ENDBLK
  5
1D
 67
     1
  8
0
  0
BLOCK
  8
0
  2
_FILLED
 70
     0
 10
0.0
 20
0.0
 30
0.0
  3
_FILLED
  1

  0
SOLID
  5
10F69
  8
0
  6
BYBLOCK
 62
     0
 10
0.0
 20
0.0
 30
0.0
 11
-1.0
 21
0.1666666667
 31
0.0
 12
-1.0
 22
-0.1666666667
 32
0.0
 13
-1.0
 23
-0.1666666667
 33
0.0
  0
ENDBLK
  5
10F6A
  8
0
  6
BYBLOCK
 62
     0
  0
ENDSEC
  0
SECTION
  2
ENTITIES
  0
ATTDEF
  5
10E9B
  8
DEFPOINTS
 10
367.7929322433672041
 20
112.2069397470277039
 30
0.0
 40
0.001
  1
K-8703IN-1WH
  3

  2
MODELNUMBER
 70
     0
1001
ACDBATTR
1070
     0
1070
     1
  0
ATTDEF
  5
10E9C
  8
DEFPOINTS
 10
367.7929322433672041
 20
112.2052730803609961
 30
0.0
 40
0.001
  1
BRIVE
  3

  2
TRADENAME
 70
     0
1001
ACDBATTR
1070
     0
1070
     1
  0
ATTDEF
  5
10E9D
  8
DEFPOINTS
 10
367.7929322433672041
 20
112.2036064136943025
 30
0.0
 40
0.001
  1
BATHROOM SINK
  3

  2
PRODUCT
 70
     0
1001
ACDBATTR
1070
     0
1070
     1
  0
LINE
  5
10FBB
  8
0
 10
358.2013406590148179
 20
112.2023108651692951
 30
0.0
 11
377.3828406597634739
 21
112.2023108651692951
 31
0.0
  0
ARC
  5
10FBC
  8
0
 10
367.9306009949802956
 20
107.2979813256359023
 30
0.0
 40
13.3300381409571198
 50
242.5323273409020999
 51
269.4046378277258214
  0
ARC
  5
10FBD
  8
0
 10
365.9880608103741224
 20
103.494676140761996
 30
0.0
 40
9.0595340393568833
 50
220.5853703239365871
 51
242.3381235906880988
  0
ARC
  5
10FBE
  8
0
 10
364.6999676557526868
 20
102.3912171700880975
 30
0.0
 40
7.3634191626628054
 50
188.5862007056128959
 51
220.5853703239365871
  0
ARC
  5
10FBF
  8
0
 10
381.7433680533476945
 20
104.9645906203943042
 30
0.0
 40
24.6000008431318484
 50
181.1921471569193898
 51
188.5862007056128959
  0
ARC
  5
10FC0
  8
0
 10
374.8561048221949932
 20
105.3742043591448976
 30
0.0
 40
17.731370359362689
 50
173.2363425388039957
 51
182.9787677196532911
  0
ARC
  5
10FC1
  8
0
 10
390.0082011019089236
 20
103.7437371677139026
 30
0.0
 40
32.9704560082917197
 50
165.7440789879545093
 51
173.5237828689359105
  0
ARC
  5
10FC2
  8
0
 10
374.7887800460624135
 20
107.6106519949166938
 30
0.0
 40
17.2674687906956486
 50
164.7837611045956123
 51
165.7440789879545093
  0
ARC
  5
10FC3
  8
0
 10
358.2047317620642843
 20
112.1214858294456036
 30
0.0
 40
0.0808961431690296
 50
92.4024982344433141
 51
164.7837611045956123
  0
ARC
  5
10FC4
  8
0
 10
365.7940591005134934
 20
109.4471353222947982
 30
0.0
 40
1.259842519700004
 50
90.0
 51
270.0
  0
LINE
  5
10FC5
  8
0
 10
365.7940591005134934
 20
108.1872928025947971
 30
0.0
 11
369.7901220927134887
 21
108.1872928025947971
 31
0.0
  0
LINE
  5
10FC6
  8
0
 10
369.7901220927134887
 20
110.7069778419947994
 30
0.0
 11
365.7940591005134934
 21
110.7069778419947994
 31
0.0
  0
CIRCLE
  5
10FC7
  8
0
 10
367.792090596613491
 20
109.4471353222947982
 30
0.0
 40
0.6900000000000011
  0
ARC
  5
10FC8
  8
0
 10
367.7896667609368819
 20
104.3279584348940006
 30
0.0
 40
2.76799843747271
 50
89.9498268614764953
 51
92.9482610561225044
  0
ARC
  5
10FC9
  8
0
 10
367.2125490199554747
 20
101.0055466098051937
 30
0.0
 40
6.1022527736812391
 50
85.914566169854524
 51
90.3763998283508414
  0
ARC
  5
10FCA
  8
0
 10
367.3050404114816843
 20
77.7775747327655438
 30
0.0
 40
29.3303926173599905
 50
90.2589894625185281
 51
99.2560313076855749
  0
ARC
  5
10FCB
  8
0
 10
363.1315363550704092
 20
102.9197136159423991
 30
0.0
 40
3.8450593261907251
 50
98.1363088467828248
 51
121.280305009300605
  0
ARC
  5
10FCC
  8
0
 10
363.5750572548275272
 20
102.026353144532905
 30
0.0
 40
4.8395889628645818
 50
120.2762387125602004
 51
154.9860017686835079
  0
ARC
  5
10FCD
  8
0
 10
363.403072303880208
 20
102.2068729507896023
 30
0.0
 40
4.6083004154732636
 50
156.1158248884194961
 51
196.0873636681702976
  0
ARC
  5
10FCE
  8
0
 10
367.7465597196493832
 20
106.2512538381011069
 30
0.0
 40
10.8600267165024906
 50
267.2297666043349977
 51
270.2402147245953756
  0
ARC
  5
10FCF
  8
0
 10
367.7578421591916253
 20
106.4844227717340033
 30
0.0
 40
11.0934684545304894
 50
255.7270794336851054
 51
267.2297666043349977
  0
ARC
  5
10FD0
  8
0
 10
367.8512969259599004
 20
106.8517857554737986
 30
0.0
 40
11.4725322423735907
 50
239.2096509636735959
 51
255.7270794336851054
  0
ARC
  5
10FD1
  8
0
 10
365.3821712528671242
 20
102.7082021810436032
 30
0.0
 40
6.6490618705547737
 50
204.6945369232645078
 51
239.2096509636735959
  0
ARC
  5
10FD2
  8
0
 10
365.3886291944536993
 20
102.7111717563142008
 30
0.0
 40
6.656169851057256
 50
195.5222215944035895
 51
204.6945369232645078
  0
CIRCLE
  5
10FD3
  8
0
 10
367.792090596613491
 20
104.2030408340947929
 30
0.0
 40
0.8858267717000003
  0
CIRCLE
  5
10FD4
  8
0
 10
367.792090596613491
 20
104.2030408340947929
 30
0.0
 40
1.1043758416536451
  0
ARC
  5
10FD5
  8
0
 10
367.7660153037484747
 20
104.5981671785466034
 30
0.0
 40
2.4016640017107771
 50
76.8205637858824844
 51
89.3779158200313191
  0
ARC
  5
10FD6
  8
0
 10
367.7926210142654213
 20
108.4093982895751935
 30
0.0
 40
1.562251810202905
 50
269.9805491685531251
 51
289.4800324058218166
  0
LINE
  5
10FD7
  8
0
 10
357.7490044709256267
 20
104.210914576781704
 30
0.0
 11
357.1551341239425028
 21
104.2038056869666036
 31
0.0
  0
ARC
  5
10FD8
  8
0
 10
387.0266716831515055
 20
105.8372712024618068
 30
0.0
 40
29.3229021499711209
 50
170.8198353961736871
 51
183.1794669321758988
  0
ARC
  5
10FD9
  8
0
 10
372.7607111693167212
 20
108.1427845718920935
 30
0.0
 40
14.8718460889451602
 50
168.7537708231980105
 51
170.8198353961728913
  0
ARC
  5
10FDA
  8
0
 10
359.0858347959544972
 20
110.8619510196553932
 30
0.0
 40
0.9292455425125362
 50
124.0851485588341063
 51
168.7537708231980105
  0
ARC
  5
10FDB
  8
0
 10
359.0910451092216817
 20
110.8542511206918988
 30
0.0
 40
0.938542628528652
 50
92.3306490431154145
 51
124.0851485588341063
  0
ARC
  5
10FDC
  8
0
 10
367.7909170481365777
 20
-226.7563848984025014
 30
0.0
 40
338.6611492409984976
 50
90.0800791002278061
 51
91.47849353926064
  0
ARC
  5
10FDD
  8
0
 10
361.5783152516531231
 20
289.268674854711719
 30
0.0
 40
177.457074682895211
 50
271.8533695856928034
 51
272.0066593343241266
  0
POINT
  5
10FDE
  8
DEFPOINTS
 10
367.792090596613491
 20
109.4471353222947982
 30
0.0
  0
ARC
  5
10FDF
  8
0
 10
367.6535803237979962
 20
107.2979813256355044
 30
0.0
 40
13.3300381409567397
 50
270.5953621722741786
 51
297.4676726590979001
  0
ARC
  5
10FE0
  8
0
 10
369.5961205084042263
 20
103.494676140761996
 30
0.0
 40
9.0595340393568833
 50
297.6618764093120149
 51
319.4146296760633845
  0
ARC
  5
10FE1
  8
0
 10
370.8842136630254913
 20
102.3912171700880975
 30
0.0
 40
7.3634191626628054
 50
319.4146296760633845
 51
351.4137992943869904
  0
ARC
  5
10FE2
  8
0
 10
353.8408132654304836
 20
104.9645906203943042
 30
0.0
 40
24.6000008431318484
 50
351.4137992943869904
 51
358.8078528430796723
  0
ARC
  5
10FE3
  8
0
 10
360.728076496583185
 20
105.3742043591448976
 30
0.0
 40
17.731370359362689
 50
357.0212322803466236
 51
6.763657461195959
  0
ARC
  5
10FE4
  8
0
 10
345.575980216869425
 20
103.7437371677139026
 30
0.0
 40
32.9704560082917197
 50
6.476217131064125
 51
14.2559210120455493
  0
ARC
  5
10FE5
  8
0
 10
360.7954012727158783
 20
107.6106519949166938
 30
0.0
 40
17.2674687906956486
 50
14.2559210120455493
 51
15.2162388954044108
  0
ARC
  5
10FE6
  8
0
 10
377.3794495567138938
 20
112.1214858294456036
 30
0.0
 40
0.0808961431690296
 50
15.2162388954044108
 51
87.5975017655567001
  0
ARC
  5
10FE7
  8
0
 10
367.7945145578414099
 20
104.3279584348940006
 30
0.0
 40
2.76799843747271
 50
87.051738943877524
 51
90.0501731385235331
  0
ARC
  5
10FE8
  8
0
 10
368.3716322988228171
 20
101.0055466098051937
 30
0.0
 40
6.1022527736812391
 50
89.6236001716491586
 51
94.0854338301454618
  0
ARC
  5
10FE9
  8
0
 10
368.2791409072966076
 20
77.7775747327655438
 30
0.0
 40
29.3303926173599905
 50
80.7439686923144535
 51
89.7410105374814862
  0
ARC
  5
10FEA
  8
0
 10
372.4526449637078827
 20
102.9197136159423991
 30
0.0
 40
3.8450593261907251
 50
58.7196949906993595
 51
81.8636911532172036
  0
ARC
  5
10FEB
  8
0
 10
372.0091240639507078
 20
102.026353144532905
 30
0.0
 40
4.8395889628645818
 50
25.0139982313172204
 51
59.7237612874393307
  0
ARC
  5
10FEC
  8
0
 10
372.1811090148980838
 20
102.2068729507896023
 30
0.0
 40
4.6083004154732636
 50
343.9126363318296171
 51
23.8841751115804684
  0
ARC
  5
10FED
  8
0
 10
367.8376215991289087
 20
106.2512538381011069
 30
0.0
 40
10.8600267165024906
 50
269.7597852754046244
 51
272.7702333956650023
  0
ARC
  5
10FEE
  8
0
 10
367.8263391595867233
 20
106.4844227717340033
 30
0.0
 40
11.0934684545304894
 50
272.7702333956650023
 51
284.2729205663148946
  0
ARC
  5
10FEF
  8
0
 10
367.7328843928183915
 20
106.8517857554737986
 30
0.0
 40
11.4725322423735907
 50
284.2729205663148946
 51
300.7903490363264041
  0
ARC
  5
10FF0
  8
0
 10
370.2020100659112245
 20
102.7082021810436032
 30
0.0
 40
6.6490618705547737
 50
300.7903490363264041
 51
335.305463076735407
  0
ARC
  5
10FF1
  8
0
 10
370.1955521243245926
 20
102.7111717563142008
 30
0.0
 40
6.656169851057256
 50
335.305463076735407
 51
344.4777784055963821
  0
LINE
  5
10FF2
  8
0
 10
377.8351768478527219
 20
104.210914576781704
 30
0.0
 11
378.429047194835789
 21
104.2038056869666036
 31
0.0
  0
ARC
  5
10FF3
  8
0
 10
348.5575096356269
 20
105.8372712024618068
 30
0.0
 40
29.3229021499711209
 50
356.8205330678241012
 51
9.1801646038270643
  0
ARC
  5
10FF4
  8
0
 10
362.8234701494616274
 20
108.1427845718920935
 30
0.0
 40
14.8718460889451602
 50
9.1801646038270643
 51
11.2462291768019202
  0
ARC
  5
10FF5
  8
0
 10
376.4983465228239083
 20
110.8619510196553932
 30
0.0
 40
0.9292455425125362
 50
11.2462291768019202
 51
55.9148514411658795
  0
ARC
  5
10FF6
  8
0
 10
376.4931362095566101
 20
110.8542511206918988
 30
0.0
 40
0.938542628528652
 50
55.9148514411658795
 51
87.6693509568845855
  0
ARC
  5
10FF7
  8
0
 10
367.7932642706417141
 20
-226.7563848984025014
 30
0.0
 40
338.6611492409984976
 50
88.5215064607393458
 51
89.9199208997721797
  0
ARC
  5
10FF8
  8
0
 10
374.0058660671252255
 20
289.268674854711719
 30
0.0
 40
177.457074682895211
 50
267.9933406656758166
 51
268.1466304143070829
  0
POINT
  5
10FF9
  8
DEFPOINTS
 10
367.7920907221646871
 20
109.4471353222947982
 30
0.0
 50
180.0
  0
ARC
  5
10FFA
  8
0
 10
369.7905853879024107
 20
109.4471353222947982
 30
0.0
 40
1.259842604886217
 50
269.9789300191246753
 51
90.0210699808752537
  0
ARC
  5
10FFB
  8
0
 10
367.8181660150297034
 20
104.5981671785466034
 30
0.0
 40
2.4016640017107771
 50
90.6220841799686951
 51
103.1794362141175014
  0
ARC
  5
10FFC
  8
0
 10
367.7915603045129274
 20
108.4093982895751935
 30
0.0
 40
1.562251810202905
 50
250.5199675941782118
 51
270.0194508314468749
  0
ARC
  5
10FFD
  8
0
 10
392.6024871470689845
 20
104.3989468320829985
 30
0.0
 40
34.8541335438617423
 50
169.1567523284248864
 51
180.304279852754604
  0
ARC
  5
10FFE
  8
0
 10
359.1408904778942883
 20
110.8082679433153999
 30
0.0
 40
0.7842370257123075
 50
95.6821549991288549
 51
169.1567523284248864
  0
ARC
  5
10FFF
  8
0
 10
367.7350685513958979
 20
-223.2980207598311893
 30
0.0
 40
334.9989311438728237
 50
89.9902473535317853
 51
91.4833315815293702
  0
ARC
  5
11000
  8
0
 10
342.9967284932466214
 20
104.4010748526991961
 30
0.0
 40
34.8389673309514123
 50
359.6872629650952149
 51
10.8444618243755695
  0
ARC
  5
11001
  8
0
 10
376.4432908408840035
 20
110.8082679433153999
 30
0.0
 40
0.7842370257123075
 50
10.8432476715751296
 51
84.3178450008711451
  0
ARC
  5
11002
  8
0
 10
367.8491127673826213
 20
-223.2980207597975095
 30
0.0
 40
334.9989311438391155
 50
88.5166684184706156
 51
90.0097526464682005
  0
ENDSEC
  0
EOF
