  0
SECTION
  2
HEADER
  9
$ACADVER
  1
AC1009
  9
$INSBASE
 10
2631.8093916972898114
 20
147.0690309842426871
 30
0.0
  9
$EXTMIN
 10
2624.355850812089102
 20
147.0641218844573075
 30
0.0
  9
$EXTMAX
 10
2639.2629325824891566
 20
165.2890309842426859
 30
0.0
  9
$LIMMIN
 10
0.0
 20
0.0
  9
$LIMMAX
 10
11.6929133858000007
 20
8.2677165353999982
  9
$ORTHOMODE
 70
     0
  9
$REGENMODE
 70
     1
  9
$FILLMODE
 70
     1
  9
$QTEXTMODE
 70
     0
  9
$MIRRTEXT
 70
     0
  9
$DRAGMODE
 70
     2
  9
$LTSCALE
 40
0.6431102362
  9
$OSMODE
 70
  3839
  9
$ATTMODE
 70
     1
  9
$TEXTSIZE
 40
0.2
  9
$TRACEWID
 40
0.05
  9
$TEXTSTYLE
  7
STANDARD
  9
$CLAYER
  8
0
  9
$CELTYPE
  6
BYLAYER
  9
$CECOLOR
 62
   256
  9
$DIMSCALE
 40
1.0
  9
$DIMASZ
 40
0.1875
  9
$DIMEXO
 40
0.0625
  9
$DIMDLI
 40
0.4443307087
  9
$DIMRND
 40
0.0
  9
$DIMDLE
 40
0.0
  9
$DIMEXE
 40
0.125
  9
$DIMTP
 40
0.01
  9
$DIMTM
 40
0.01
  9
$DIMTXT
 40
2.0
  9
$DIMCEN
 40
0.1052362205
  9
$DIMTSZ
 40
0.0
  9
$DIMTOL
 70
     1
  9
$DIMLIM
 70
     0
  9
$DIMTIH
 70
     1
  9
$DIMTOH
 70
     1
  9
$DIMSE1
 70
     0
  9
$DIMSE2
 70
     0
  9
$DIMTAD
 70
     0
  9
$DIMZIN
 70
     0
  9
$DIMBLK
  1

  9
$DIMASO
 70
     1
  9
$DIMSHO
 70
     1
  9
$DIMPOST
  1
\X
  9
$DIMAPOST
  1

  9
$DIMALT
 70
     1
  9
$DIMALTD
 70
     2
  9
$DIMALTF
 40
25.3999999999999986
  9
$DIMLFAC
 40
1.0
  9
$DIMTOFL
 70
     0
  9
$DIMTVP
 40
0.0
  9
$DIMTIX
 70
     0
  9
$DIMSOXD
 70
     0
  9
$DIMSAH
 70
     0
  9
$DIMBLK1
  1

  9
$DIMBLK2
  1

  9
$DIMSTYLE
  2
STANDARD
  9
$DIMCLRD
 70
     0
  9
$DIMCLRE
 70
     0
  9
$DIMCLRT
 70
     0
  9
$DIMTFAC
 40
1.0
  9
$DIMGAP
 40
0.09
  9
$LUNITS
 70
     2
  9
$LUPREC
 70
     4
  9
$SKETCHINC
 40
0.1
  9
$FILLETRAD
 40
0.0
  9
$AUNITS
 70
     0
  9
$AUPREC
 70
     0
  9
$MENU
  1
.
  9
$ELEVATION
 40
0.0
  9
$PELEVATION
 40
0.0
  9
$THICKNESS
 40
0.0
  9
$LIMCHECK
 70
     0
  9
$BLIPMODE
 70
     0
  9
$CHAMFERA
 40
0.0
  9
$CHAMFERB
 40
0.0
  9
$SKPOLY
 70
     0
  9
$TDCREATE
 40
2458060.468368056230247
  9
$TDUPDATE
 40
2459073.4987037042155862
  9
$TDINDWG
 40
0.2960950231
  9
$TDUSRTIMER
 40
0.2960950231
  9
$USRTIMER
 70
     1
  9
$ANGBASE
 50
0.0
  9
$ANGDIR
 70
     0
  9
$PDMODE
 70
     0
  9
$PDSIZE
 40
0.3125
  9
$PLINEWID
 40
0.0
  9
$COORDS
 70
     1
  9
$SPLFRAME
 70
     0
  9
$SPLINETYPE
 70
     6
  9
$SPLINESEGS
 70
     8
  9
$ATTDIA
 70
     1
  9
$ATTREQ
 70
     1
  9
$HANDLING
 70
     1
  9
$HANDSEED
  5
63E3
  9
$SURFTAB1
 70
     6
  9
$SURFTAB2
 70
     6
  9
$SURFTYPE
 70
     6
  9
$SURFU
 70
     6
  9
$SURFV
 70
     6
  9
$UCSNAME
  2

  9
$UCSORG
 10
0.0
 20
0.0
 30
0.0
  9
$UCSXDIR
 10
1.0
 20
0.0
 30
0.0
  9
$UCSYDIR
 10
0.0
 20
1.0
 30
0.0
  9
$PUCSNAME
  2

  9
$PUCSORG
 10
0.0
 20
0.0
 30
0.0
  9
$PUCSXDIR
 10
1.0
 20
0.0
 30
0.0
  9
$PUCSYDIR
 10
0.0
 20
1.0
 30
0.0
  9
$USERI1
 70
     0
  9
$USERI2
 70
     0
  9
$USERI3
 70
     0
  9
$USERI4
 70
     0
  9
$USERI5
 70
     0
  9
$USERR1
 40
0.0
  9
$USERR2
 40
0.0
  9
$USERR3
 40
0.0
  9
$USERR4
 40
0.0
  9
$USERR5
 40
0.0
  9
$WORLDVIEW
 70
     1
  9
$SHADEDGE
 70
     3
  9
$SHADEDIF
 70
    70
  9
$TILEMODE
 70
     1
  9
$MAXACTVP
 70
    64
  9
$PLIMCHECK
 70
     0
  9
$PEXTMIN
 10
1.0000000000000000E+20
 20
1.0000000000000000E+20
 30
1.0000000000000000E+20
  9
$PEXTMAX
 10
-1.0000000000000000E+20
 20
-1.0000000000000000E+20
 30
-1.0000000000000000E+20
  9
$PLIMMIN
 10
0.0
 20
0.0
  9
$PLIMMAX
 10
12.0
 20
9.0
  9
$UNITMODE
 70
     0
  9
$VISRETAIN
 70
     1
  9
$PLINEGEN
 70
     0
  9
$PSLTSCALE
 70
     1
  0
ENDSEC
  0
SECTION
  2
TABLES
  0
TABLE
  2
VPORT
 70
     1
  0
VPORT
  2
*ACTIVE
 70
     0
 10
0.0
 20
0.0
 11
1.0
 21
1.0
 12
0.0
 22
0.0
 13
0.0
 23
0.0
 14
1.0
 24
1.0
 15
0.0
 25
0.0
 16
0.0
 26
0.0
 36
97.7480542231770357
 17
2631.8094482421879547
 27
156.1765769334396055
 37
0.0
 40
23.5449670419174701
 41
3.3143418467583499
 42
50.0
 43
0.0
 44
0.0
 50
0.0
 51
0.0
 71
     0
 72
   100
 73
     1
 74
     1
 75
     0
 76
     0
 77
     0
 78
     0
  0
ENDTAB
  0
TABLE
  2
LTYPE
 70
     2
  0
LTYPE
  2
CONTINUOUS
 70
     0
  3
Solid line
 72
    65
 73
     0
 40
0.0
  0
LTYPE
  2
PHANTOM2
 70
     0
  3
___ _ _ ___ _ _ ___ _ _ ___ _ _
 72
    65
 73
     6
 40
1.25
 49
0.625
 49
-0.125
 49
0.125
 49
-0.125
 49
0.125
 49
-0.125
  0
ENDTAB
  0
TABLE
  2
LAYER
 70
     2
  0
LAYER
  2
0
 70
     0
 62
   255
  6
CONTINUOUS
  0
LAYER
  2
DEFPOINTS
 70
     0
 62
     7
  6
CONTINUOUS
  0
ENDTAB
  0
TABLE
  2
STYLE
 70
     1
  0
STYLE
  2
STANDARD
 70
     0
 40
0.0
 41
0.8
 50
0.0
 71
     0
 42
0.2
  3
txt
  4

  0
ENDTAB
  0
TABLE
  2
VIEW
 70
     0
  0
ENDTAB
  0
TABLE
  2
UCS
 70
     0
  0
ENDTAB
  0
TABLE
  2
APPID
 70
     9
  0
APPID
  2
ACAD
 70
     0
  0
APPID
  2
ACAD_MLEADERVER
 70
     0
  0
APPID
  2
ACAD_EXEMPT_FROM_CAD_STANDARDS
 70
     0
  0
APPID
  2
ACAD_NAV_VCDISPLAY
 70
     0
  0
APPID
  2
ACAECLAYERSTANDARD
 70
     0
  0
APPID
  2
ACCMTRANSPARENCY
 70
     0
  0
APPID
  2
ACAD_DSTYLE_DIMJAG
 70
     0
  0
APPID
  2
ACAD_DSTYLE_DIMTALN
 70
     0
  0
APPID
  2
ACDBATTR
 70
     0
  0
ENDTAB
  0
TABLE
  2
DIMSTYLE
 70
     1
  0
DIMSTYLE
  2
STANDARD
 70
     0
  3

  4

  5

  6

  7

 40
1.0
 41
0.1875
 42
0.0625
 43
0.38
 44
0.125
 45
0.0
 46
0.0
 47
0.01
 48
0.01
140
0.15625
141
0.09
142
0.0
143
25.3999999999999986
144
1.0
145
0.0
146
1.0
147
0.09
 71
     1
 72
     0
 73
     1
 74
     1
 75
     0
 76
     0
 77
     0
 78
     4
170
     0
171
     2
172
     0
173
     0
174
     0
175
     0
176
     0
177
     0
178
     0
  0
ENDTAB
  0
ENDSEC
  0
SECTION
  2
BLOCKS
  0
BLOCK
  8
0
  2
$MODEL_SPACE
 70
     0
 10
0.0
 20
0.0
 30
0.0
  3
$MODEL_SPACE
  1

  0
ENDBLK
  5
21
  8
0
  0
BLOCK
 67
     1
  8
0
  2
$PAPER_SPACE
 70
     0
 10
0.0
 20
0.0
 30
0.0
  3
$PAPER_SPACE
  1

  0
ENDBLK
  5
1D
 67
     1
  8
0
  0
BLOCK
  8
0
  2
_FILLED
 70
     0
 10
0.0
 20
0.0
 30
0.0
  3
_FILLED
  1

  0
SOLID
  5
5582
  8
0
  6
BYBLOCK
 62
     0
 10
0.0
 20
0.0
 30
0.0
 11
-1.0
 21
0.1666666667
 31
0.0
 12
-1.0
 22
-0.1666666667
 32
0.0
 13
-1.0
 23
-0.1666666667
 33
0.0
  0
ENDBLK
  5
5583
  8
0
  6
BYBLOCK
 62
     0
  0
ENDSEC
  0
SECTION
  2
ENTITIES
  0
ATTDEF
  5
3930
  8
DEFPOINTS
 10
2631.8097106427849212
 20
147.0674552177906094
 30
0.0
 40
0.001
  1
K-8752IN-S
  3

  2
MODELNUMBER
 70
     0
1001
ACDBATTR
1070
     0
1070
     1
  0
ATTDEF
  5
3931
  8
DEFPOINTS
 10
2631.8097106427849212
 20
147.0657885511240011
 30
0.0
 40
0.001
  1
ODEON
  3

  2
TRADENAME
 70
     0
1001
ACDBATTR
1070
     0
1070
     1
  0
ATTDEF
  5
3932
  8
DEFPOINTS
 10
2631.8097106427849212
 20
147.0641218844573075
 30
0.0
 40
0.001
  1
TOILET
  3

  2
PRODUCT
 70
     0
1001
ACDBATTR
1070
     0
1070
     1
  0
LINE
  5
61C7
  8
0
 10
2638.7248374634427819
 20
162.8249947605428076
 30
0.0
 11
2624.8939459311359315
 21
162.8249947605428076
 31
0.0
  0
LINE
  5
61C8
  8
0
 10
2639.1870909236449734
 20
162.9509807893900017
 30
0.0
 11
2624.4316924709341947
 21
162.9509807893900017
 31
0.0
  0
ARC
  5
61C9
  8
0
 10
2639.1817829630049346
 20
163.0319680230124959
 30
0.0
 40
0.0811609909746866
 50
273.7498428426005148
 51
359.0408694607315283
  0
ARC
  5
61CA
  8
0
 10
2602.4305663132658992
 20
160.1813357803742122
 30
0.0
 40
36.9424087662077199
 50
4.4234702167252431
 51
6.5577094309665691
  0
ARC
  5
61CB
  8
0
 10
2638.544481816960797
 20
164.3392207931981943
 30
0.0
 40
0.5899619347925035
 50
5.9428149970749349
 51
84.089083158927096
  0
ARC
  5
61CC
  8
0
 10
2638.7107604424190868
 20
162.6278498879871961
 30
0.0
 40
0.1976468145350229
 50
358.0934781300882719
 51
85.9157583125091264
  0
LINE
  5
61CD
  8
0
 10
2638.9082978466890381
 20
162.6212743872428064
 30
0.0
 11
2638.8576259271890194
 21
161.1702207106428091
 31
0.0
  0
ARC
  5
61CE
  8
0
 10
2638.576244095912898
 20
161.1839463643389934
 30
0.0
 40
0.2817163973607905
 50
308.5820006737399126
 51
357.2073564010938753
  0
LINE
  5
61CF
  8
0
 10
2638.859778669465868
 20
162.7576875993954104
 30
0.0
 11
2638.8623904455230331
 21
162.9509807893900017
 31
0.0
  0
LINE
  5
61D0
  8
0
 10
2638.7519320346568747
 20
160.9637240295917877
 30
0.0
 11
2638.6490738603129103
 21
160.8783627121362088
 31
0.0
  0
ARC
  5
61D1
  8
0
 10
2638.5020972032998543
 20
161.0569900694399053
 30
0.0
 40
0.2313220060522342
 50
269.5614083753387149
 51
309.4479433717381198
  0
ARC
  5
61D2
  8
0
 10
2638.5300607628669241
 20
-1856.3422630398990805
 30
0.0
 40
2017.1679380997929911
 50
90.0008445746312873
 51
90.0044428203951981
  0
ARC
  5
61D3
  8
0
 10
2638.3737069063331546
 20
160.0381645900897922
 30
0.0
 40
0.7875044078204499
 50
90.0044428203951981
 51
169.2068663764862038
  0
ARC
  5
61D4
  8
0
 10
2609.0419676558640276
 20
165.6298501287512863
 30
0.0
 40
29.0724667010203213
 50
328.2325785195347976
 51
349.2068663764861753
  0
ARC
  5
61D5
  8
0
 10
2638.4956678016069418
 20
160.8668049895132981
 30
0.0
 40
0.1538408261808579
 50
4.308565348224068
 51
80.1072382156710461
  0
ARC
  5
61D6
  8
0
 10
2635.1745900356118
 20
126.1349885785063947
 30
0.0
 40
35.043619954694968
 50
84.5185174379853947
 51
90.4601789210060474
  0
ARC
  5
61D7
  8
0
 10
2634.7062120480832164
 20
124.719482299400994
 30
0.0
 40
36.4584751401749401
 50
89.7062420482373
 51
94.5572590626311467
  0
ARC
  5
61D8
  8
0
 10
2638.5798861100388422
 20
160.8918610762933099
 30
0.0
 40
0.3932219374168509
 50
45.0638606903323691
 51
91.3819648294518032
  0
ARC
  5
61D9
  8
0
 10
2638.3047765318769962
 20
315.7436311538399991
 30
0.0
 40
154.4588909176491995
 50
268.7680531914621724
 51
270.0985327483866172
  0
ARC
  5
61DA
  8
0
 10
2634.6057807833872175
 20
146.2997393176551952
 30
0.0
 40
15.0254631720959502
 50
88.5578709720392254
 51
100.7258552163220031
  0
ARC
  5
61DB
  8
0
 10
2637.933495560755091
 20
163.5218687687772956
 30
0.0
 40
0.6102598350582414
 50
270.0011535897274939
 51
290.6936085599268154
  0
LINE
  5
61DC
  8
0
 10
2637.9335078476888157
 20
162.9116089338428139
 30
0.0
 11
2637.2403934714297975
 21
162.9115949787201885
 31
0.0
  0
ARC
  5
61DD
  8
0
 10
2637.2403811930198572
 20
163.5214314345882087
 30
0.0
 40
0.6098364559916178
 50
249.2954215014117949
 51
270.0011535897274939
  0
ARC
  5
61DE
  8
0
 10
2636.1008936056609855
 20
163.4231104091493876
 30
0.0
 40
0.5902914549288866
 50
270.7445501188320804
 51
306.8866449913583097
  0
LINE
  5
61DF
  8
0
 10
2636.108564139290138
 20
162.8328687936428025
 30
0.0
 11
2635.5405201116891476
 21
162.8328687936428025
 31
0.0
  0
ARC
  5
61E0
  8
0
 10
2635.5455213146128699
 20
163.4147162721993993
 30
0.0
 40
0.5818689717912353
 50
232.842274196776799
 51
269.5075328601968749
  0
LINE
  5
61E1
  8
0
 10
2635.4864682401171194
 20
162.8358516639135871
 30
0.0
 11
2635.4864682401171194
 21
162.8328687763427922
 31
0.0
  0
LINE
  5
61E2
  8
0
 10
2635.4864682401171194
 20
162.8328687763427922
 30
0.0
 11
2634.1086041517892227
 21
162.8328687763427922
 31
0.0
  0
LINE
  5
61E3
  8
0
 10
2634.1086041517892227
 20
162.8328687763427922
 30
0.0
 11
2634.1086041517892227
 21
162.9509807893900017
 31
0.0
  0
LINE
  5
61E4
  8
0
 10
2634.1952057973890078
 20
162.8249947605428076
 30
0.0
 11
2634.1952057973890078
 21
162.8328687763427922
 31
0.0
  0
LINE
  5
61E5
  8
0
 10
2635.3999302067891222
 20
162.8249947605428076
 30
0.0
 11
2635.3999302067891222
 21
162.8328687763427922
 31
0.0
  0
ARC
  5
61E6
  8
0
 10
2637.8008161016341546
 20
160.8146233676397969
 30
0.0
 40
0.283806350333325
 50
106.9042396910722061
 51
170.110873252656404
  0
ARC
  5
61E7
  8
0
 10
2624.6252362404561609
 20
161.8941530368659016
 30
0.0
 40
12.9371206477276104
 50
345.7440886286020145
 51
355.4300125295471275
  0
ARC
  5
61E8
  8
0
 10
2633.3039104243630391
 20
159.5612949158391984
 30
0.0
 40
3.9531689089872781
 50
306.1281420964776885
 51
347.539663475712814
  0
ARC
  5
61E9
  8
0
 10
2636.7464426762908261
 20
154.3745900392951
 30
0.0
 40
2.2827591210747449
 50
119.1455230659240954
 51
144.293555217306988
  0
ARC
  5
61EA
  8
0
 10
2639.6093510641539979
 20
152.5848204452825883
 30
0.0
 40
5.6562454178466268
 50
146.4979217327176002
 51
165.5819115175773959
  0
ARC
  5
61EB
  8
0
 10
2566.058358417008094
 20
158.0600613636582068
 30
0.0
 40
68.1942673992166846
 50
354.2026092543359255
 51
356.5810575612501907
  0
ARC
  5
61EC
  8
0
 10
2624.4370004315737788
 20
163.0319680230124959
 30
0.0
 40
0.0811609909746866
 50
180.9591305392685001
 51
266.2501571573994283
  0
ARC
  5
61ED
  8
0
 10
2661.1882170813128141
 20
160.1813357803742122
 30
0.0
 40
36.9424087662077199
 50
173.4422905690333891
 51
175.5765297832747081
  0
ARC
  5
61EE
  8
0
 10
2625.0743015776170068
 20
164.3392207931981943
 30
0.0
 40
0.5899619347925035
 50
95.9109168410729183
 51
174.0571850029251095
  0
ARC
  5
61EF
  8
0
 10
2624.9080229521600813
 20
162.6278498879871961
 30
0.0
 40
0.1976468145350229
 50
94.0842416874909162
 51
181.9065218699116997
  0
LINE
  5
61F0
  8
0
 10
2624.7104855478892205
 20
162.6212743872428064
 30
0.0
 11
2624.7611574673901487
 21
161.1702207106428091
 31
0.0
  0
ARC
  5
61F1
  8
0
 10
2625.0425392986658153
 20
161.1839463643389934
 30
0.0
 40
0.2817163973607905
 50
182.792643598906011
 51
231.4179993262602011
  0
LINE
  5
61F2
  8
0
 10
2624.7590047251128453
 20
162.7576875993954104
 30
0.0
 11
2624.756392949056135
 21
162.9509807893900017
 31
0.0
  0
LINE
  5
61F3
  8
0
 10
2624.8668513599209291
 20
160.9637240295917877
 30
0.0
 11
2624.9697095342658031
 21
160.8783627121362088
 31
0.0
  0
ARC
  5
61F4
  8
0
 10
2625.116686191278859
 20
161.0569900694399053
 30
0.0
 40
0.2313220060522342
 50
230.5520566282619086
 51
270.4385916246612851
  0
ARC
  5
61F5
  8
0
 10
2625.0887226317131535
 20
-1856.3422630398990805
 30
0.0
 40
2017.1679380997929911
 50
89.9955571796047877
 51
89.9991554253687269
  0
ARC
  5
61F6
  8
0
 10
2625.2450764882460135
 20
160.0381645900897922
 30
0.0
 40
0.7875044078204499
 50
10.7931336235137696
 51
89.9955571796047877
  0
ARC
  5
61F7
  8
0
 10
2654.5768157387151405
 20
165.6298501287512863
 30
0.0
 40
29.0724667010203213
 50
190.793133623513711
 51
211.7674214804652024
  0
ARC
  5
61F8
  8
0
 10
2625.1231155929722263
 20
160.8668049895132981
 30
0.0
 40
0.1538408261808579
 50
99.8927617843289539
 51
175.6914346517758929
  0
ARC
  5
61F9
  8
0
 10
2628.4441933589660039
 20
126.1349885785063947
 30
0.0
 40
35.043619954694968
 50
89.5398210789939526
 51
95.4814825620146337
  0
ARC
  5
61FA
  8
0
 10
2628.9125713464959517
 20
124.719482299400994
 30
0.0
 40
36.4584751401749401
 50
85.4427409373688818
 51
90.2937579517626858
  0
ARC
  5
61FB
  8
0
 10
2625.0388972845398712
 20
160.8918610762933099
 30
0.0
 40
0.3932219374168509
 50
88.6180351705481968
 51
134.9361393096675954
  0
ARC
  5
61FC
  8
0
 10
2625.3140068627021719
 20
315.7436311538399991
 30
0.0
 40
154.4588909176491995
 50
269.901467251613326
 51
271.2319468085378276
  0
ARC
  5
61FD
  8
0
 10
2629.0130026111919506
 20
146.2997393176551952
 30
0.0
 40
15.0254631720959502
 50
79.27414478367794
 51
91.4421290279607888
  0
ARC
  5
61FE
  8
0
 10
2625.6852878338240771
 20
163.5218687687772956
 30
0.0
 40
0.6102598350582414
 50
249.3063914400732131
 51
269.9988464102725061
  0
LINE
  5
61FF
  8
0
 10
2625.6852755468898977
 20
162.9116089338428139
 30
0.0
 11
2626.3783899231489158
 21
162.9115949787201885
 31
0.0
  0
ARC
  5
6200
  8
0
 10
2626.3784022015588562
 20
163.5214314345882087
 30
0.0
 40
0.6098364559916178
 50
269.9988464102725061
 51
290.7045784985882051
  0
ARC
  5
6201
  8
0
 10
2627.5178897889181826
 20
163.4231104091493876
 30
0.0
 40
0.5902914549288866
 50
233.113355008641804
 51
269.2554498811678059
  0
LINE
  5
6202
  8
0
 10
2627.5102192552890301
 20
162.8328687936428025
 30
0.0
 11
2628.078263282889111
 21
162.8328687936428025
 31
0.0
  0
ARC
  5
6203
  8
0
 10
2628.0732620799649339
 20
163.4147162721993993
 30
0.0
 40
0.5818689717912353
 50
270.4924671398031251
 51
307.1577258032231725
  0
LINE
  5
6204
  8
0
 10
2628.1323151544620487
 20
162.8358516639135871
 30
0.0
 11
2628.1323151544620487
 21
162.8328687763427922
 31
0.0
  0
LINE
  5
6205
  8
0
 10
2628.1323151544620487
 20
162.8328687763427922
 30
0.0
 11
2629.5101792427890359
 21
162.8328687763427922
 31
0.0
  0
LINE
  5
6206
  8
0
 10
2629.5101792427890359
 20
162.8328687763427922
 30
0.0
 11
2629.5101792427890359
 21
162.9509807893900017
 31
0.0
  0
LINE
  5
6207
  8
0
 10
2629.4235775971887961
 20
162.8249947605428076
 30
0.0
 11
2629.4235775971887961
 21
162.8328687763427922
 31
0.0
  0
LINE
  5
6208
  8
0
 10
2628.2188531877891364
 20
162.8249947605428076
 30
0.0
 11
2628.2188531877891364
 21
162.8328687763427922
 31
0.0
  0
ARC
  5
6209
  8
0
 10
2625.816667540463186
 20
160.7914284880056925
 30
0.0
 40
0.2899545442115252
 50
14.3648370606869005
 51
87.1851337633743242
  0
ARC
  5
620A
  8
0
 10
2638.9935471541230072
 20
161.8941530368659016
 30
0.0
 40
12.9371206477276104
 50
184.5699874704529009
 51
194.2559113713963939
  0
ARC
  5
620B
  8
0
 10
2630.3148729702152195
 20
159.5612949158391984
 30
0.0
 40
3.9531689089872781
 50
192.4603365242855944
 51
233.8718579035221978
  0
ARC
  5
620C
  8
0
 10
2626.8723407182878873
 20
154.3745900392951
 30
0.0
 40
2.2827591210747449
 50
35.7064447826929978
 51
60.8544769340759188
  0
ARC
  5
620D
  8
0
 10
2624.0094323304251702
 20
152.5848204452825883
 30
0.0
 40
5.6562454178466268
 50
14.4180884824225704
 51
33.5020782672824282
  0
ARC
  5
620E
  8
0
 10
2697.5604249775710741
 20
158.0600613636582068
 30
0.0
 40
68.1942673992166846
 50
183.4189424387498093
 51
185.7973907456641882
  0
ARC
  5
620F
  8
0
 10
2631.8093916972898114
 20
151.5200070738912075
 30
0.0
 40
2.2873573432484582
 50
211.5255347062654891
 51
328.4744652937345109
  0
ARC
  5
6210
  8
0
 10
2631.8093916972898114
 20
151.4771451580197095
 30
0.0
 40
2.116598171677007
 50
188.2975432648132141
 51
351.7024567351866722
  0
ARC
  5
6211
  8
0
 10
2631.8093916972898114
 20
101.4912417113691987
 30
0.0
 40
63.7977892728735014
 50
83.8851577351400124
 51
96.1148422648600018
  0
ENDSEC
  0
EOF
