  0
SECTION
  2
HEADER
  9
$ACADVER
  1
AC1009
  9
$INSBASE
 10
2622.054821377611006
 20
146.6313483048157877
 30
0.0
  9
$EXTMIN
 10
2600.8127282588111484
 20
146.6266860723679031
 30
0.0
  9
$EXTMAX
 10
2622.054821377611006
 20
164.8513483048157866
 30
0.0
  9
$LIMMIN
 10
0.0
 20
0.0
  9
$LIMMAX
 10
11.6929133858000007
 20
8.2677165353999982
  9
$ORTHOMODE
 70
     0
  9
$REGENMODE
 70
     1
  9
$FILLMODE
 70
     1
  9
$QTEXTMODE
 70
     0
  9
$MIRRTEXT
 70
     0
  9
$DRAGMODE
 70
     2
  9
$LTSCALE
 40
0.6431102362
  9
$OSMODE
 70
  3839
  9
$ATTMODE
 70
     1
  9
$TEXTSIZE
 40
0.2
  9
$TRACEWID
 40
0.05
  9
$TEXTSTYLE
  7
STANDARD
  9
$CLAYER
  8
0
  9
$CELTYPE
  6
BYLAYER
  9
$CECOLOR
 62
   256
  9
$DIMSCALE
 40
1.0
  9
$DIMASZ
 40
0.1875
  9
$DIMEXO
 40
0.0625
  9
$DIMDLI
 40
0.4443307087
  9
$DIMRND
 40
0.0
  9
$DIMDLE
 40
0.0
  9
$DIMEXE
 40
0.125
  9
$DIMTP
 40
0.01
  9
$DIMTM
 40
0.01
  9
$DIMTXT
 40
2.0
  9
$DIMCEN
 40
0.1052362205
  9
$DIMTSZ
 40
0.0
  9
$DIMTOL
 70
     1
  9
$DIMLIM
 70
     0
  9
$DIMTIH
 70
     1
  9
$DIMTOH
 70
     1
  9
$DIMSE1
 70
     0
  9
$DIMSE2
 70
     0
  9
$DIMTAD
 70
     0
  9
$DIMZIN
 70
     0
  9
$DIMBLK
  1

  9
$DIMASO
 70
     1
  9
$DIMSHO
 70
     1
  9
$DIMPOST
  1
\X
  9
$DIMAPOST
  1

  9
$DIMALT
 70
     1
  9
$DIMALTD
 70
     2
  9
$DIMALTF
 40
25.3999999999999986
  9
$DIMLFAC
 40
1.0
  9
$DIMTOFL
 70
     0
  9
$DIMTVP
 40
0.0
  9
$DIMTIX
 70
     0
  9
$DIMSOXD
 70
     0
  9
$DIMSAH
 70
     0
  9
$DIMBLK1
  1

  9
$DIMBLK2
  1

  9
$DIMSTYLE
  2
STANDARD
  9
$DIMCLRD
 70
     0
  9
$DIMCLRE
 70
     0
  9
$DIMCLRT
 70
     0
  9
$DIMTFAC
 40
1.0
  9
$DIMGAP
 40
0.09
  9
$LUNITS
 70
     2
  9
$LUPREC
 70
     4
  9
$SKETCHINC
 40
0.1
  9
$FILLETRAD
 40
0.0
  9
$AUNITS
 70
     0
  9
$AUPREC
 70
     0
  9
$MENU
  1
.
  9
$ELEVATION
 40
0.0
  9
$PELEVATION
 40
0.0
  9
$THICKNESS
 40
0.0
  9
$LIMCHECK
 70
     0
  9
$BLIPMODE
 70
     0
  9
$CHAMFERA
 40
0.0
  9
$CHAMFERB
 40
0.0
  9
$SKPOLY
 70
     0
  9
$TDCREATE
 40
2458060.468368056230247
  9
$TDUPDATE
 40
2459073.5037847221828997
  9
$TDINDWG
 40
0.2986991898
  9
$TDUSRTIMER
 40
0.2986991898
  9
$USRTIMER
 70
     1
  9
$ANGBASE
 50
0.0
  9
$ANGDIR
 70
     0
  9
$PDMODE
 70
     0
  9
$PDSIZE
 40
0.3125
  9
$PLINEWID
 40
0.0
  9
$COORDS
 70
     1
  9
$SPLFRAME
 70
     0
  9
$SPLINETYPE
 70
     6
  9
$SPLINESEGS
 70
     8
  9
$ATTDIA
 70
     1
  9
$ATTREQ
 70
     1
  9
$HANDLING
 70
     1
  9
$HANDSEED
  5
6657
  9
$SURFTAB1
 70
     6
  9
$SURFTAB2
 70
     6
  9
$SURFTYPE
 70
     6
  9
$SURFU
 70
     6
  9
$SURFV
 70
     6
  9
$UCSNAME
  2

  9
$UCSORG
 10
0.0
 20
0.0
 30
0.0
  9
$UCSXDIR
 10
1.0
 20
0.0
 30
0.0
  9
$UCSYDIR
 10
0.0
 20
1.0
 30
0.0
  9
$PUCSNAME
  2

  9
$PUCSORG
 10
0.0
 20
0.0
 30
0.0
  9
$PUCSXDIR
 10
1.0
 20
0.0
 30
0.0
  9
$PUCSYDIR
 10
0.0
 20
1.0
 30
0.0
  9
$USERI1
 70
     0
  9
$USERI2
 70
     0
  9
$USERI3
 70
     0
  9
$USERI4
 70
     0
  9
$USERI5
 70
     0
  9
$USERR1
 40
0.0
  9
$USERR2
 40
0.0
  9
$USERR3
 40
0.0
  9
$USERR4
 40
0.0
  9
$USERR5
 40
0.0
  9
$WORLDVIEW
 70
     1
  9
$SHADEDGE
 70
     3
  9
$SHADEDIF
 70
    70
  9
$TILEMODE
 70
     1
  9
$MAXACTVP
 70
    64
  9
$PLIMCHECK
 70
     0
  9
$PEXTMIN
 10
1.0000000000000000E+20
 20
1.0000000000000000E+20
 30
1.0000000000000000E+20
  9
$PEXTMAX
 10
-1.0000000000000000E+20
 20
-1.0000000000000000E+20
 30
-1.0000000000000000E+20
  9
$PLIMMIN
 10
0.0
 20
0.0
  9
$PLIMMAX
 10
12.0
 20
9.0
  9
$UNITMODE
 70
     0
  9
$VISRETAIN
 70
     1
  9
$PLINEGEN
 70
     0
  9
$PSLTSCALE
 70
     1
  0
ENDSEC
  0
SECTION
  2
TABLES
  0
TABLE
  2
VPORT
 70
     1
  0
VPORT
  2
*ACTIVE
 70
     0
 10
0.0
 20
0.0
 11
1.0
 21
1.0
 12
0.0
 22
0.0
 13
0.0
 23
0.0
 14
1.0
 24
1.0
 15
0.0
 25
0.0
 16
0.0
 26
0.0
 36
116.2196167152542046
 17
2611.437744140625
 27
155.7390174746604998
 37
0.0
 40
27.9942866068439713
 41
3.314341846758349
 42
50.0
 43
0.0
 44
0.0
 50
0.0
 51
0.0
 71
     0
 72
   100
 73
     1
 74
     1
 75
     0
 76
     0
 77
     0
 78
     0
  0
ENDTAB
  0
TABLE
  2
LTYPE
 70
     2
  0
LTYPE
  2
CONTINUOUS
 70
     0
  3
Solid line
 72
    65
 73
     0
 40
0.0
  0
LTYPE
  2
PHANTOM2
 70
     0
  3
___ _ _ ___ _ _ ___ _ _ ___ _ _
 72
    65
 73
     6
 40
1.25
 49
0.625
 49
-0.125
 49
0.125
 49
-0.125
 49
0.125
 49
-0.125
  0
ENDTAB
  0
TABLE
  2
LAYER
 70
     2
  0
LAYER
  2
0
 70
     0
 62
   255
  6
CONTINUOUS
  0
LAYER
  2
DEFPOINTS
 70
     0
 62
     7
  6
CONTINUOUS
  0
ENDTAB
  0
TABLE
  2
STYLE
 70
     1
  0
STYLE
  2
STANDARD
 70
     0
 40
0.0
 41
0.8
 50
0.0
 71
     0
 42
0.2
  3
txt
  4

  0
ENDTAB
  0
TABLE
  2
VIEW
 70
     0
  0
ENDTAB
  0
TABLE
  2
UCS
 70
     0
  0
ENDTAB
  0
TABLE
  2
APPID
 70
     9
  0
APPID
  2
ACAD
 70
     0
  0
APPID
  2
ACAD_MLEADERVER
 70
     0
  0
APPID
  2
ACAD_EXEMPT_FROM_CAD_STANDARDS
 70
     0
  0
APPID
  2
ACAD_NAV_VCDISPLAY
 70
     0
  0
APPID
  2
ACAECLAYERSTANDARD
 70
     0
  0
APPID
  2
ACCMTRANSPARENCY
 70
     0
  0
APPID
  2
ACAD_DSTYLE_DIMJAG
 70
     0
  0
APPID
  2
ACAD_DSTYLE_DIMTALN
 70
     0
  0
APPID
  2
ACDBATTR
 70
     0
  0
ENDTAB
  0
TABLE
  2
DIMSTYLE
 70
     1
  0
DIMSTYLE
  2
STANDARD
 70
     0
  3

  4

  5

  6

  7

 40
1.0
 41
0.1875
 42
0.0625
 43
0.38
 44
0.125
 45
0.0
 46
0.0
 47
0.01
 48
0.01
140
0.15625
141
0.09
142
0.0
143
25.3999999999999986
144
1.0
145
0.0
146
1.0
147
0.09
 71
     1
 72
     0
 73
     1
 74
     1
 75
     0
 76
     0
 77
     0
 78
     4
170
     0
171
     2
172
     0
173
     0
174
     0
175
     0
176
     0
177
     0
178
     0
  0
ENDTAB
  0
ENDSEC
  0
SECTION
  2
BLOCKS
  0
BLOCK
  8
0
  2
$MODEL_SPACE
 70
     0
 10
0.0
 20
0.0
 30
0.0
  3
$MODEL_SPACE
  1

  0
ENDBLK
  5
21
  8
0
  0
BLOCK
 67
     1
  8
0
  2
$PAPER_SPACE
 70
     0
 10
0.0
 20
0.0
 30
0.0
  3
$PAPER_SPACE
  1

  0
ENDBLK
  5
1D
 67
     1
  8
0
  0
BLOCK
  8
0
  2
_FILLED
 70
     0
 10
0.0
 20
0.0
 30
0.0
  3
_FILLED
  1

  0
SOLID
  5
5582
  8
0
  6
BYBLOCK
 62
     0
 10
0.0
 20
0.0
 30
0.0
 11
-1.0
 21
0.1666666667
 31
0.0
 12
-1.0
 22
-0.1666666667
 32
0.0
 13
-1.0
 23
-0.1666666667
 33
0.0
  0
ENDBLK
  5
5583
  8
0
  6
BYBLOCK
 62
     0
  0
ENDSEC
  0
SECTION
  2
ENTITIES
  0
ATTDEF
  5
3930
  8
DEFPOINTS
 10
2622.0438736905530277
 20
146.6300194057012902
 30
0.0
 40
0.001
  1
K-8752K-W
  3

  2
MODELNUMBER
 70
     0
1001
ACDBATTR
1070
     0
1070
     1
  0
ATTDEF
  5
3931
  8
DEFPOINTS
 10
2622.0438736905530277
 20
146.6283527390345967
 30
0.0
 40
0.001
  1
ODEON
  3

  2
TRADENAME
 70
     0
1001
ACDBATTR
1070
     0
1070
     1
  0
ATTDEF
  5
3932
  8
DEFPOINTS
 10
2622.0438736905530277
 20
146.6266860723679031
 30
0.0
 40
0.001
  1
TOILET
  3

  2
PRODUCT
 70
     0
1001
ACDBATTR
1070
     0
1070
     1
  0
LINE
  5
62E9
  8
0
 10
2601.0222936359109553
 20
162.3873120811157946
 30
0.0
 11
2618.4177868661108732
 21
162.3873120811157946
 31
0.0
  0
LINE
  5
62EA
  8
0
 10
2600.8909394406000501
 20
162.5132981099629887
 30
0.0
 11
2616.7830737884819428
 21
162.5132981099629887
 31
0.0
  0
LINE
  5
62EB
  8
0
 10
2622.054821377611006
 20
163.7124813868589115
 30
0.0
 11
2622.054821377611006
 21
148.8323846598844113
 31
0.0
  0
ARC
  5
62EC
  8
0
 10
-604232.7047578581841663
 20
-34765673.9815440997481346
 30
0.0
 40
34771130.4397836700081825
 50
88.9999755118783327
 51
89.000008140748335
  0
ARC
  5
62ED
  8
0
 10
2602.0714675696549421
 20
157.309204128102607
 30
0.0
 40
3.428660260173185
 50
86.9092494875927599
 51
104.3113905895798013
  0
ARC
  5
62EE
  8
0
 10
2622.0154064594948977
 20
148.8344283427211963
 30
0.0
 40
0.0394678655312769
 50
271.0457732415629266
 51
357.0318437619479255
  0
ARC
  5
62EF
  8
0
 10
3061.7851588947919481
 20
8567.3929650850404869
 30
0.0
 40
8430.0764560052321031
 50
266.9930954469527933
 51
267.0097125492632131
  0
ARC
  5
62F0
  8
0
 10
2954.7005200531839364
 20
6605.3274878152578822
 30
0.0
 40
6465.0962926742031414
 50
266.9723212626877853
 51
267.0286733894694748
  0
ARC
  5
62F1
  8
0
 10
2613.3499725591718743
 20
151.6165639089859098
 30
0.0
 40
2.36429412407267
 50
183.1486367488834048
 51
266.9615738201002273
  0
ARC
  5
62F2
  8
0
 10
2111.587265891223069
 20
118.0039323672436069
 30
0.0
 40
500.523161440984893
 50
3.8356967921033269
 51
4.1643031958056591
  0
ARC
  5
62F3
  8
0
 10
2609.6107716922779218
 20
154.2679398152243948
 30
0.0
 40
1.1811086085132969
 50
4.000368398534861
 51
79.8943264401583519
  0
ARC
  5
62F4
  8
0
 10
3580.4691648552870902
 20
5601.5613798793674505
 30
0.0
 40
5531.9528895647572426
 50
259.8529970822817177
 51
259.8944170134645901
  0
ARC
  5
62F5
  8
0
 10
2606.7135269544210132
 20
160.7844278592571072
 30
0.0
 40
4.7244806805364528
 50
231.0855176236705972
 51
259.8528502338090789
  0
ARC
  5
62F6
  8
0
 10
2608.8437842277239724
 20
163.421722592995792
 30
0.0
 40
8.1146604861975415
 50
188.9476254926863135
 51
231.079321488750395
  0
ARC
  5
62F7
  8
0
 10
2601.0222936358800325
 20
162.190461687473487
 30
0.0
 40
0.1968503936422738
 50
89.9999999911152031
 51
189.0090183333651908
  0
ARC
  5
62F8
  8
0
 10
2618.4020277984081986
 20
163.0633838689666959
 30
0.0
 40
0.676255416511209
 50
271.3352491575417957
 51
328.2831341689582132
  0
ARC
  5
62F9
  8
0
 10
2619.2164916601368532
 20
162.5935189002078971
 30
0.0
 40
0.2651268281237539
 50
115.9737891257896933
 51
154.4514993457617891
  0
ARC
  5
62FA
  8
0
 10
2582.7917833440719733
 20
238.7135718433372062
 30
0.0
 40
84.1210268954745146
 50
295.5706216357045264
 51
296.5357906146713276
  0
ARC
  5
62FB
  8
0
 10
2620.7297467743492234
 20
162.9169140328878882
 30
0.0
 40
0.644734580721492
 50
98.5622543403072342
 51
123.5504436227349032
  0
LINE
  5
62FC
  8
0
 10
2620.6337561547838959
 20
163.5544628392813138
 30
0.0
 11
2622.0099720183111458
 21
163.7478771365157968
 31
0.0
  0
ARC
  5
62FD
  8
0
 10
2622.0155471193979793
 20
163.7088294439745084
 30
0.0
 40
0.0394436819394726
 50
5.3124101531070531
 51
98.125586029095615
  0
ARC
  5
62FE
  8
0
 10
2616.7454015831149263
 20
160.5771314694138994
 30
0.0
 40
0.3046202335392092
 50
290.0625970347514908
 51
340.4026051359184066
  0
ARC
  5
62FF
  8
0
 10
667.2750614492590557
 20
-108028.6210999967006501
 30
0.0
 40
108206.4764354974031448
 50
88.9676361514482039
 51
88.9678834662706635
  0
ARC
  5
6300
  8
0
 10
2582.2638453862850838
 20
165.9194501014681862
 30
0.0
 40
34.578826647865867
 50
341.7370463494328874
 51
350.6463185033707077
  0
ARC
  5
6301
  8
0
 10
2606.379444674703791
 20
156.6816101343250125
 30
0.0
 40
8.866698690890038
 50
327.5775806874308955
 51
349.6143722414925037
  0
LINE
  5
6302
  8
0
 10
2613.8639863849111862
 20
151.9276663964157876
 30
0.0
 11
2613.8462925003759665
 21
149.2227435356919045
 31
0.0
  0
ARC
  5
6303
  8
0
 10
2617.9354558757981977
 20
153.3705271374124095
 30
0.0
 40
3.3118036493091538
 50
76.0179604664255208
 51
148.859484822680912
  0
LINE
  5
6304
  8
0
 10
2618.7356463419109787
 20
156.5842070576157994
 30
0.0
 11
2618.7349265797379303
 21
160.4452405284930023
 31
0.0
  0
LINE
  5
6305
  8
0
 10
2619.1026415086657835
 20
160.4388219129133972
 30
0.0
 11
2619.272039639211016
 21
150.7340095067158074
 31
0.0
  0
ARC
  5
6306
  8
0
 10
2629.9003193250900949
 20
150.9195268186396106
 30
0.0
 40
10.6298986709326098
 50
180.9999999996304894
 51
188.7868316242395963
  0
ARC
  5
6307
  8
0
 10
2620.0982663779591348
 20
149.4043955790556026
 30
0.0
 40
0.711437870408886
 50
188.7868316242395963
 51
222.5973823215998948
  0
ARC
  5
6308
  8
0
 10
2600.8914684163109996
 20
162.5920364906158113
 30
0.0
 40
0.0787401575000002
 50
173.9999999999986073
 51
269.615084542830175
  0
LINE
  5
6309
  8
0
 10
2600.8131596056318813
 20
162.600267078276687
 30
0.0
 11
2600.8854804738762141
 21
163.2883541763929998
 31
0.0
  0
ARC
  5
630A
  8
0
 10
2601.472797022855957
 20
163.2266247196536142
 30
0.0
 40
0.5905516527238543
 50
104.0509660907794967
 51
174.000000000000199
  0
ARC
  5
630B
  8
0
 10
2606.3682938209071835
 20
143.6660005207021982
 30
0.0
 40
20.7544775589637212
 50
94.2394290349158723
 51
104.0509660907794967
  0
ARC
  5
630C
  8
0
 10
2618.1729788150760214
 20
-16.7384049881846089
 30
0.0
 40
181.5926666197281065
 50
90.3245515252119873
 51
94.2124744221367081
  0
ARC
  5
630D
  8
0
 10
2616.835837443858054
 20
129.6351864941493943
 30
0.0
 40
35.2175131877340988
 50
87.3830162246016044
 51
89.4980644587647873
  0
ARC
  5
630E
  8
0
 10
2618.4247855590201652
 20
164.7113888241582913
 30
0.0
 40
0.1063029969917107
 50
293.3314557723123812
 51
79.6754771521651435
  0
LINE
  5
630F
  8
0
 10
2618.4668868265612218
 20
164.613778320415804
 30
0.0
 11
2618.4294300556371127
 21
164.5948897988290014
 31
0.0
  0
ARC
  5
6310
  8
0
 10
2618.1418736362920754
 20
164.222064511664712
 30
0.0
 40
0.4708369028183647
 50
3.2078342500373891
 51
52.3573568067082107
  0
ARC
  5
6311
  8
0
 10
2604.1689510473779592
 20
162.9544901666228043
 30
0.0
 40
0.5595014439081212
 50
232.0497450630693947
 51
267.2722505225410146
  0
LINE
  5
6312
  8
0
 10
2604.1423242465111798
 20
162.3956226696157898
 30
0.0
 11
2604.5549827800100502
 21
162.395186114115802
 31
0.0
  0
ARC
  5
6313
  8
0
 10
2604.5511278579378995
 20
162.9253454941404016
 30
0.0
 40
0.5301733948928807
 50
270.4166046683129139
 51
308.9956600610469195
  0
ARC
  5
6314
  8
0
 10
2612.3632742181212052
 20
163.0644007421417996
 30
0.0
 40
0.5904744844395673
 50
248.958668979162411
 51
291.0413310208376174
  0
ARC
  5
6315
  8
0
 10
2616.7795529016989349
 20
163.7415731649080897
 30
0.0
 40
1.2282799275541501
 50
270.1572216368580825
 51
298.4256192858352961
  0
ARC
  5
6316
  8
0
 10
2631.4828216610608251
 20
136.9956875597119961
 30
0.0
 40
29.2926992630710892
 50
117.2904635848775001
 51
118.8150017692157974
  0
ARC
  5
6317
  8
0
 10
2617.5227060924062243
 20
164.0370743463568033
 30
0.0
 40
1.1395692648731459
 50
297.679846068246718
 51
305.2626631854893731
  0
LINE
  5
6318
  8
0
 10
2618.1806086765018335
 20
163.1066001128158121
 30
0.0
 11
2618.4927611943380725
 21
163.1086455302296088
 31
0.0
  0
ARC
  5
6319
  8
0
 10
2618.2222493749382011
 20
163.3262153593877031
 30
0.0
 40
0.3471502196378339
 50
270.7084066927271238
 51
321.1906434009630971
  0
LINE
  5
631A
  8
0
 10
2617.0876109087289478
 20
162.552551783798009
 30
0.0
 11
2617.2087910644709154
 21
162.5529756413845064
 31
0.0
  0
ARC
  5
631B
  8
0
 10
2617.2007222637798804
 20
162.6303092831215906
 30
0.0
 40
0.0777534416530166
 50
275.9565471978684741
 51
351.4940364437566132
  0
LINE
  5
631C
  8
0
 10
2617.8202352675220936
 20
162.906997120515797
 30
0.0
 11
2618.3612338579778225
 21
162.906997120515797
 31
0.0
  0
ARC
  5
631D
  8
0
 10
2618.3560779572790125
 20
163.2626990649285119
 30
0.0
 40
0.3557393098478365
 50
270.8304443306349754
 51
2.7668915255955131
  0
LINE
  5
631E
  8
0
 10
2617.957867284940221
 20
162.9791022552554978
 30
0.0
 11
2618.3140918739841254
 21
162.9790882255879865
 31
0.0
  0
ARC
  5
631F
  8
0
 10
2618.2771323142260371
 20
163.3674395900989111
 30
0.0
 40
0.3901061283483059
 50
275.4364889585376091
 51
3.0396144076874498
  0
ARC
  5
6320
  8
0
 10
2618.181156430466217
 20
163.6967042998385864
 30
0.0
 40
0.5090181398520021
 50
2.9128569694227808
 51
27.6514877706337003
  0
LINE
  5
6321
  8
0
 10
2618.5061101013561711
 20
162.3951860969158929
 30
0.0
 11
2617.4715424008109039
 21
162.3951860969158076
 31
0.0
  0
LINE
  5
6322
  8
0
 10
2617.4715424008109039
 20
162.3951860969158076
 30
0.0
 11
2617.4715424007108595
 21
162.4345561752157892
 31
0.0
  0
ARC
  5
6323
  8
0
 10
2617.6290227157110166
 20
162.4345561756157963
 30
0.0
 40
0.1574803149999937
 50
112.0243129342904069
 51
180.0000001455242113
  0
ARC
  5
6324
  8
0
 10
2617.5109124786381471
 20
162.7265324946872056
 30
0.0
 40
0.1574803158729826
 50
292.0243129342904922
 51
359.9999997557334268
  0
LINE
  5
6325
  8
0
 10
2617.6683927945109644
 20
162.7265324940157996
 30
0.0
 11
2617.6683927949361532
 21
162.8263628358157007
 31
0.0
  0
LINE
  5
6326
  8
0
 10
2617.7668178991698369
 20
162.878760617610908
 30
0.0
 11
2617.7668186179112126
 21
162.5920287675488964
 31
0.0
  0
ARC
  5
6327
  8
0
 10
2617.806181072248819
 20
162.5920288662173903
 30
0.0
 40
0.0393624543382913
 50
180.0001436213136117
 51
270.0024748919128115
  0
LINE
  5
6328
  8
0
 10
2617.8061827725109652
 20
162.5526664119157942
 30
0.0
 11
2618.5345421859210546
 21
162.5526978734098975
 31
0.0
  0
ARC
  5
6329
  8
0
 10
2618.5345404856138884
 20
162.5920613793988991
 30
0.0
 40
0.0393635060256796
 50
270.0024748919128115
 51
359.952672767991487
  0
LINE
  5
632A
  8
0
 10
2618.5739039782110922
 20
162.5920288645158109
 30
0.0
 11
2618.5742258507129918
 21
162.9816973689171107
 31
0.0
  0
ARC
  5
632B
  8
0
 10
2618.7116998811111444
 20
162.4345561756159952
 30
0.0
 40
0.1574803149997974
 50
41.6649616896545325
 51
67.9756870049435236
  0
ARC
  5
632C
  8
0
 10
2618.829810118678779
 20
162.7265324950213028
 30
0.0
 40
0.1574803163684962
 50
180.0000003294277064
 51
247.9756870049434951
  0
LINE
  5
632D
  8
0
 10
2618.6723298023111965
 20
162.7265324941157871
 30
0.0
 11
2618.672329800164789
 21
163.0998026916037986
 31
0.0
  0
LINE
  5
632E
  8
0
 10
2618.6666896065112269
 20
163.3881255129157921
 30
0.0
 11
2618.6119727952109315
 21
164.248411614715792
 31
0.0
  0
LINE
  5
632F
  8
0
 10
2618.7114025457108255
 20
163.2798715262157998
 30
0.0
 11
2618.6895169082749817
 21
163.7225710990221046
 31
0.0
  0
LINE
  5
6330
  8
0
 10
2617.5581672443108801
 20
162.3873120811157946
 30
0.0
 11
2617.5581672443108801
 21
162.3951860969158076
 31
0.0
  0
ENDSEC
  0
EOF
