  0
SECTION
  2
HEADER
  9
$ACADVER
  1
AC1009
  9
$INSBASE
 10
3593.1671943511778409
 20
192.8266851186164956
 30
0.0
  9
$EXTMIN
 10
3585.3129911864139103
 20
192.8183670558692029
 30
-0.0015258207003583
  9
$EXTMAX
 10
3600.9722547690989813
 20
223.8486904267591058
 30
0.0000000349246037
  9
$LIMMIN
 10
0.0
 20
0.0
  9
$LIMMAX
 10
11.6929133858000007
 20
8.2677165353999982
  9
$ORTHOMODE
 70
     0
  9
$REGENMODE
 70
     1
  9
$FILLMODE
 70
     1
  9
$QTEXTMODE
 70
     0
  9
$MIRRTEXT
 70
     0
  9
$DRAGMODE
 70
     2
  9
$LTSCALE
 40
0.6431102362
  9
$OSMODE
 70
  4095
  9
$ATTMODE
 70
     1
  9
$TEXTSIZE
 40
0.2
  9
$TRACEWID
 40
0.05
  9
$TEXTSTYLE
  7
STANDARD
  9
$CLAYER
  8
0
  9
$CELTYPE
  6
BYLAYER
  9
$CECOLOR
 62
   256
  9
$DIMSCALE
 40
1.0
  9
$DIMASZ
 40
0.1875
  9
$DIMEXO
 40
0.0625
  9
$DIMDLI
 40
0.4443307087
  9
$DIMRND
 40
0.0
  9
$DIMDLE
 40
0.0
  9
$DIMEXE
 40
0.125
  9
$DIMTP
 40
0.01
  9
$DIMTM
 40
0.01
  9
$DIMTXT
 40
2.0
  9
$DIMCEN
 40
0.1052362205
  9
$DIMTSZ
 40
0.0
  9
$DIMTOL
 70
     1
  9
$DIMLIM
 70
     0
  9
$DIMTIH
 70
     1
  9
$DIMTOH
 70
     1
  9
$DIMSE1
 70
     0
  9
$DIMSE2
 70
     0
  9
$DIMTAD
 70
     0
  9
$DIMZIN
 70
     0
  9
$DIMBLK
  1

  9
$DIMASO
 70
     1
  9
$DIMSHO
 70
     1
  9
$DIMPOST
  1
\X
  9
$DIMAPOST
  1

  9
$DIMALT
 70
     1
  9
$DIMALTD
 70
     2
  9
$DIMALTF
 40
25.3999999999999986
  9
$DIMLFAC
 40
1.0
  9
$DIMTOFL
 70
     0
  9
$DIMTVP
 40
0.0
  9
$DIMTIX
 70
     0
  9
$DIMSOXD
 70
     0
  9
$DIMSAH
 70
     0
  9
$DIMBLK1
  1

  9
$DIMBLK2
  1

  9
$DIMSTYLE
  2
STANDARD
  9
$DIMCLRD
 70
     0
  9
$DIMCLRE
 70
     0
  9
$DIMCLRT
 70
     0
  9
$DIMTFAC
 40
1.0
  9
$DIMGAP
 40
0.09
  9
$LUNITS
 70
     2
  9
$LUPREC
 70
     4
  9
$SKETCHINC
 40
0.1
  9
$FILLETRAD
 40
0.0
  9
$AUNITS
 70
     0
  9
$AUPREC
 70
     0
  9
$MENU
  1
.
  9
$ELEVATION
 40
0.0
  9
$PELEVATION
 40
0.0
  9
$THICKNESS
 40
0.0
  9
$LIMCHECK
 70
     0
  9
$BLIPMODE
 70
     0
  9
$CHAMFERA
 40
0.0
  9
$CHAMFERB
 40
0.0
  9
$SKPOLY
 70
     0
  9
$TDCREATE
 40
2458060.468368056230247
  9
$TDUPDATE
 40
2459074.8337268522009254
  9
$TDINDWG
 40
0.5494052082999999
  9
$TDUSRTIMER
 40
0.5494052082999999
  9
$USRTIMER
 70
     1
  9
$ANGBASE
 50
0.0
  9
$ANGDIR
 70
     0
  9
$PDMODE
 70
     0
  9
$PDSIZE
 40
0.3125
  9
$PLINEWID
 40
0.0
  9
$COORDS
 70
     1
  9
$SPLFRAME
 70
     0
  9
$SPLINETYPE
 70
     6
  9
$SPLINESEGS
 70
     8
  9
$ATTDIA
 70
     1
  9
$ATTREQ
 70
     1
  9
$HANDLING
 70
     1
  9
$HANDSEED
  5
AD3B
  9
$SURFTAB1
 70
     6
  9
$SURFTAB2
 70
     6
  9
$SURFTYPE
 70
     6
  9
$SURFU
 70
     6
  9
$SURFV
 70
     6
  9
$UCSNAME
  2

  9
$UCSORG
 10
0.0
 20
0.0
 30
0.0
  9
$UCSXDIR
 10
1.0
 20
0.0
 30
0.0
  9
$UCSYDIR
 10
0.0
 20
1.0
 30
0.0
  9
$PUCSNAME
  2

  9
$PUCSORG
 10
0.0
 20
0.0
 30
0.0
  9
$PUCSXDIR
 10
1.0
 20
0.0
 30
0.0
  9
$PUCSYDIR
 10
0.0
 20
1.0
 30
0.0
  9
$USERI1
 70
     0
  9
$USERI2
 70
     0
  9
$USERI3
 70
     0
  9
$USERI4
 70
     0
  9
$USERI5
 70
     0
  9
$USERR1
 40
0.0
  9
$USERR2
 40
0.0
  9
$USERR3
 40
0.0
  9
$USERR4
 40
0.0
  9
$USERR5
 40
0.0
  9
$WORLDVIEW
 70
     1
  9
$SHADEDGE
 70
     3
  9
$SHADEDIF
 70
    70
  9
$TILEMODE
 70
     1
  9
$MAXACTVP
 70
    64
  9
$PLIMCHECK
 70
     0
  9
$PEXTMIN
 10
1.0000000000000000E+20
 20
1.0000000000000000E+20
 30
1.0000000000000000E+20
  9
$PEXTMAX
 10
-1.0000000000000000E+20
 20
-1.0000000000000000E+20
 30
-1.0000000000000000E+20
  9
$PLIMMIN
 10
0.0
 20
0.0
  9
$PLIMMAX
 10
12.0
 20
9.0
  9
$UNITMODE
 70
     0
  9
$VISRETAIN
 70
     1
  9
$PLINEGEN
 70
     0
  9
$PSLTSCALE
 70
     1
  0
ENDSEC
  0
SECTION
  2
TABLES
  0
TABLE
  2
VPORT
 70
     1
  0
VPORT
  2
*ACTIVE
 70
     0
 10
0.0
 20
0.0
 11
1.0
 21
1.0
 12
289.4495077433812185
 22
13.0720171654263595
 13
0.0
 23
0.0
 14
1.0
 24
1.0
 15
0.0
 25
0.0
 16
0.0
 26
0.0
 36
96.5995694866707311
 17
3303.693115234375
 27
195.2615115758877096
 37
0.0
 40
31.2885507498431608
 41
2.6486111111111108
 42
50.0
 43
0.0
 44
0.0
 50
0.0
 51
0.0
 71
     0
 72
   100
 73
     1
 74
     1
 75
     0
 76
     0
 77
     0
 78
     0
  0
ENDTAB
  0
TABLE
  2
LTYPE
 70
     2
  0
LTYPE
  2
CONTINUOUS
 70
     0
  3
Solid line
 72
    65
 73
     0
 40
0.0
  0
LTYPE
  2
PHANTOM2
 70
     0
  3
___ _ _ ___ _ _ ___ _ _ ___ _ _
 72
    65
 73
     6
 40
1.25
 49
0.625
 49
-0.125
 49
0.125
 49
-0.125
 49
0.125
 49
-0.125
  0
ENDTAB
  0
TABLE
  2
LAYER
 70
     2
  0
LAYER
  2
0
 70
     0
 62
   255
  6
CONTINUOUS
  0
LAYER
  2
DEFPOINTS
 70
     0
 62
     7
  6
CONTINUOUS
  0
ENDTAB
  0
TABLE
  2
STYLE
 70
     1
  0
STYLE
  2
STANDARD
 70
     0
 40
0.0
 41
0.8
 50
0.0
 71
     0
 42
0.2
  3
txt
  4

  0
ENDTAB
  0
TABLE
  2
VIEW
 70
     0
  0
ENDTAB
  0
TABLE
  2
UCS
 70
     0
  0
ENDTAB
  0
TABLE
  2
APPID
 70
     9
  0
APPID
  2
ACAD
 70
     0
  0
APPID
  2
ACAD_MLEADERVER
 70
     0
  0
APPID
  2
ACAD_EXEMPT_FROM_CAD_STANDARDS
 70
     0
  0
APPID
  2
ACAD_NAV_VCDISPLAY
 70
     0
  0
APPID
  2
ACAECLAYERSTANDARD
 70
     0
  0
APPID
  2
ACCMTRANSPARENCY
 70
     0
  0
APPID
  2
ACAD_DSTYLE_DIMJAG
 70
     0
  0
APPID
  2
ACAD_DSTYLE_DIMTALN
 70
     0
  0
APPID
  2
ACDBATTR
 70
     0
  0
ENDTAB
  0
TABLE
  2
DIMSTYLE
 70
     1
  0
DIMSTYLE
  2
STANDARD
 70
     0
  3

  4

  5

  6

  7

 40
1.0
 41
0.1875
 42
0.0625
 43
0.38
 44
0.125
 45
0.0
 46
0.0
 47
0.01
 48
0.01
140
0.15625
141
0.09
142
0.0
143
25.3999999999999986
144
1.0
145
0.0
146
1.0
147
0.09
 71
     1
 72
     0
 73
     1
 74
     1
 75
     0
 76
     0
 77
     0
 78
     4
170
     0
171
     2
172
     0
173
     0
174
     0
175
     0
176
     0
177
     0
178
     0
  0
ENDTAB
  0
ENDSEC
  0
SECTION
  2
BLOCKS
  0
BLOCK
  8
0
  2
$MODEL_SPACE
 70
     0
 10
0.0
 20
0.0
 30
0.0
  3
$MODEL_SPACE
  1

  0
ENDBLK
  5
21
  8
0
  0
BLOCK
 67
     1
  8
0
  2
$PAPER_SPACE
 70
     0
 10
0.0
 20
0.0
 30
0.0
  3
$PAPER_SPACE
  1

  0
ENDBLK
  5
1D
 67
     1
  8
0
  0
BLOCK
  8
0
  2
_FILLED
 70
     0
 10
0.0
 20
0.0
 30
0.0
  3
_FILLED
  1

  0
SOLID
  5
9E2C
  8
0
  6
BYBLOCK
 62
     0
 10
0.0
 20
0.0
 30
0.0
 11
-1.0
 21
0.1666666667
 31
0.0
 12
-1.0
 22
-0.1666666667
 32
0.0
 13
-1.0
 23
-0.1666666667
 33
0.0
  0
ENDBLK
  5
9E2D
  8
0
  6
BYBLOCK
 62
     0
  0
ENDSEC
  0
SECTION
  2
ENTITIES
  0
ATTDEF
  5
97D3
  8
DEFPOINTS
 10
3593.167410105701947
 20
192.830639468062401
 30
0.0
 40
0.001
  1
K-8753IN
  3

  2
MODELNUMBER
 70
     0
1001
ACDBATTR
1070
     0
1070
     1
  0
ATTDEF
  5
97D4
  8
DEFPOINTS
 10
3593.167410105701947
 20
192.8289728013957074
 30
0.0
 40
0.001
  1
ODEON
  3

  2
TRADENAME
 70
     0
1001
ACDBATTR
1070
     0
1070
     1
  0
ATTDEF
  5
97D5
  8
DEFPOINTS
 10
3593.167410105701947
 20
192.8273061347290991
 30
0.0
 40
0.001
  1
TOILET
  3

  2
PRODUCT
 70
     0
1001
ACDBATTR
1070
     0
1070
     1
  0
LINE
  5
AA80
  8
0
 10
3589.0849771882280947
 20
192.8266851186164956
 30
0.0
 11
3597.2494115141289512
 21
192.8266851186164956
 31
0.0
  0
LINE
  5
AA81
  8
0
 10
3589.0849771882280947
 20
192.8266851186164956
 30
0.0
 11
3589.5539013494758365
 21
199.3955577988120069
 31
0.0
  0
ARC
  5
AA82
  8
0
 10
3551.1859943300760278
 20
199.0328735431934888
 30
0.0
 40
38.3696211729883174
 50
0.5415893905553819
 51
1.7724343598595971
  0
ARC
  5
AA83
  8
0
 10
3599.2259737645767927
 20
210.3418122130130996
 30
0.0
 40
14.01176501944067
 50
220.1511614844085898
 51
226.2534104910365897
  0
ARC
  5
AA84
  8
0
 10
3596.8562776102289718
 20
207.9490646469687931
 30
0.0
 40
10.6618850691006894
 50
189.3738014207569051
 51
218.5339887566580046
  0
ARC
  5
AA85
  8
0
 10
3593.1060229478921428
 20
141.1652395810097005
 30
0.0
 40
82.6764783530179699
 50
89.9576074885436157
 51
91.690282935232176
  0
ARC
  5
AA86
  8
0
 10
3594.3515023645659312
 20
119.3405877268917976
 30
0.0
 40
104.5301001570966974
 50
92.019808758856982
 51
93.9006363520843337
  0
ARC
  5
AA87
  8
0
 10
3587.6323863020620593
 20
214.1973769180686133
 30
0.0
 40
9.4392995410068323
 50
92.3781931463555424
 51
97.3060483523026392
  0
ARC
  5
AA88
  8
0
 10
3602.4946241866468881
 20
75.141323726956017
 30
0.0
 40
149.2853744914422975
 50
96.1767995135018481
 51
96.4362694644588032
  0
ARC
  5
AA89
  8
0
 10
3585.7980833168639947
 20
223.1789443034138003
 30
0.0
 40
0.3091819128634967
 50
97.0689382451383267
 51
135.6496949647946053
  0
ARC
  5
AA8A
  8
0
 10
3585.814017879405128
 20
223.1683481735630892
 30
0.0
 40
0.3280028828020549
 50
136.2718985862144052
 51
177.2179056660899903
  0
ARC
  5
AA8B
  8
0
 10
3718.922006946097099
 20
220.626741088294807
 30
0.0
 40
133.4601128521117062
 50
178.9019602738979131
 51
179.2907255976986107
  0
ARC
  5
AA8C
  8
0
 10
3585.5726154038729874
 20
222.2775806862711931
 30
0.0
 40
0.1005031643962187
 50
179.2907255976986107
 51
269.7088553091280119
  0
LINE
  5
AA8D
  8
0
 10
3585.5721047059278135
 20
222.1770788194166073
 30
0.0
 11
3600.7622839964287778
 21
222.1770788194166073
 31
0.0
  0
LINE
  5
AA8E
  8
0
 10
3585.7877525333287849
 20
222.1770788194166073
 30
0.0
 11
3585.6540395719289336
 21
221.945508593316589
 31
0.0
  0
ARC
  5
AA8F
  8
0
 10
3586.2675720186630315
 20
221.5912435319158931
 30
0.0
 40
0.7084672165496457
 50
149.9970627393811071
 51
183.0095917509854075
  0
ARC
  5
AA90
  8
0
 10
-45545.76443796185049
 20
-2361.5571863240961648
 30
0.0
 40
49199.1820330723276129
 50
2.9962634915236421
 51
3.0095917509854488
  0
ARC
  5
AA91
  8
0
 10
3593.2103884161610949
 20
150.8575146271267045
 30
0.0
 40
59.7266760926128413
 50
90.041436055066967
 51
92.4057604523475788
  0
ARC
  5
AA92
  8
0
 10
3593.7776285078530236
 20
137.3560200887575888
 30
0.0
 40
73.2400811443099684
 50
92.4057604471058909
 51
95.0353384695306147
  0
ARC
  5
AA93
  8
0
 10
3590.4340094820518061
 20
175.3041733963115121
 30
0.0
 40
35.1449091714298731
 50
95.0353384695306147
 51
96.4800107940925074
  0
ARC
  5
AA94
  8
0
 10
3586.5001980653869396
 20
209.5978506422941052
 30
0.0
 40
0.6275445756926034
 50
92.9706900850809461
 51
122.8663763205743038
  0
ARC
  5
AA95
  8
0
 10
3586.4869961369367957
 20
209.6300499319526125
 30
0.0
 40
0.5933690651102718
 50
123.4829394915122975
 51
173.1446665622455896
  0
ARC
  5
AA96
  8
0
 10
3675.2347672491700905
 20
193.4971386698678941
 30
0.0
 40
90.7945067359924565
 50
169.7195753744896933
 51
170.3689338538314075
  0
ARC
  5
AA97
  8
0
 10
3586.0346304126478572
 20
208.6456623276536106
 30
0.0
 40
0.3174150012699342
 50
172.4509837902855907
 51
178.3472274115704863
  0
ARC
  5
AA98
  8
0
 10
3585.8045316132388507
 20
208.6504794492350925
 30
0.0
 40
0.0872919978026734
 50
177.1515861912756122
 51
213.9316023643727078
  0
ARC
  5
AA99
  8
0
 10
3585.7969155796381528
 20
208.6456840100761951
 30
0.0
 40
0.0782965867218081
 50
214.1310080431221934
 51
250.3981942790840947
  0
ARC
  5
AA9A
  8
0
 10
3585.7970826219147966
 20
208.6381360462283965
 30
0.0
 40
0.0712928411561228
 50
248.23616609274859
 51
270.207836501614679
  0
LINE
  5
AA9B
  8
0
 10
3585.7973412312280743
 20
208.5668436741165124
 30
0.0
 11
3600.5370474711280622
 21
208.5668425710541953
 31
0.0
  0
LINE
  5
AA9C
  8
0
 10
3586.0791860992280817
 20
208.5668425990166099
 30
0.0
 11
3586.0734324564291455
 21
208.5159911625165989
 31
0.0
  0
ARC
  5
AA9D
  8
0
 10
3586.1446323595910144
 20
208.507935169640291
 30
0.0
 40
0.0716542059584105
 50
173.5446585567673026
 51
215.4355983845345861
  0
ARC
  5
AA9E
  8
0
 10
3586.1433920242898239
 20
208.5070525488779083
 30
0.0
 40
0.0701318882951771
 50
215.4355983845345861
 51
270.2520379712772183
  0
LINE
  5
AA9F
  8
0
 10
3586.1437005259290345
 20
208.4369213391165943
 30
0.0
 11
3600.1913051797050684
 21
208.4369213391165943
 31
0.0
  0
ARC
  5
AAA0
  8
0
 10
3588.9319679370710219
 20
207.7694946704230006
 30
0.0
 40
2.8488857003541521
 50
166.4510274758168862
 51
169.7845945202357996
  0
ARC
  5
AAA1
  8
0
 10
3586.9279417117468256
 20
208.1306322078075937
 30
0.0
 40
0.8125798705008535
 50
169.7845945202357996
 51
179.4552220110070095
  0
ARC
  5
AAA2
  8
0
 10
3576.2736443390199383
 20
208.2319381270818042
 30
0.0
 40
9.8421991227847823
 50
358.306075248134789
 51
359.4552220110069811
  0
LINE
  5
AAA3
  8
0
 10
3586.6186144388288994
 20
208.4369213391165943
 30
0.0
 11
3586.6292479478638597
 21
208.3153797744714097
 31
0.0
  0
ARC
  5
AAA4
  8
0
 10
3586.6684682115292162
 20
208.3188111029166123
 30
0.0
 40
0.0393700787000003
 50
184.9999999913125066
 51
270.0
  0
LINE
  5
AAA5
  8
0
 10
3586.6684682115292162
 20
208.2794410242165952
 30
0.0
 11
3588.1258418795277976
 21
208.2794410242165952
 31
0.0
  0
ARC
  5
AAA6
  8
0
 10
3588.1258418795277976
 20
208.3188111519461074
 30
0.0
 40
0.039370127729474
 50
270.0
 51
354.9999097107349257
  0
LINE
  5
AAA7
  8
0
 10
3588.165062186628802
 20
208.3153797574165935
 30
0.0
 11
3588.1756958887040128
 21
208.4369213223590975
 31
0.0
  0
LINE
  5
AAA8
  8
0
 10
3588.5607696019292234
 20
208.4369213391165943
 30
0.0
 11
3588.5782919821281212
 21
208.236639617016607
 31
0.0
  0
ARC
  5
AAA9
  8
0
 10
3588.6175122458498663
 20
208.2400709454736045
 30
0.0
 40
0.0393700787570367
 50
185.0000000013625936
 51
269.9999999692549864
  0
LINE
  5
AAAA
  8
0
 10
3588.6175122458289479
 20
208.2007008667166019
 30
0.0
 11
3590.8755015246279072
 21
208.2007008655045013
 31
0.0
  0
LINE
  5
AAAB
  8
0
 10
3590.8755015246279072
 20
208.2007008655045013
 30
0.0
 11
3590.8755015246279072
 21
208.4369213391165943
 31
0.0
  0
LINE
  5
AAAC
  8
0
 10
3589.5841504143281782
 20
208.2007008661977068
 30
0.0
 11
3589.5841504143281782
 21
208.1810158273165996
 31
0.0
  0
LINE
  5
AAAD
  8
0
 10
3589.5841504143281782
 20
208.1810158273165996
 30
0.0
 11
3590.7888748237278378
 21
208.1810158273165996
 31
0.0
  0
LINE
  5
AAAE
  8
0
 10
3590.7888748237278378
 20
208.1810158273165996
 30
0.0
 11
3590.7888748237278378
 21
208.2007008667166019
 31
0.0
  0
LINE
  5
AAAF
  8
0
 10
3590.0802128373288724
 20
208.1810158273165996
 30
0.0
 11
3590.0802128373288724
 21
208.1704819170165877
 31
0.0
  0
ARC
  5
AAB0
  8
0
 10
3590.3083954238259139
 20
219.8482552913461063
 30
0.0
 40
11.6800024946479297
 50
268.8805883432664245
 51
269.9220761033819826
  0
LINE
  5
AAB1
  8
0
 10
3590.2925102917288314
 20
208.1682635988165941
 30
0.0
 11
3590.2927767613609831
 21
208.1810130429475976
 31
0.0
  0
ARC
  5
AAB2
  8
0
 10
3586.4740106712279157
 20
207.7873216601165893
 30
0.0
 40
0.393700801799879
 50
157.0241288883484003
 51
180.0000000000032117
  0
LINE
  5
AAB3
  8
0
 10
3586.0803098694291293
 20
207.7873216601165893
 30
0.0
 11
3586.0803098694291293
 21
206.3699724612567934
 31
0.0
  0
ARC
  5
AAB4
  8
0
 10
3586.2534676159439186
 20
206.3857917906132116
 30
0.0
 40
0.1738788554127443
 50
185.2199323786038008
 51
265.2429673866881785
  0
ARC
  5
AAB5
  8
0
 10
3586.2383004052721844
 20
232.4542295898484952
 30
0.0
 40
26.242243253376941
 50
270.3626156013738182
 51
271.6671210483049208
  0
ARC
  5
AAB6
  8
0
 10
3586.7926477790970239
 20
213.2414582505332987
 30
0.0
 40
7.0214785422047257
 50
271.7065964088046144
 51
280.1850600485960854
  0
ARC
  5
AAB7
  8
0
 10
3586.7897976436320278
 20
217.4756374962364021
 30
0.0
 40
11.1282678522196701
 50
266.3446022963644282
 51
269.8215312537524824
  0
ARC
  5
AAB8
  8
0
 10
3586.5541110774970548
 20
142.3309135429223033
 30
0.0
 40
64.0168257110557164
 50
88.6751476453952279
 51
89.8200813687922164
  0
ARC
  5
AAB9
  8
0
 10
3593.3067850176371394
 20
197.610527579661607
 30
0.0
 40
3.6046870424325022
 50
92.2193206426387349
 51
122.7022389804534015
  0
ARC
  5
AABA
  8
0
 10
3613.857128868943164
 20
165.6028286416373874
 30
0.0
 40
41.6416351812372412
 50
122.7022389799267046
 51
124.4619940121377937
  0
ARC
  5
AABB
  8
0
 10
3588.7269278683511402
 20
202.2195082141915066
 30
0.0
 40
2.7690417472810709
 50
297.7553122247321085
 51
304.4619940121377795
  0
ARC
  5
AABC
  8
0
 10
3589.7644884003871084
 20
199.8170900941869945
 30
0.0
 40
0.1324103493045357
 50
195.601619982729602
 51
245.5989394989910011
  0
ARC
  5
AABD
  8
0
 10
3589.7680940841851225
 20
199.8367675621265107
 30
0.0
 40
0.1518970395254338
 50
247.4270059573306071
 51
279.2428100471782955
  0
ARC
  5
AABE
  8
0
 10
3589.6651577240731967
 20
200.3798826368791879
 30
0.0
 40
0.7046405500053458
 50
280.4109752034477197
 51
299.9045694043473986
  0
ARC
  5
AABF
  8
0
 10
3589.0552606603828281
 20
199.9116904554678911
 30
0.0
 40
0.5719746800851205
 50
353.527953887299816
 51
32.5747580039258935
  0
ARC
  5
AAC0
  8
0
 10
3589.9273121233381971
 20
199.8747442783086967
 30
0.0
 40
0.3049667640269992
 50
185.1784934906559101
 51
197.807626520098097
  0
ARC
  5
AAC1
  8
0
 10
3586.1097892147140556
 20
209.6868907985717954
 30
0.0
 40
0.2123809385159291
 50
176.2243183889046065
 51
195.9046470336180903
  0
ARC
  5
AAC2
  8
0
 10
3586.2167422717789123
 20
209.7173665569536922
 30
0.0
 40
0.3235912269980807
 50
195.9046470336180903
 51
224.507140536560911
  0
ARC
  5
AAC3
  8
0
 10
3586.4453340280251723
 20
210.0347693243255094
 30
0.0
 40
0.7121889043348667
 50
229.8339841717551906
 51
253.6098930823175124
  0
ARC
  5
AAC4
  8
0
 10
3587.5128104542591245
 20
214.3815056024077137
 30
0.0
 40
5.1874535035241838
 50
255.846499361962799
 51
265.4232343370491094
  0
ARC
  5
AAC5
  8
0
 10
3591.1153339599518404
 20
267.3408781828658789
 30
0.0
 40
58.2688762332578278
 50
266.0474862444312976
 51
269.5739358211488934
  0
ARC
  5
AAC6
  8
0
 10
3593.033861840796817
 20
416.0344915887986872
 30
0.0
 40
206.9742407716366017
 50
269.3489407091595922
 51
270.0369098618962767
  0
LINE
  5
AAC7
  8
0
 10
3597.2494115141289512
 20
192.8266851186164956
 30
0.0
 11
3596.7804873528812095
 21
199.3955577988120069
 31
0.0
  0
ARC
  5
AAC8
  8
0
 10
3635.1483898490719184
 20
199.0328736588508889
 30
0.0
 40
38.3696166483663106
 50
178.2275656038544014
 51
179.4584105396968994
  0
ARC
  5
AAC9
  8
0
 10
3587.1084149377797985
 20
210.3418122130130996
 30
0.0
 40
14.01176501944067
 50
313.7465895089633818
 51
319.8488385155914102
  0
ARC
  5
AACA
  8
0
 10
3589.4781110921280742
 20
207.9490646469687931
 30
0.0
 40
10.6618850691006894
 50
321.4660112433419954
 51
350.6261985792431233
  0
ARC
  5
AACB
  8
0
 10
3593.2273107877731491
 20
141.0918840090149047
 30
0.0
 40
82.7498331318105329
 50
88.3104851007452964
 51
90.0416244754667332
  0
ARC
  5
AACC
  8
0
 10
3591.9828863377920243
 20
119.3405877268917976
 30
0.0
 40
104.5301001570966974
 50
86.0993636479156521
 51
87.980191241143018
  0
ARC
  5
AACD
  8
0
 10
3598.7020024002949867
 20
214.1973769180686133
 30
0.0
 40
9.4392995410068323
 50
82.6939516476973751
 51
87.6218068536444576
  0
ARC
  5
AACE
  8
0
 10
3583.8397645157101579
 20
75.141323726956017
 30
0.0
 40
149.2853744914422975
 50
83.5637305355411968
 51
83.8232004864981661
  0
ARC
  5
AACF
  8
0
 10
3600.5363053854930513
 20
223.1789443034138003
 30
0.0
 40
0.3091819128634967
 50
44.3503050352053307
 51
82.9310617548616875
  0
ARC
  5
AAD0
  8
0
 10
3600.5203708229519179
 20
223.1683481735630892
 30
0.0
 40
0.3280028828020549
 50
2.7820943339099959
 51
43.728101413785609
  0
ARC
  5
AAD1
  8
0
 10
3467.412381756259947
 20
220.626741088294807
 30
0.0
 40
133.4601128521117062
 50
0.7092744023013267
 51
1.098039726102076
  0
ARC
  5
AAD2
  8
0
 10
3600.7617732984840586
 20
222.2775806862711931
 30
0.0
 40
0.1005031643962187
 50
270.2911446908719881
 51
0.7092744023013267
  0
LINE
  5
AAD3
  8
0
 10
3600.5466361690278063
 20
222.1770788194166073
 30
0.0
 11
3600.6803491304281124
 21
221.945508593316589
 31
0.0
  0
ARC
  5
AAD4
  8
0
 10
3600.0668166836940145
 20
221.5912435319158931
 30
0.0
 40
0.7084672165496457
 50
356.9904082490145925
 51
30.0029372606189284
  0
ARC
  5
AAD5
  8
0
 10
52732.0988266642016242
 20
-2361.5571863240961648
 30
0.0
 40
49199.1820330723276129
 50
176.9904082490145072
 51
177.0037365084731107
  0
ARC
  5
AAD6
  8
0
 10
3593.1240002861950416
 20
150.8575146271180074
 30
0.0
 40
59.7266760926215383
 50
87.5942395476524212
 51
89.958563944933033
  0
ARC
  5
AAD7
  8
0
 10
3592.5567601945040224
 20
137.3560200887575888
 30
0.0
 40
73.2400811443099684
 50
84.9646615304693853
 51
87.5942395528941091
  0
ARC
  5
AAD8
  8
0
 10
3595.9003792203047851
 20
175.3041733963115121
 30
0.0
 40
35.1449091714298731
 50
83.5199892059075069
 51
84.9646615304693853
  0
ARC
  5
AAD9
  8
0
 10
3599.8341906369710159
 20
209.5978506422941052
 30
0.0
 40
0.6275445756926034
 50
57.1336236794257388
 51
87.0293099149190681
  0
ARC
  5
AADA
  8
0
 10
3599.8473925654197956
 20
209.6300499319526125
 30
0.0
 40
0.5933690651102718
 50
6.855333437754382
 51
56.5170605084877309
  0
ARC
  5
AADB
  8
0
 10
3511.0996214531869555
 20
193.4971386698678941
 30
0.0
 40
90.7945067359924565
 50
9.6310661461686156
 51
10.2804246255102694
  0
ARC
  5
AADC
  8
0
 10
3600.2997582897100983
 20
208.6456623276536106
 30
0.0
 40
0.3174150012699342
 50
1.652772588429462
 51
7.549016209714404
  0
ARC
  5
AADD
  8
0
 10
3600.5298570891181953
 20
208.6504794492350925
 30
0.0
 40
0.0872919978026734
 50
326.0683976356272069
 51
2.848413808724366
  0
ARC
  5
AADE
  8
0
 10
3600.5374731227188931
 20
208.6456840100761951
 30
0.0
 40
0.0782965867218081
 50
289.6018057209158769
 51
325.8689919568777782
  0
ARC
  5
AADF
  8
0
 10
3600.5372976057751657
 20
208.6381650820345044
 30
0.0
 40
0.0713229496017085
 50
269.7990592228402988
 51
291.7615079878236202
  0
LINE
  5
AAE0
  8
0
 10
3600.2552026039061275
 20
208.566842592146287
 30
0.0
 11
3600.2609562459288099
 21
208.5159911625165989
 31
0.0
  0
ARC
  5
AAE1
  8
0
 10
3600.1897563427660316
 20
208.507935169640291
 30
0.0
 40
0.0716542059584105
 50
324.5644016154653855
 51
6.4553414432326477
  0
ARC
  5
AAE2
  8
0
 10
3600.1909966780672221
 20
208.5070525488779083
 30
0.0
 40
0.0701318882951771
 50
269.7479620287228954
 51
324.5644016154653855
  0
ARC
  5
AAE3
  8
0
 10
3597.4024207652860241
 20
207.7694946704230006
 30
0.0
 40
2.8488857003541521
 50
10.2154054797641791
 51
13.5489725241831405
  0
ARC
  5
AAE4
  8
0
 10
3599.4064469906102204
 20
208.1306322078075937
 30
0.0
 40
0.8125798705008535
 50
0.5447779889929761
 51
10.2154054797641791
  0
ARC
  5
AAE5
  8
0
 10
3610.0607443633371076
 20
208.2319381270818042
 30
0.0
 40
9.8421991227847823
 50
180.5447779889929052
 51
181.6939247518650973
  0
LINE
  5
AAE6
  8
0
 10
3599.7157742635281465
 20
208.4369213391165943
 30
0.0
 11
3599.7051407544931863
 21
208.3153797744714097
 31
0.0
  0
ARC
  5
AAE7
  8
0
 10
3599.6659204908278298
 20
208.3188111029166123
 30
0.0
 40
0.0393700787000003
 50
270.0
 51
355.0000000086874934
  0
LINE
  5
AAE8
  8
0
 10
3599.6659204908278298
 20
208.2794410242165952
 30
0.0
 11
3598.2085468228278842
 21
208.2794410242165952
 31
0.0
  0
ARC
  5
AAE9
  8
0
 10
3598.2085468228278842
 20
208.3188111519461074
 30
0.0
 40
0.039370127729474
 50
185.000090289264989
 51
270.0
  0
LINE
  5
AAEA
  8
0
 10
3598.1693265157291535
 20
208.3153797574165935
 30
0.0
 11
3598.1586928136521237
 21
208.4369213223590975
 31
0.0
  0
LINE
  5
AAEB
  8
0
 10
3597.7736191004278226
 20
208.4369213391165943
 30
0.0
 11
3597.7560967202289248
 21
208.236639617016607
 31
0.0
  0
ARC
  5
AAEC
  8
0
 10
3597.7168764565071797
 20
208.2400709454736045
 30
0.0
 40
0.0393700787570367
 50
270.0000000307450136
 51
354.9999999986372927
  0
LINE
  5
AAED
  8
0
 10
3597.7168764565290076
 20
208.2007008667166019
 30
0.0
 11
3595.4588871777277745
 21
208.2007008655045013
 31
0.0
  0
LINE
  5
AAEE
  8
0
 10
3595.4588871777277745
 20
208.2007008655045013
 30
0.0
 11
3595.4588871777277745
 21
208.4369213391165943
 31
0.0
  0
LINE
  5
AAEF
  8
0
 10
3596.7502382880279583
 20
208.2007008661977068
 30
0.0
 11
3596.7502382880279583
 21
208.1810158273165996
 31
0.0
  0
LINE
  5
AAF0
  8
0
 10
3596.7502382880279583
 20
208.1810158273165996
 30
0.0
 11
3595.545513878627844
 21
208.1810158273165996
 31
0.0
  0
LINE
  5
AAF1
  8
0
 10
3595.545513878627844
 20
208.1810158273165996
 30
0.0
 11
3595.545513878627844
 21
208.2007008667166019
 31
0.0
  0
LINE
  5
AAF2
  8
0
 10
3596.2541758650281736
 20
208.1810158273165996
 30
0.0
 11
3596.2541758650281736
 21
208.1704819170165877
 31
0.0
  0
ARC
  5
AAF3
  8
0
 10
3596.0259932785311321
 20
219.8482552913461063
 30
0.0
 40
11.6800024946479297
 50
270.0779238966180174
 51
271.1194116567335755
  0
LINE
  5
AAF4
  8
0
 10
3596.0418784106282146
 20
208.1682635988165941
 30
0.0
 11
3596.0416119409969724
 21
208.1810130429475976
 31
0.0
  0
ARC
  5
AAF5
  8
0
 10
3599.8603780311291302
 20
207.7873216601165893
 30
0.0
 40
0.393700801799879
 50
359.9999999999968168
 51
22.9758711116515784
  0
LINE
  5
AAF6
  8
0
 10
3600.2540788329288262
 20
207.7873216601165893
 30
0.0
 11
3600.2540788329288262
 21
206.3699724612567934
 31
0.0
  0
ARC
  5
AAF7
  8
0
 10
3593.0276036847208161
 20
197.610527579661607
 30
0.0
 40
3.6046870424325159
 50
57.2977610195465985
 51
87.7806793573612509
  0
ARC
  5
AAF8
  8
0
 10
3572.477259833413882
 20
165.6028286416373874
 30
0.0
 40
41.6416351812372412
 50
55.5380059878621992
 51
57.2977610200732883
  0
ARC
  5
AAF9
  8
0
 10
3597.6074608340059058
 20
202.2195082141915066
 30
0.0
 40
2.7690417472810709
 50
235.5380059878621921
 51
242.2446877752678063
  0
ARC
  5
AAFA
  8
0
 10
3596.5699003019690281
 20
199.8170900941869945
 30
0.0
 40
0.1324103493045357
 50
294.4010605010089989
 51
344.3983800172704264
  0
ARC
  5
AAFB
  8
0
 10
3596.566294618172833
 20
199.8367675621265107
 30
0.0
 40
0.1518970395254338
 50
260.7571899528217045
 51
292.5729940426695066
  0
ARC
  5
AAFC
  8
0
 10
3596.6692309782838493
 20
200.3798826368791879
 30
0.0
 40
0.7046405500053458
 50
240.0954305956526014
 51
259.5890247965522803
  0
ARC
  5
AAFD
  8
0
 10
3597.2791280419742179
 20
199.9116904554678911
 30
0.0
 40
0.5719746800851205
 50
147.4252419960741065
 51
186.4720461127000988
  0
ARC
  5
AAFE
  8
0
 10
3596.4070765790188489
 20
199.8747442783086967
 30
0.0
 40
0.3049667640269992
 50
342.192373479901903
 51
354.8215065093442036
  0
ARC
  5
AAFF
  8
0
 10
3600.2245994876420809
 20
209.6868907985717954
 30
0.0
 40
0.2123809385159291
 50
344.0953529663802897
 51
3.7756816110954232
  0
ARC
  5
AB00
  8
0
 10
3600.1176464305781337
 20
209.7173665569536922
 30
0.0
 40
0.3235912269980807
 50
315.4928594634391175
 51
344.0953529663802897
  0
ARC
  5
AB01
  8
0
 10
3599.8890546743318737
 20
210.0347693243255094
 30
0.0
 40
0.7121889043348667
 50
286.3901069176823739
 51
310.166015828244781
  0
ARC
  5
AB02
  8
0
 10
3598.8215782480979215
 20
214.3815056024077137
 30
0.0
 40
5.1874535035241838
 50
274.5767656629508906
 51
284.153500638037201
  0
ARC
  5
AB03
  8
0
 10
3595.2190547424038414
 20
267.3408781828658789
 30
0.0
 40
58.2688762332578278
 50
270.4260641788511066
 51
273.9525137555688161
  0
ARC
  5
AB04
  8
0
 10
3593.3005268615597743
 20
416.0344915887986872
 30
0.0
 40
206.9742407716366017
 50
269.9630901381037233
 51
270.6510592908404078
  0
LINE
  5
AB05
  8
0
 10
3589.8479325182288449
 20
208.4369213391165943
 30
0.0
 11
3589.8363976114278557
 21
208.2366396239166022
 31
0.0
  0
ARC
  5
AB06
  8
0
 10
3589.7836041117679997
 20
208.2396801815511935
 30
0.0
 40
0.0528809852132874
 50
326.6845580071849895
 51
356.703782020112385
  0
ARC
  5
AB07
  8
0
 10
3589.809309080435014
 20
208.2227852542592927
 30
0.0
 40
0.0221208814694834
 50
273.2915953395130941
 51
326.6845580071836253
  0
LINE
  5
AB08
  8
0
 10
3596.5014957370281081
 20
208.4369213391165943
 30
0.0
 11
3596.5130306166111041
 21
208.236639589313711
 31
0.0
  0
ARC
  5
AB09
  8
0
 10
3596.55689471925416
 20
208.2368837871229061
 30
0.0
 40
0.0438647823795917
 50
180.3189706033788013
 51
222.9777725447366947
  0
ARC
  5
AB0A
  8
0
 10
3596.5392461909568738
 20
208.2204390639246014
 30
0.0
 40
0.0197421898129374
 50
222.9777725447378884
 51
268.847673745522286
  0
ARC
  5
AB0B
  8
0
 10
3585.8410037493558775
 20
223.7449162760026127
 30
0.0
 40
0.3078208557144402
 50
242.5246607124090872
 51
274.0840313449747896
  0
ARC
  5
AB0C
  8
0
 10
3586.762760604228788
 20
251.909801018305302
 30
0.0
 40
28.4861396838837102
 50
268.1898119448414946
 51
269.2846804500787812
  0
ARC
  5
AB0D
  8
0
 10
3587.9364317514741742
 20
266.6233645494975235
 30
0.0
 40
43.2245453606550285
 50
267.9724284725597272
 51
269.8224197735373195
  0
ARC
  5
AB0E
  8
0
 10
3592.8866521791242121
 20
434.7532597252646838
 30
0.0
 40
211.4153749156864137
 50
268.621998822645196
 51
270.0760298927585836
  0
ARC
  5
AB0F
  8
0
 10
3600.4933849925610048
 20
223.7449162760026127
 30
0.0
 40
0.3078208557144402
 50
265.9159686550252104
 51
297.4753392875908844
  0
ARC
  5
AB10
  8
0
 10
3599.5716281376871848
 20
251.909801018305302
 30
0.0
 40
28.4861396838837102
 50
270.7153195499212188
 51
271.8101880551585054
  0
ARC
  5
AB11
  8
0
 10
3596.3700437278021127
 20
340.8465929642343895
 30
0.0
 40
117.474581515370204
 50
271.054472163621881
 51
271.7352230141769951
  0
ARC
  5
AB12
  8
0
 10
3593.167194471106086
 20
490.6677707723569029
 30
0.0
 40
267.329699826940498
 50
269.9999999785305818
 51
271.149879954299081
  0
LINE
  5
AB13
  8
0
 10
3586.2390477507287869
 20
206.2125118903165912
 30
0.0
 11
3586.4043821546611071
 21
206.2125118903165912
 31
0.0
  0
ARC
  5
AB15
  8
0
 10
3588.7386021152337889
 20
319177.6141934160259552
 30
0.0
 40
318954.0005349806160666
 50
269.99974913583128
 51
270.000621471237821
  0
ARC
  5
AB16
  8
0
 10
3587.3420986120581802
 20
225.1125525889632968
 30
0.0
 40
1.4988910963117761
 50
263.0030606405342724
 51
269.99974913583128
  0
ARC
  5
AB17
  8
0
 10
3594.3177686967010231
 20
101128.7990510615054518
 30
0.0
 40
100905.1853961245942628
 50
269.9987964744933038
 51
270.0006533168540841
  0
ARC
  5
AB18
  8
0
 10
3597.1369173477860386
 20
-146110.0669618321990129
 30
0.0
 40
146333.6806328418897465
 50
89.9993466831458875
 51
90.0006533168541267
  0
ARC
  5
AB19
  8
0
 10
3598.8055735191887834
 20
230.8006707519836027
 30
0.0
 40
7.18700925583427
 50
269.9993466831459159
 51
273.0739955821093758
  0
ARC
  5
AB1A
  8
0
 10
3592.3446552088621502
 20
223.5548832045377878
 30
0.0
 40
0.157809819157775
 50
101.4305984864643051
 51
158.1262702840662087
  0
ARC
  5
AB1B
  8
0
 10
3592.3394836889870021
 20
223.5905385878861011
 30
0.0
 40
0.1218531167676463
 50
90.7101649911715384
 51
102.3697631766272025
  0
ARC
  5
AB1C
  8
0
 10
3592.4431567666351839
 20
185.7557223502249997
 30
0.0
 40
37.9568057333237192
 50
89.9470751185169775
 51
90.1587744541857461
  0
LINE
  5
AB1D
  8
0
 10
3592.4782179731769247
 20
223.712511890293797
 30
0.0
 11
3593.9900256360310777
 21
223.7125118903165912
 31
0.0
  0
ARC
  5
AB1E
  8
0
 10
3593.990028996743149
 20
223.5550315752479946
 30
0.0
 40
0.157480315104474
 50
21.8636896201500583
 51
90.0012227219172161
  0
ARC
  5
AB1F
  8
0
 10
3593.1671897003839149
 20
222.2789373468048097
 30
0.0
 40
1.590540174488061
 50
109.0240335207851956
 51
115.6688038454503982
  0
ARC
  5
AB20
  8
0
 10
3592.8028124662050686
 20
223.3357254385894919
 30
0.0
 40
0.4726976812335418
 50
79.8636557062972798
 51
109.0240335207851956
  0
ARC
  5
AB21
  8
0
 10
3592.8027174882649888
 20
223.3351941875584998
 30
0.0
 40
0.4732373556419684
 50
63.7447212335996412
 51
79.8636557062972798
  0
ARC
  5
AB22
  8
0
 10
3595.4481151843310727
 20
212.5449151077854992
 30
0.0
 40
11.4762230111095604
 50
102.2553785860073958
 51
103.3177615330458963
  0
ARC
  5
AB23
  8
0
 10
3596.3504103482760001
 20
208.391076198171902
 30
0.0
 40
15.7269305110320605
 50
101.5127508856903944
 51
102.2553785860073958
  0
ARC
  5
AB24
  8
0
 10
3594.4657802049368911
 20
217.849679802521905
 30
0.0
 40
6.0826240646163381
 50
100.2284847475988983
 51
101.8998322651070936
  0
ARC
  5
AB25
  8
0
 10
3593.4336058893641166
 20
223.4003279638972117
 30
0.0
 40
0.4379395037084279
 50
76.7124405238612326
 51
96.2848191712743926
  0
ARC
  5
AB26
  8
0
 10
3593.1671929742419707
 20
222.2789240485030859
 30
0.0
 40
1.5905547607017501
 50
64.3312087581527123
 51
76.6570015273466936
  0
LINE
  5
AB27
  8
0
 10
3586.1158086411219301
 20
208.157575139007804
 30
0.0
 11
3600.2185800612342064
 21
208.157575139007804
 31
0.0
  0
ARC
  5
AB28
  8
0
 10
3600.0809210864131273
 20
206.3857917906132116
 30
0.0
 40
0.1738788554127443
 50
274.7570326133118215
 51
354.7800676213960855
  0
ARC
  5
AB29
  8
0
 10
3600.0960882970848616
 20
232.4542295898484952
 30
0.0
 40
26.242243253376941
 50
268.3328789516950792
 51
269.6373843986261249
  0
ARC
  5
AB2A
  8
0
 10
3599.5417409232600221
 20
213.2414582505332987
 30
0.0
 40
7.0214785422047257
 50
259.8149399514039146
 51
268.2934035911953856
  0
ARC
  5
AB2B
  8
0
 10
3599.5445910587241087
 20
217.4756374962364021
 30
0.0
 40
11.1282678522196701
 50
270.1784687462474039
 51
273.6553977036355718
  0
ARC
  5
AB2C
  8
0
 10
3599.7802776248599912
 20
142.3309135429223033
 30
0.0
 40
64.0168257110557164
 50
90.1799186312077978
 51
91.3248523546047863
  0
LINE
  5
AB2D
  8
0
 10
3600.0953409516291686
 20
206.2125118903165912
 30
0.0
 11
3599.9300065476959389
 21
206.2125118903165912
 31
0.0
  0
ENDSEC
  0
EOF
