  0
SECTION
  2
HEADER
  9
$ACADVER
  1
AC1009
  9
$INSBASE
 10
3637.1043925842541285
 20
192.8200298758598876
 30
0.0
  9
$EXTMIN
 10
3608.6449502384571133
 20
192.8183475622678031
 30
-0.0015258207003583
  9
$EXTMAX
 10
3637.2264040270201804
 20
223.8486677960459872
 30
0.0000000349246037
  9
$LIMMIN
 10
0.0
 20
0.0
  9
$LIMMAX
 10
11.6929133858000007
 20
8.2677165353999982
  9
$ORTHOMODE
 70
     0
  9
$REGENMODE
 70
     1
  9
$FILLMODE
 70
     1
  9
$QTEXTMODE
 70
     0
  9
$MIRRTEXT
 70
     0
  9
$DRAGMODE
 70
     2
  9
$LTSCALE
 40
0.6431102362
  9
$OSMODE
 70
  4095
  9
$ATTMODE
 70
     1
  9
$TEXTSIZE
 40
0.2
  9
$TRACEWID
 40
0.05
  9
$TEXTSTYLE
  7
STANDARD
  9
$CLAYER
  8
0
  9
$CELTYPE
  6
BYLAYER
  9
$CECOLOR
 62
   256
  9
$DIMSCALE
 40
1.0
  9
$DIMASZ
 40
0.1875
  9
$DIMEXO
 40
0.0625
  9
$DIMDLI
 40
0.4443307087
  9
$DIMRND
 40
0.0
  9
$DIMDLE
 40
0.0
  9
$DIMEXE
 40
0.125
  9
$DIMTP
 40
0.01
  9
$DIMTM
 40
0.01
  9
$DIMTXT
 40
2.0
  9
$DIMCEN
 40
0.1052362205
  9
$DIMTSZ
 40
0.0
  9
$DIMTOL
 70
     1
  9
$DIMLIM
 70
     0
  9
$DIMTIH
 70
     1
  9
$DIMTOH
 70
     1
  9
$DIMSE1
 70
     0
  9
$DIMSE2
 70
     0
  9
$DIMTAD
 70
     0
  9
$DIMZIN
 70
     0
  9
$DIMBLK
  1

  9
$DIMASO
 70
     1
  9
$DIMSHO
 70
     1
  9
$DIMPOST
  1
\X
  9
$DIMAPOST
  1

  9
$DIMALT
 70
     1
  9
$DIMALTD
 70
     2
  9
$DIMALTF
 40
25.3999999999999986
  9
$DIMLFAC
 40
1.0
  9
$DIMTOFL
 70
     0
  9
$DIMTVP
 40
0.0
  9
$DIMTIX
 70
     0
  9
$DIMSOXD
 70
     0
  9
$DIMSAH
 70
     0
  9
$DIMBLK1
  1

  9
$DIMBLK2
  1

  9
$DIMSTYLE
  2
STANDARD
  9
$DIMCLRD
 70
     0
  9
$DIMCLRE
 70
     0
  9
$DIMCLRT
 70
     0
  9
$DIMTFAC
 40
1.0
  9
$DIMGAP
 40
0.09
  9
$LUNITS
 70
     2
  9
$LUPREC
 70
     4
  9
$SKETCHINC
 40
0.1
  9
$FILLETRAD
 40
0.0
  9
$AUNITS
 70
     0
  9
$AUPREC
 70
     0
  9
$MENU
  1
.
  9
$ELEVATION
 40
0.0
  9
$PELEVATION
 40
0.0
  9
$THICKNESS
 40
0.0
  9
$LIMCHECK
 70
     0
  9
$BLIPMODE
 70
     0
  9
$CHAMFERA
 40
0.0
  9
$CHAMFERB
 40
0.0
  9
$SKPOLY
 70
     0
  9
$TDCREATE
 40
2458060.468368056230247
  9
$TDUPDATE
 40
2459074.8286226862110198
  9
$TDINDWG
 40
0.5437686343
  9
$TDUSRTIMER
 40
0.5437686343
  9
$USRTIMER
 70
     1
  9
$ANGBASE
 50
0.0
  9
$ANGDIR
 70
     0
  9
$PDMODE
 70
     0
  9
$PDSIZE
 40
0.3125
  9
$PLINEWID
 40
0.0
  9
$COORDS
 70
     1
  9
$SPLFRAME
 70
     0
  9
$SPLINETYPE
 70
     6
  9
$SPLINESEGS
 70
     8
  9
$ATTDIA
 70
     1
  9
$ATTREQ
 70
     1
  9
$HANDLING
 70
     1
  9
$HANDSEED
  5
AFC5
  9
$SURFTAB1
 70
     6
  9
$SURFTAB2
 70
     6
  9
$SURFTYPE
 70
     6
  9
$SURFU
 70
     6
  9
$SURFV
 70
     6
  9
$UCSNAME
  2

  9
$UCSORG
 10
0.0
 20
0.0
 30
0.0
  9
$UCSXDIR
 10
1.0
 20
0.0
 30
0.0
  9
$UCSYDIR
 10
0.0
 20
1.0
 30
0.0
  9
$PUCSNAME
  2

  9
$PUCSORG
 10
0.0
 20
0.0
 30
0.0
  9
$PUCSXDIR
 10
1.0
 20
0.0
 30
0.0
  9
$PUCSYDIR
 10
0.0
 20
1.0
 30
0.0
  9
$USERI1
 70
     0
  9
$USERI2
 70
     0
  9
$USERI3
 70
     0
  9
$USERI4
 70
     0
  9
$USERI5
 70
     0
  9
$USERR1
 40
0.0
  9
$USERR2
 40
0.0
  9
$USERR3
 40
0.0
  9
$USERR4
 40
0.0
  9
$USERR5
 40
0.0
  9
$WORLDVIEW
 70
     1
  9
$SHADEDGE
 70
     3
  9
$SHADEDIF
 70
    70
  9
$TILEMODE
 70
     1
  9
$MAXACTVP
 70
    64
  9
$PLIMCHECK
 70
     0
  9
$PEXTMIN
 10
1.0000000000000000E+20
 20
1.0000000000000000E+20
 30
1.0000000000000000E+20
  9
$PEXTMAX
 10
-1.0000000000000000E+20
 20
-1.0000000000000000E+20
 30
-1.0000000000000000E+20
  9
$PLIMMIN
 10
0.0
 20
0.0
  9
$PLIMMAX
 10
12.0
 20
9.0
  9
$UNITMODE
 70
     0
  9
$VISRETAIN
 70
     1
  9
$PLINEGEN
 70
     0
  9
$PSLTSCALE
 70
     1
  0
ENDSEC
  0
SECTION
  2
TABLES
  0
TABLE
  2
VPORT
 70
     1
  0
VPORT
  2
*ACTIVE
 70
     0
 10
0.0
 20
0.0
 11
1.0
 21
1.0
 12
319.2425618983634195
 22
13.0719961032691501
 13
0.0
 23
0.0
 14
1.0
 24
1.0
 15
0.0
 25
0.0
 16
0.0
 26
0.0
 36
96.5995694866707311
 17
3303.693115234375
 27
195.2615115758877096
 37
0.0
 40
31.2885475866251603
 41
2.6486111111111108
 42
50.0
 43
0.0
 44
0.0
 50
0.0
 51
0.0
 71
     0
 72
   100
 73
     1
 74
     1
 75
     0
 76
     0
 77
     0
 78
     0
  0
ENDTAB
  0
TABLE
  2
LTYPE
 70
     2
  0
LTYPE
  2
CONTINUOUS
 70
     0
  3
Solid line
 72
    65
 73
     0
 40
0.0
  0
LTYPE
  2
PHANTOM2
 70
     0
  3
___ _ _ ___ _ _ ___ _ _ ___ _ _
 72
    65
 73
     6
 40
1.25
 49
0.625
 49
-0.125
 49
0.125
 49
-0.125
 49
0.125
 49
-0.125
  0
ENDTAB
  0
TABLE
  2
LAYER
 70
     2
  0
LAYER
  2
0
 70
     0
 62
   255
  6
CONTINUOUS
  0
LAYER
  2
DEFPOINTS
 70
     0
 62
     7
  6
CONTINUOUS
  0
ENDTAB
  0
TABLE
  2
STYLE
 70
     1
  0
STYLE
  2
STANDARD
 70
     0
 40
0.0
 41
0.8
 50
0.0
 71
     0
 42
0.2
  3
txt
  4

  0
ENDTAB
  0
TABLE
  2
VIEW
 70
     0
  0
ENDTAB
  0
TABLE
  2
UCS
 70
     0
  0
ENDTAB
  0
TABLE
  2
APPID
 70
     9
  0
APPID
  2
ACAD
 70
     0
  0
APPID
  2
ACAD_MLEADERVER
 70
     0
  0
APPID
  2
ACAD_EXEMPT_FROM_CAD_STANDARDS
 70
     0
  0
APPID
  2
ACAD_NAV_VCDISPLAY
 70
     0
  0
APPID
  2
ACAECLAYERSTANDARD
 70
     0
  0
APPID
  2
ACCMTRANSPARENCY
 70
     0
  0
APPID
  2
ACAD_DSTYLE_DIMJAG
 70
     0
  0
APPID
  2
ACAD_DSTYLE_DIMTALN
 70
     0
  0
APPID
  2
ACDBATTR
 70
     0
  0
ENDTAB
  0
TABLE
  2
DIMSTYLE
 70
     1
  0
DIMSTYLE
  2
STANDARD
 70
     0
  3

  4

  5

  6

  7

 40
1.0
 41
0.1875
 42
0.0625
 43
0.38
 44
0.125
 45
0.0
 46
0.0
 47
0.01
 48
0.01
140
0.15625
141
0.09
142
0.0
143
25.3999999999999986
144
1.0
145
0.0
146
1.0
147
0.09
 71
     1
 72
     0
 73
     1
 74
     1
 75
     0
 76
     0
 77
     0
 78
     4
170
     0
171
     2
172
     0
173
     0
174
     0
175
     0
176
     0
177
     0
178
     0
  0
ENDTAB
  0
ENDSEC
  0
SECTION
  2
BLOCKS
  0
BLOCK
  8
0
  2
$MODEL_SPACE
 70
     0
 10
0.0
 20
0.0
 30
0.0
  3
$MODEL_SPACE
  1

  0
ENDBLK
  5
21
  8
0
  0
BLOCK
 67
     1
  8
0
  2
$PAPER_SPACE
 70
     0
 10
0.0
 20
0.0
 30
0.0
  3
$PAPER_SPACE
  1

  0
ENDBLK
  5
1D
 67
     1
  8
0
  0
BLOCK
  8
0
  2
_FILLED
 70
     0
 10
0.0
 20
0.0
 30
0.0
  3
_FILLED
  1

  0
SOLID
  5
AA94
  8
0
  6
BYBLOCK
 62
     0
 10
0.0
 20
0.0
 30
0.0
 11
-1.0
 21
0.1666666667
 31
0.0
 12
-1.0
 22
-0.1666666667
 32
0.0
 13
-1.0
 23
-0.1666666667
 33
0.0
  0
ENDBLK
  5
AA95
  8
0
  6
BYBLOCK
 62
     0
  0
ENDSEC
  0
SECTION
  2
ENTITIES
  0
ATTDEF
  5
A52E
  8
DEFPOINTS
 10
3637.1043424729650724
 20
192.8239757307970024
 30
0.0
 40
0.001
  1
K-8753IN
  3

  2
MODELNUMBER
 70
     0
1001
ACDBATTR
1070
     0
1070
     1
  0
ATTDEF
  5
A52F
  8
DEFPOINTS
 10
3637.1043424729650724
 20
192.8223090641303941
 30
0.0
 40
0.001
  1
ODEON
  3

  2
TRADENAME
 70
     0
1001
ACDBATTR
1070
     0
1070
     1
  0
ATTDEF
  5
A530
  8
DEFPOINTS
 10
3637.1043424729650724
 20
192.8206423974637005
 30
0.0
 40
0.001
  1
TOILET
  3

  2
PRODUCT
 70
     0
1001
ACDBATTR
1070
     0
1070
     1
  0
LINE
  5
AB86
  8
0
 10
3612.7550926477651956
 20
192.8200298758598876
 30
0.0
 11
3631.4553896368561254
 21
192.8200298758598876
 31
0.0
  0
LINE
  5
AB87
  8
0
 10
3612.7550926477651956
 20
192.8200298758598876
 30
0.0
 11
3613.3409963619560585
 21
201.2058555572598948
 31
0.0
  0
ARC
  5
AB88
  8
0
 10
3634.9737737689260939
 20
221.0537240595174922
 30
0.0
 40
2.781650501639136
 50
87.9919511442310238
 51
89.1114360234747664
  0
ARC
  5
AB89
  8
0
 10
3635.00528827688413
 20
223.028948143358889
 30
0.0
 40
0.8074165067740059
 50
70.5175658024772787
 51
85.3145452230993442
  0
LINE
  5
AB8A
  8
0
 10
3635.2745760922562113
 20
223.7901350375599918
 30
0.0
 11
3636.8859899217559359
 21
223.2134064960598892
 31
0.0
  0
ARC
  5
AB8B
  8
0
 10
3636.7785630955418128
 20
222.9152117334865864
 30
0.0
 40
0.3169552640620569
 50
357.1844822453833217
 51
70.1880762488533634
  0
LINE
  5
AB8C
  8
0
 10
3637.0951357535341231
 20
222.8996428019875964
 30
0.0
 11
3637.1043774465179013
 21
222.3701688221580071
 31
0.0
  0
ARC
  5
AB8D
  8
0
 10
3637.0168396474500696
 20
222.3682735558003003
 30
0.0
 40
0.0875583137031108
 50
349.6541457729994136
 51
1.2403061960043049
  0
LINE
  5
AB8E
  8
0
 10
3637.1029744053557806
 20
222.3525489960599089
 30
0.0
 11
3637.1043773557880741
 21
222.2721686987543137
 31
0.0
  0
ARC
  5
AB8F
  8
0
 10
3637.0043925871191277
 20
222.2704235737942042
 30
0.0
 40
0.0999999971343577
 50
270.0000001929379891
 51
0.9999337367087434
  0
ARC
  5
AB90
  8
0
 10
3629.2644587626709836
 20
222.270423576954812
 30
0.0
 40
0.1000000002949372
 50
173.9999999150404051
 51
269.9999998197247919
  0
LINE
  5
AB91
  8
0
 10
3629.1650065728558729
 20
222.2808764234598868
 30
0.0
 11
3629.1705942952548867
 21
222.3340400493922004
 31
0.0
  0
ARC
  5
AB92
  8
0
 10
3629.2637597794500834
 20
222.3684171469049886
 30
0.0
 40
0.0993055500900955
 50
173.9541554721718057
 51
200.2535378483032957
  0
LINE
  5
AB93
  8
0
 10
3629.1650065728049412
 20
222.3788764229784078
 30
0.0
 11
3629.2354790710560337
 21
223.049377455959899
 31
0.0
  0
ARC
  5
AB94
  8
0
 10
3629.5487360155980241
 20
223.0164479587488984
 30
0.0
 40
0.3149829600005557
 50
91.8969165217312849
 51
173.9991197875559124
  0
LINE
  5
AB95
  8
0
 10
3629.5383096414561805
 20
223.3312583077099021
 30
0.0
 11
3630.237613615643113
 21
223.3577855429822137
 31
0.0
  0
ARC
  5
AB96
  8
0
 10
3630.0722977412301589
 20
223.8026644950545858
 30
0.0
 40
0.4746015384826359
 50
290.3849366103891043
 51
308.314306251543826
  0
ARC
  5
AB97
  8
0
 10
3629.8588602880781764
 20
224.0727844903765913
 30
0.0
 40
0.8188693968151021
 50
308.314306251543826
 51
314.7242379694234273
  0
ARC
  5
AB98
  8
0
 10
3630.7597880429661927
 20
223.0933912861736985
 30
0.0
 40
0.5133220052424564
 50
95.8862883820230962
 51
129.2372618139879137
  0
ARC
  5
AB99
  8
0
 10
3630.7701242616822128
 20
222.962649400328786
 30
0.0
 40
0.6444421493736167
 50
90.9322113436232939
 51
95.6083224795000746
  0
LINE
  5
AB9A
  8
0
 10
3630.7596395491559633
 20
223.6070062538599075
 30
0.0
 11
3632.5083342265447754
 21
223.6070062538599075
 31
0.0
  0
ARC
  5
AB9B
  8
0
 10
3632.6037261244568981
 20
223.1024022743677051
 30
0.0
 40
0.513541420244264
 50
92.6376652347253042
 51
100.7050414648339967
  0
ARC
  5
AB9C
  8
0
 10
3631.2504675201889768
 20
250.7992837857914878
 30
0.0
 40
27.2163822513196187
 50
272.8002351842670237
 51
277.6496251043982966
  0
ARC
  5
AB9D
  8
0
 10
3635.0491418573628835
 20
222.3266787313970951
 30
0.0
 40
1.508705649298159
 50
91.2241211671739336
 51
96.6903564230209298
  0
ARC
  5
AB9E
  8
0
 10
3632.3696065511758206
 20
221.2958921134550963
 30
0.0
 40
2.535716328392263
 50
89.7184569272427836
 51
99.1376446413931944
  0
ARC
  5
AB9F
  8
0
 10
3632.1033204908108019
 20
222.9514057771449131
 30
0.0
 40
0.8589236290378455
 50
99.1376446413931944
 51
118.5539037330134988
  0
LINE
  5
ABA0
  8
0
 10
3631.558909864656016
 20
223.705856647559898
 30
0.0
 11
3633.2045780703560922
 21
223.705856647559898
 31
0.0
  0
ARC
  5
ABA1
  8
0
 10
3633.2045780703560922
 20
223.5483749374432989
 30
0.0
 40
0.1574817101166168
 50
45.7976212518259302
 51
90.0
  0
ARC
  5
ABA2
  8
0
 10
3632.4005512016087778
 20
221.3934670666897944
 30
0.0
 40
2.4381808310104911
 50
80.3808315323818334
 51
90.4343802177230742
  0
ARC
  5
ABA3
  8
0
 10
3632.6100066155868262
 20
222.8059950914640126
 30
0.0
 40
1.0109440939201071
 50
62.888329802606961
 51
78.7074784147738313
  0
ARC
  5
ABA4
  8
0
 10
3631.5589093218582093
 20
223.5483763325580924
 30
0.0
 40
0.1574803150027233
 50
89.9998025148706091
 51
158.1424656431055098
  0
ARC
  5
ABA5
  8
0
 10
3641.0581892718960262
 20
-61.5669203860436483
 30
0.0
 40
284.8617444898159192
 50
92.1066327037067936
 51
92.3786487011711586
  0
ARC
  5
ABA6
  8
0
 10
3641.0159291341719836
 20
-60.4181412482184896
 30
0.0
 40
283.7121883029626019
 50
91.8512161221396042
 51
92.1066320671672543
  0
ARC
  5
ABA7
  8
0
 10
3631.2756657850231932
 20
199.1071529998482958
 30
0.0
 40
24.0456998873246413
 50
87.1620223415840059
 51
88.629363115448399
  0
LINE
  5
ABA8
  8
0
 10
3632.4662117375560229
 20
223.1233617640598936
 30
0.0
 11
3633.1023641690558179
 21
223.1233609483599025
 31
0.0
  0
ARC
  5
ABA9
  8
0
 10
3633.094182352045209
 20
225.2766980015221918
 30
0.0
 40
2.153352596917518
 50
270.2176999308505856
 51
281.5581255277816126
  0
ARC
  5
ABAA
  8
0
 10
3633.5808084685259018
 20
222.8972128175051921
 30
0.0
 40
0.2753826126510863
 50
88.6257580562360232
 51
101.5581255277815984
  0
ARC
  5
ABAB
  8
0
 10
3633.8510099872660248
 20
234.1604680769021911
 30
0.0
 40
10.9911132001144605
 50
268.6257580562358953
 51
269.9862853757927041
  0
LINE
  5
ABAC
  8
0
 10
3633.8483790956561279
 20
223.1693551916598892
 30
0.0
 11
3634.7724203758398289
 21
223.1691340081931969
 31
0.0
  0
ARC
  5
ABAD
  8
0
 10
3634.7749417199320305
 20
233.7025886911968939
 30
0.0
 40
10.5334549847649495
 50
269.9862853757927041
 51
271.9458818921089005
  0
ARC
  5
ABAE
  8
0
 10
3635.2450270381209521
 20
219.8664207906710999
 30
0.0
 40
3.310696212687259
 50
87.5811704169234844
 51
91.9458818921089716
  0
ARC
  5
ABAF
  8
0
 10
3635.3539092334508496
 20
222.4440243164276865
 30
0.0
 40
0.7307940307329233
 50
84.6995018439323246
 51
87.5811704169234844
  0
ARC
  5
ABB0
  8
0
 10
3634.4800939383108016
 20
213.0254717864503107
 30
0.0
 40
10.1897942384697302
 50
76.1353494533028652
 51
84.6995018439323246
  0
ARC
  5
ABB1
  8
0
 10
3577.8565710496350221
 20
-324.0534005065932206
 30
0.0
 40
550.1516510315100277
 50
83.8185899670531143
 51
83.8367405268500221
  0
ARC
  5
ABB2
  8
0
 10
1634.3882024049810298
 20
1374.0207437976710025
 30
0.0
 40
2303.782853129951036
 50
329.9940932162164131
 51
330.0011804748182271
  0
ARC
  5
ABB3
  8
0
 10
3630.0173560079911113
 20
221.5693850361437001
 30
0.0
 40
0.7083820500734008
 50
149.9940932162164131
 51
180.3818016474766921
  0
ARC
  5
ABB4
  8
0
 10
-51063.3294402227402315
 20
-142.8958370663943072
 30
0.0
 40
54693.8527613660480711
 50
0.3697515746188559
 51
0.38180164747672
  0
ARC
  5
ABB5
  8
0
 10
3629.6993492286560468
 20
210.064091683091192
 30
0.0
 40
0.3149247324593186
 50
180.3697515746187889
 51
270.0065022235853007
  0
LINE
  5
ABB6
  8
0
 10
3628.9684359970560763
 20
209.7491637341599073
 30
0.0
 11
3636.4761652880561087
 21
209.7491637341599073
 31
0.0
  0
ARC
  5
ABB7
  8
0
 10
3636.4761652880561087
 20
210.0641264628256977
 30
0.0
 40
0.314962728665793
 50
270.0
 51
359.4361270590893014
  0
ARC
  5
ABB8
  8
0
 10
15913938.9234384503215551
 20
-156276.0890406524995342
 30
0.0
 40
15911071.6753162294626236
 50
179.4364427828336943
 51
179.4364841863313131
  0
ARC
  5
ABB9
  8
0
 10
3636.1953113193289937
 20
221.5702756731778891
 30
0.0
 40
0.7089888290363932
 50
359.0278292151594997
 51
30.0664343349817287
  0
ARC
  5
ABBA
  8
0
 10
3742.3622296050089062
 20
283.0300183046402935
 30
0.0
 40
121.964213226685203
 50
209.9335656697844001
 51
210.0664343349816932
  0
ARC
  5
ABBB
  8
0
 10
3630.5831693652298782
 20
222.7463123993262002
 30
0.0
 40
1.5360244134522429
 50
327.8065460815482766
 51
337.9805289784385991
  0
ARC
  5
ABBC
  8
0
 10
3632.8150683978810775
 20
221.5667989582148891
 30
0.0
 40
0.999556893334946
 50
158.8192644385933079
 51
180.407082070223197
  0
LINE
  5
ABBD
  8
0
 10
3631.815536733216959
 20
221.5596972437514864
 30
0.0
 11
3631.6263178090030124
 21
210.0581411633446862
 31
0.0
  0
ARC
  5
ABBE
  8
0
 10
3631.9342267624929264
 20
210.0517219223478946
 30
0.0
 40
0.3079758599212491
 50
178.805678947723095
 51
259.2372228962175882
  0
ARC
  5
ABBF
  8
0
 10
3615.8285803449298328
 20
213.8773593305876091
 30
0.0
 40
21.2139925949323214
 50
22.3609550382971207
 51
23.0120214620810017
  0
ARC
  5
ABC0
  8
0
 10
3634.6241762959189145
 20
221.6093646807711082
 30
0.0
 40
0.8901560012149561
 50
355.350896856861425
 51
22.3609550382971207
  0
ARC
  5
ABC1
  8
0
 10
4765.6745931822397324
 20
129.6315432097653115
 30
0.0
 40
1133.8939490959949126
 50
175.350896856859805
 51
175.9335637332843874
  0
ARC
  5
ABC2
  8
0
 10
3634.2460888126788632
 20
210.0671810641021011
 30
0.0
 40
0.3901212924502769
 50
305.3982313799123745
 51
355.9335637332828242
  0
LINE
  5
ABC3
  8
0
 10
3608.7303460021557839
 20
208.6526005985598999
 30
0.0
 11
3608.8010597160559882
 21
209.0536379969599068
 31
0.0
  0
ARC
  5
ABC4
  8
0
 10
3609.3826391297338887
 20
208.9510898544847919
 30
0.0
 40
0.590551213646645
 50
104.2482468640683066
 51
169.9999999599639864
  0
ARC
  5
ABC5
  8
0
 10
3614.2337155781779074
 20
189.847480614697588
 30
0.0
 40
20.3004682275544184
 50
100.273385895904795
 51
104.2482468640683066
  0
ARC
  5
ABC6
  8
0
 10
3614.201147375364144
 20
190.0271662634613108
 30
0.0
 40
20.117854919698221
 50
94.1617336404539742
 51
100.273385895904795
  0
ARC
  5
ABC7
  8
0
 10
3626.4389322908627946
 20
21.8424801043382786
 30
0.0
 40
188.7471881867213028
 50
92.1036741645493464
 51
94.1617336404539742
  0
ARC
  5
ABC8
  8
0
 10
3623.9345080069419964
 20
105.5874171793149969
 30
0.0
 40
104.9901029882059049
 50
88.7350767435844858
 51
90.0043988166856224
  0
ARC
  5
ABC9
  8
0
 10
3628.2257404674542158
 20
-39.2319382209455014
 30
0.0
 40
249.8464513769334019
 50
90.9859795810172329
 51
91.99903287105559
  0
ARC
  5
ABCA
  8
0
 10
3626.2474420552089214
 20
210.0848749849367891
 30
0.0
 40
0.4670844517021373
 50
59.9585255272927924
 51
89.4170634876503669
  0
ARC
  5
ABCB
  8
0
 10
3626.4278204484548951
 20
210.3960429166467065
 30
0.0
 40
0.1074161910082013
 50
297.8600024705236819
 51
60.1547919783316374
  0
LINE
  5
ABCC
  8
0
 10
3626.4780174044549312
 20
210.3010771138598898
 30
0.0
 11
3626.3879810730559257
 21
210.2548448512822006
 31
0.0
  0
ARC
  5
ABCD
  8
0
 10
3626.02351113222403
 20
209.9158261988110894
 30
0.0
 40
0.4977669981967283
 50
3.1654373382071079
 51
42.9280180434981986
  0
ARC
  5
ABCE
  8
0
 10
3616.6725706435308894
 20
208.8239371293809938
 30
0.0
 40
9.9113612309907033
 50
1.7007615568900749
 51
6.4847415004723761
  0
ARC
  5
ABCF
  8
0
 10
3626.2180574556177817
 20
209.086346231017103
 30
0.0
 40
0.3629001681871897
 50
299.7873251467974001
 51
5.0200657191529352
  0
ARC
  5
ABD0
  8
0
 10
3626.1945703821870666
 20
209.0854698040708115
 30
0.0
 40
0.3743868098339508
 50
265.8180838270005779
 51
302.9751259048854877
  0
ARC
  5
ABD1
  8
0
 10
3626.0370158271530272
 20
209.1663570339954958
 30
0.0
 40
0.4585330868741987
 50
252.3119954306858972
 51
270.1313241868301134
  0
ARC
  5
ABD2
  8
0
 10
3626.0703848140528862
 20
209.6903024869907881
 30
0.0
 40
0.9830087326817308
 50
268.1159684980730731
 51
275.6561764980280032
  0
ARC
  5
ABD3
  8
0
 10
3625.7004317398868807
 20
209.3585386092215117
 30
0.0
 40
0.6592437015341867
 50
287.4114369403508249
 51
301.9853404138294195
  0
ARC
  5
ABD4
  8
0
 10
3626.2001076257301975
 20
208.5592980236432936
 30
0.0
 40
0.2833389161919483
 50
114.0264089592789958
 51
122.0778277492368034
  0
ARC
  5
ABD5
  8
0
 10
3626.0943934780520976
 20
208.7944450276947066
 30
0.0
 40
0.0255361624139496
 50
94.3451193544699578
 51
112.2020907857194061
  0
LINE
  5
ABD6
  8
0
 10
3626.0924587570561926
 20
208.8199077935599064
 30
0.0
 11
3626.3743673896560722
 21
208.8199090635598907
 31
0.0
  0
ARC
  5
ABD7
  8
0
 10
3626.3743135339341279
 20
208.8187831759510971
 30
0.0
 40
0.0011271749404308
 50
13.6679221097819994
 51
87.2614004465521447
  0
ARC
  5
ABD8
  8
0
 10
3626.3722862089239243
 20
208.81890967051649
 30
0.0
 40
0.003125710274381
 50
342.0662143369222008
 51
2.5643797203252952
  0
ARC
  5
ABD9
  8
0
 10
3626.3502529457009587
 20
208.827877654688308
 30
0.0
 40
0.0269066726305509
 50
322.4771343573979152
 51
338.3417267968333135
  0
ARC
  5
ABDA
  8
0
 10
3626.1565144027072165
 20
209.0000906010097026
 30
0.0
 40
0.2860579981702177
 50
303.9215947553918227
 51
318.7526468172445107
  0
ARC
  5
ABDB
  8
0
 10
3626.1370660090751699
 20
209.0465765794060928
 30
0.0
 40
0.3356286953476731
 50
278.701373550074095
 51
302.247774762371705
  0
ARC
  5
ABDC
  8
0
 10
3626.3239184810731786
 20
207.6109308012891006
 30
0.0
 40
1.1122356752864559
 50
97.0274883378924642
 51
98.0965808189887412
  0
ARC
  5
ABDD
  8
0
 10
3626.0885970900458233
 20
209.5715045560266958
 30
0.0
 40
0.5088767710758115
 50
2.9099177046462121
 51
28.9250159919386789
  0
ARC
  5
ABDE
  8
0
 10
2029.2438759324838884
 20
128.4017205094486087
 30
0.0
 40
1599.4152521823880306
 50
2.8927231863877698
 51
2.9099177046462121
  0
ARC
  5
ABDF
  8
0
 10
3626.2689800222588019
 20
209.1001738711973985
 30
0.0
 40
0.3525819070998267
 50
322.807412201720922
 51
2.8927231863877698
  0
ARC
  5
ABE0
  8
0
 10
3626.2658785219678066
 20
209.1020060066639985
 30
0.0
 40
0.3561603483057474
 50
291.8337382080939051
 51
322.874229995277517
  0
ARC
  5
ABE1
  8
0
 10
3608.807889138578048
 20
208.6389273043438095
 30
0.0
 40
0.0787394245377588
 50
169.9997512947342955
 51
270.0005684345886152
  0
ARC
  5
ABE2
  8
0
 10
3623.9590826183939498
 20
215.9743576544522057
 30
0.0
 40
7.414169774640718
 50
269.9998768042252095
 51
275.643913747709405
  0
ARC
  5
ABE3
  8
0
 10
3605.9963053080778081
 20
328.7841446313743177
 30
0.0
 40
119.7633530814890008
 50
271.3419404556299241
 51
272.4726985039857254
  0
ARC
  5
ABE4
  8
0
 10
3619.4943834993860037
 20
16.20857183719815
 30
0.0
 40
193.1035304687950998
 50
91.9178065738257573
 51
92.472685863281086
  0
ARC
  5
ABE5
  8
0
 10
3606.4355187835399192
 20
406.205349404666606
 30
0.0
 40
197.1118209215318018
 50
271.9178065738258283
 51
272.8953364799480141
  0
ARC
  5
ABE6
  8
0
 10
3626.8450252701759382
 20
2.6657099579319659
 30
0.0
 40
206.9436066621460952
 50
91.9946342268388406
 51
92.8953364799479857
  0
ARC
  5
ABE7
  8
0
 10
3599.6651259689351718
 20
783.0916798523386433
 30
0.0
 40
573.9555170482414042
 50
271.994634226838798
 51
272.4570017071022789
  0
ARC
  5
ABE8
  8
0
 10
3611.4270637171389353
 20
508.9786224192123996
 30
0.0
 40
299.5902287282190741
 50
272.4570017071022789
 51
272.7282918116898145
  0
ARC
  5
ABE9
  8
0
 10
3625.7628427138470215
 20
208.1461657641698935
 30
0.0
 40
1.5836106678189861
 50
74.3735556954756731
 51
92.7282918116897577
  0
LINE
  5
ABEA
  8
0
 10
3626.1894109406562166
 20
209.671243563859889
 30
0.0
 11
3626.2077917129518028
 21
209.1160350245471022
 31
0.0
  0
ARC
  5
ABEB
  8
0
 10
3625.7039872108498457
 20
209.2025559727370876
 30
0.0
 40
0.5111798686562189
 50
292.2685668517735849
 51
350.2553535400016926
  0
ARC
  5
ABEC
  8
0
 10
3625.7435279626679403
 20
209.2621241503453859
 30
0.0
 40
0.5544869618809268
 50
273.257316269199805
 51
286.1433195756275154
  0
ARC
  5
ABED
  8
0
 10
3629.2228028229228585
 20
174.2850442745765065
 30
0.0
 40
34.5957177374789069
 50
95.7195247471148178
 51
95.9862236081376778
  0
LINE
  5
ABEE
  8
0
 10
3625.6148384599628116
 20
208.6921115562691966
 30
0.0
 11
3624.6882339833559854
 21
208.5961294298599
 31
0.0
  0
LINE
  5
ABEF
  8
0
 10
3609.0405025541272153
 20
208.5601878798100017
 30
0.0
 11
3609.0305488502558546
 21
208.5170736514598957
 31
0.0
  0
ARC
  5
ABF0
  8
0
 10
3609.0995986975472078
 20
208.5011322382478056
 30
0.0
 40
0.0708661418879464
 50
167.0000001019971876
 51
269.9999998457277002
  0
LINE
  5
ABF1
  8
0
 10
3609.099598697356214
 20
208.430266096359901
 30
0.0
 11
3625.1102621014601937
 21
208.430266096359901
 31
0.0
  0
ARC
  5
ABF2
  8
0
 10
3625.1083092374419721
 20
208.5076387760524028
 30
0.0
 40
0.0773973206298474
 50
271.4458219096218272
 51
341.1428066835492245
  0
ARC
  5
ABF3
  8
0
 10
3624.9214328975999706
 20
208.56488338281099
 30
0.0
 40
0.272816626125198
 50
342.4509551093341884
 51
354.813583808278679
  0
ARC
  5
ABF4
  8
0
 10
3627.0772786601810367
 20
208.2463572652218886
 30
0.0
 40
1.9069249577253109
 50
167.7624854652017916
 51
171.135174417905688
  0
LINE
  5
ABF5
  8
0
 10
3626.5794053848558178
 20
208.932991050696387
 30
0.0
 11
3626.5794053848558178
 21
208.5253920211598881
 31
0.0
  0
ARC
  5
ABF6
  8
0
 10
3626.7368856999410127
 20
208.5253920211598881
 30
0.0
 40
0.1574803150854862
 50
179.9999999999967031
 51
247.9756872667549885
  0
ARC
  5
ABF7
  8
0
 10
3626.6187754645679888
 20
208.2334157033421036
 30
0.0
 40
0.15748031398816
 50
359.9999997518024202
 51
67.9756872667550169
  0
LINE
  5
ABF8
  8
0
 10
3626.7762557785549689
 20
208.1940456237043975
 30
0.0
 11
3626.7762557785549689
 21
208.1940456237043975
 31
0.0
  0
LINE
  5
ABF9
  8
0
 10
3626.7762557785549689
 20
208.1940456237043975
 30
0.0
 11
3626.7762557785549689
 21
208.2334157026598973
 31
0.0
  0
LINE
  5
ABFA
  8
0
 10
3626.7762557785549689
 20
208.1940456237043975
 30
0.0
 11
3625.378617983255026
 21
208.1940456237043975
 31
0.0
  0
LINE
  5
ABFB
  8
0
 10
3625.378617983255026
 20
208.1940456237043975
 30
0.0
 11
3625.378617983255026
 21
208.2334157030599044
 31
0.0
  0
ARC
  5
ABFC
  8
0
 10
3625.5360982975398656
 20
208.2334157030599044
 30
0.0
 40
0.1574803142838661
 50
112.0243126796475934
 51
179.9999999999984084
  0
ARC
  5
ABFD
  8
0
 10
3625.4179880626029444
 20
208.525392020583098
 30
0.0
 40
0.157480314352794
 50
292.0243126796476076
 51
0.0000001734748821
  0
LINE
  5
ABFE
  8
0
 10
3625.5754683769559961
 20
208.5253920210599006
 30
0.0
 11
3625.5754683764630499
 21
208.6880334145953952
 31
0.0
  0
LINE
  5
ABFF
  8
0
 10
3625.6738935739558656
 20
208.6982337479599039
 30
0.0
 11
3625.6738935738558212
 21
208.3908903418598868
 31
0.0
  0
ARC
  5
AC00
  8
0
 10
3625.7134364937419377
 20
208.3908903418470118
 30
0.0
 40
0.0395429198867987
 50
179.999999981352687
 51
275.4503229524278254
  0
LINE
  5
AC01
  8
0
 10
3625.7171923862561016
 20
208.3515261984599078
 30
0.0
 11
3626.4376814004558582
 21
208.3515261955598987
 31
0.0
  0
ARC
  5
AC02
  8
0
 10
3626.4411069878910894
 20
208.3912536342324131
 30
0.0
 40
0.0398748543198302
 50
265.0717383698640219
 51
359.478095837400474
  0
LINE
  5
AC03
  8
0
 10
3626.4809801879559927
 20
208.3908904213598987
 30
0.0
 11
3626.4815109397832202
 21
208.8185402166780023
 31
0.0
  0
LINE
  5
AC04
  8
0
 10
3620.12589543515287
 20
208.4302660963909943
 30
0.0
 11
3620.1365289435839259
 21
208.3087245386599022
 31
0.0
  0
ARC
  5
AC05
  8
0
 10
3620.1757492148281017
 20
208.3121558677682117
 30
0.0
 40
0.039370086308305
 50
184.9999999913156898
 51
269.9998753252854158
  0
LINE
  5
AC06
  8
0
 10
3620.1757491291591577
 20
208.2727857814599872
 30
0.0
 11
3620.3649514042358533
 21
208.2727853697587079
 31
0.0
  0
ARC
  5
AC07
  8
0
 10
3620.3649514899038877
 20
208.3121552298306938
 30
0.0
 40
0.0393698600720617
 50
269.9998753252854158
 51
355.0009031527919774
  0
LINE
  5
AC08
  8
0
 10
3620.4041715898561051
 20
208.3087245386599022
 30
0.0
 11
3620.4148031677841573
 21
208.4302660963892038
 31
0.0
  0
LINE
  5
AC09
  8
0
 10
3611.8108935003178885
 20
208.4302661345120953
 30
0.0
 11
3611.8284158838559961
 21
208.2299843742599137
 31
0.0
  0
ARC
  5
AC0A
  8
0
 10
3611.8676361480561354
 20
208.2334157029486903
 30
0.0
 40
0.0393700792548917
 50
185.0000002765090983
 51
270.0013327745335232
  0
LINE
  5
AC0B
  8
0
 10
3611.8676370638559092
 20
208.1940456237043975
 30
0.0
 11
3612.7458718154562121
 21
208.1940456237043975
 31
0.0
  0
ARC
  5
AC0C
  8
0
 10
3612.7458725816009064
 20
208.2334159041066073
 30
0.0
 40
0.0393702804096555
 50
269.9988850254998738
 51
354.9996905633998949
  0
LINE
  5
AC0D
  8
0
 10
3612.785093027674975
 20
208.2299843462579076
 30
0.0
 11
3612.8026154149151807
 21
208.4302661484674957
 31
0.0
  0
LINE
  5
AC0E
  8
0
 10
3611.9989675189431182
 20
208.4302661371586964
 30
0.0
 11
3611.9989675189431182
 21
208.4302601168647868
 31
0.0
  0
LINE
  5
AC0F
  8
0
 10
3609.4266868142558451
 20
208.1510161654599074
 30
0.0
 11
3611.727716985555162
 21
208.1511666039598936
 31
0.0
  0
LINE
  5
AC10
  8
0
 10
3611.727716985555162
 20
208.1511666039598936
 30
0.0
 11
3614.0033012602561939
 21
208.1540795929599028
 31
0.0
  0
LINE
  5
AC11
  8
0
 10
3614.0033012602561939
 20
208.1540795929599028
 30
0.0
 11
3617.5277963928060672
 21
208.1569761677598933
 31
0.0
  0
ARC
  5
AC12
  8
0
 10
3624.7353466890767777
 20
-1119.9383214200320253
 30
0.0
 40
1328.1148550694249479
 50
89.896353124607117
 51
90.3109401555975921
  0
LINE
  5
AC13
  8
0
 10
3625.4652427357559645
 20
208.1940456237043975
 30
0.0
 11
3625.4652329389109582
 21
208.1763256660819081
 31
0.0
  0
LINE
  5
AC14
  8
0
 10
3626.6896521845560528
 20
208.1940456237043975
 30
0.0
 11
3626.6896521845560528
 21
208.1750838623871971
 31
0.0
  0
ARC
  5
AC15
  8
0
 10
3627.1412831555689991
 20
208.9601289601206986
 30
0.0
 40
0.7857757555581398
 50
269.7516771056803009
 51
303.2992688982182017
  0
ARC
  5
AC16
  8
0
 10
3627.1125269651511189
 20
209.0039072935512934
 30
0.0
 40
0.8381538136104445
 50
303.2992688982182017
 51
314.7216996923841066
  0
ARC
  5
AC17
  8
0
 10
3626.2973264495199146
 20
209.7453488667628108
 30
0.0
 40
1.939452266126322
 50
316.4206649435690224
 51
330.160607720035614
  0
LINE
  5
AC18
  8
0
 10
3627.9796530508488104
 20
208.7803347222848913
 30
0.0
 11
3628.3067279469091773
 21
209.240573785113412
 31
0.0
  0
ARC
  5
AC19
  8
0
 10
3628.6517632773220612
 20
209.0300133060304972
 30
0.0
 40
0.4042092213012784
 50
90.5429858109549599
 51
148.6060477667548128
  0
LINE
  5
AC1A
  8
0
 10
3628.647932688255878
 20
209.4342043761598973
 30
0.0
 11
3628.8053622542101948
 21
209.4342031029833038
 31
0.0
  0
ARC
  5
AC1B
  8
0
 10
3628.8053628909810868
 20
209.5129406368257889
 30
0.0
 40
0.0787375338450565
 50
269.9995366331132232
 51
358.0017690763417022
  0
LINE
  5
AC1C
  8
0
 10
3628.8840525448558765
 20
209.51019516615969
 30
0.0
 11
3628.8897387741340026
 21
209.6731717440169973
 31
0.0
  0
ARC
  5
AC1D
  8
0
 10
3628.9684283527631123
 20
209.6704262759762116
 30
0.0
 40
0.0787374585547601
 50
89.994437391289722
 51
178.0017690763401106
  0
ARC
  5
AC1E
  8
0
 10
3609.4266957178310804
 20
207.7572912918363102
 30
0.0
 40
0.3937251349353391
 50
89.9377015271735729
 51
186.1281457117150069
  0
ARC
  5
AC1F
  8
0
 10
3613.382886988590144
 20
208.1820518916468927
 30
0.0
 40
4.3726535004596023
 50
186.1281457117150069
 51
198.583680516786103
  0
ARC
  5
AC20
  8
0
 10
3644.5697608599161867
 20
219.5593420087703009
 30
0.0
 40
37.5687479599061902
 50
199.8727126533813987
 51
200.8291426338246879
  0
ARC
  5
AC21
  8
0
 10
3619.3093058487061171
 20
210.19031626034959
 30
0.0
 40
10.6301221730636009
 50
202.0444551195444944
 51
212.9165472828645136
  0
ARC
  5
AC22
  8
0
 10
3619.2958566541960863
 20
210.1794483388374033
 30
0.0
 40
10.6129264152389702
 50
212.9067503126399004
 51
234.9836649014588943
  0
ARC
  5
AC23
  8
0
 10
3613.0226435269892136
 20
201.2265521503603907
 30
0.0
 40
0.3190248838217343
 50
356.2803502976644836
 51
54.9067340108382993
  0
LINE
  5
AC24
  8
0
 10
3631.4553896368561254
 20
192.8200298758598876
 30
0.0
 11
3631.2848311382631437
 21
195.2591272932822051
 31
0.0
  0
ARC
  5
AC25
  8
0
 10
3630.6949753231538125
 20
195.2176279756851045
 30
0.0
 40
0.5913140473744151
 50
4.024408704937108
 51
40.4757601347299882
  0
ARC
  5
AC26
  8
0
 10
3630.6894575758487917
 20
195.2129194100085954
 30
0.0
 40
0.5985677447802144
 50
40.4757601347299882
 51
81.3491372978243845
  0
LINE
  5
AC27
  8
0
 10
3630.1970624653549748
 20
195.9391413790116019
 30
0.0
 11
3630.7794899609039021
 21
195.804677396632087
 31
0.0
  0
ARC
  5
AC28
  8
0
 10
3630.2945395546239524
 20
196.4856998619665944
 30
0.0
 40
0.5551828151361963
 50
179.9772231487702925
 51
259.8877878823378751
  0
LINE
  5
AC29
  8
0
 10
3629.7393567833560155
 20
196.4859205643666087
 30
0.0
 11
3629.7393567833560155
 21
197.1113790002488031
 31
0.0
  0
ARC
  5
AC2A
  8
0
 10
3629.7787342077140238
 20
197.1113611096228055
 30
0.0
 40
0.0393774284221924
 50
90.0106882348623714
 51
179.9739684017021943
  0
LINE
  5
AC2B
  8
0
 10
3629.7787268620550094
 20
197.1507385373598993
 30
0.0
 11
3629.8574670195562248
 21
197.1507385373598993
 31
0.0
  0
ARC
  5
AC2C
  8
0
 10
3629.8574696266960018
 20
197.1901060185770973
 30
0.0
 40
0.0393674813035581
 50
269.996205544974714
 51
0.0403120372903535
  0
LINE
  5
AC2D
  8
0
 10
3629.8968370982561282
 20
197.1901337166598864
 30
0.0
 11
3629.8968370982561282
 21
198.4892537687597951
 31
0.0
  0
ARC
  5
AC2E
  8
0
 10
3629.8574453596038438
 20
198.4892995769280049
 30
0.0
 40
0.0393917652867835
 50
359.9333714730340148
 51
89.9684953471158764
  0
LINE
  5
AC2F
  8
0
 10
3629.8574670195562248
 20
198.5286913362598966
 30
0.0
 11
3629.7787268620550094
 21
198.528691293159909
 31
0.0
  0
ARC
  5
AC30
  8
0
 10
3629.7787406645320516
 20
198.5680752074011082
 30
0.0
 40
0.0393839166598886
 50
179.9230880298860882
 51
269.9799201373796791
  0
LINE
  5
AC31
  8
0
 10
3629.7393567833560155
 20
198.5681280750596898
 30
0.0
 11
3629.7393567833560155
 21
202.2921379929248928
 31
0.0
  0
ARC
  5
AC32
  8
0
 10
3629.4827807256838241
 20
202.2867953959355987
 30
0.0
 40
0.2566316751936467
 50
1.1928783701067489
 51
56.9787499117254015
  0
LINE
  5
AC33
  8
0
 10
3629.6226321693570753
 20
202.5019729747293979
 30
0.0
 11
3629.1918808600557895
 21
202.8869183090598938
 31
0.0
  0
ARC
  5
AC34
  8
0
 10
3629.2347107605100973
 20
202.9045169415655891
 30
0.0
 40
0.0463045595913593
 50
179.8161280206701065
 51
202.3375618983546929
  0
ARC
  5
AC35
  8
0
 10
3631.1431018289658823
 20
202.9184827066931973
 30
0.0
 40
1.9547442237370081
 50
170.4761152953252008
 51
180.405000248156
  0
ARC
  5
AC36
  8
0
 10
3630.8592755938088885
 20
202.8182523162969062
 30
0.0
 40
1.697687290669921
 50
136.6496951146104948
 51
165.5490435971217948
  0
ARC
  5
AC37
  8
0
 10
3636.3985091505510354
 20
198.3057148126879952
 30
0.0
 40
8.8386892018367025
 50
119.9999352697268051
 51
140.0293824802955953
  0
ARC
  5
AC38
  8
0
 10
3633.2021114379658684
 20
203.6608066873641008
 30
0.0
 40
2.6044219637164181
 50
102.298212722069195
 51
118.005885071932596
  0
ARC
  5
AC39
  8
0
 10
3633.8821838391481833
 20
209.7192769556741894
 30
0.0
 40
0.2396330063127121
 50
355.1853039400634202
 51
7.164526168017697
  0
LINE
  5
AC3A
  8
0
 10
3634.120971267700952
 20
209.699163734159896
 30
0.0
 11
3634.1148030390991153
 21
209.5916836504408138
 31
0.0
  0
LINE
  5
AC3B
  8
0
 10
3634.1148030390991153
 20
209.5916836504408138
 30
0.0
 11
3634.1949641711557888
 21
209.5916834192599083
 31
0.0
  0
LINE
  5
AC3C
  8
0
 10
3634.1949641711557888
 20
209.5916834192599083
 30
0.0
 11
3634.0369419737558019
 21
207.5838210271598996
 31
0.0
  0
LINE
  5
AC3D
  8
0
 10
3634.0369419737558019
 20
207.5838210271598996
 30
0.0
 11
3633.9568472990558803
 21
207.5838233770599004
 31
0.0
  0
ARC
  5
AC3E
  8
0
 10
3634.9930901852630996
 20
207.2300446745337013
 30
0.0
 40
1.094969720849283
 50
161.149828808011307
 51
174.0398577136103881
  0
ARC
  5
AC3F
  8
0
 10
3654.5088302877111346
 20
204.5202879992714884
 30
0.0
 40
20.7973387898824313
 50
172.1974087560251121
 51
175.3512315391108132
  0
LINE
  5
AC40
  8
0
 10
3633.779909450555806
 20
206.205856647559898
 30
0.0
 11
3615.773108112492082
 21
206.205856647559898
 31
0.0
  0
LINE
  5
AC41
  8
0
 10
3612.3277604016561781
 20
206.3239699933598956
 30
0.0
 11
3617.5568071374559622
 21
206.3633299369599001
 31
0.0
  0
LINE
  5
AC42
  8
0
 10
3617.5568071374559622
 20
206.3633299369599001
 30
0.0
 11
3633.7933190577841742
 21
206.363354288839389
 31
0.0
  0
ARC
  5
AC43
  8
0
 10
3619.9971674430589701
 20
379.7301845860718004
 30
0.0
 40
173.5757329344754964
 50
267.4675736388917926
 51
268.6055385592777043
  0
ARC
  5
AC44
  8
0
 10
3681.4260857590529668
 20
-705.51427201518743
 30
0.0
 40
913.0691474874931828
 50
93.4012583727713945
 51
93.533063498994693
  0
ARC
  5
AC45
  8
0
 10
3621.0122707980917767
 20
329.2951185658387203
 30
0.0
 40
123.4835577459873974
 50
269.4663452591059922
 51
270.1778576273957242
  0
ARC
  5
AC46
  8
0
 10
3622.4754207228011182
 20
2243243.9635525811463594
 30
0.0
 40
2243038.1513970741070807
 50
269.9999724169466049
 51
270.0000275830533951
  0
ARC
  5
AC47
  8
0
 10
3623.9560515405601109
 20
293.3491048534182823
 30
0.0
 40
87.5378666317220535
 50
269.7376664540215074
 51
270.787148385308285
  0
ARC
  5
AC48
  8
0
 10
3621.7969382675419183
 20
223.6746162254387968
 30
0.0
 40
17.9622047520788009
 50
263.816446375324972
 51
267.297538687010217
  0
ARC
  5
AC49
  8
0
 10
3622.79697979799721
 20
255.6811382822386065
 30
0.0
 40
49.9828856566303372
 50
267.8823467036041279
 51
270.6972018172252774
  0
ARC
  5
AC4A
  8
0
 10
3627.2743518668380602
 20
205.7524645386071995
 30
0.0
 40
0.1950006772986886
 50
345.6057348573855847
 51
95.6223007128153739
  0
ARC
  5
AC4B
  8
0
 10
3615.6960640440161114
 20
208.6340574876761877
 30
0.0
 40
12.1264802463498196
 50
341.1949768447769884
 51
346.0174922468203818
  0
ARC
  5
AC4C
  8
0
 10
3616.5230489140421923
 20
208.2469597500893883
 30
0.0
 40
11.2193029502708708
 50
328.1168363907748926
 51
341.704944436572589
  0
ARC
  5
AC4D
  8
0
 10
3626.7615968938130209
 20
192.4547731550713934
 30
0.0
 40
1.6716083166246709
 50
76.6041023752302408
 51
88.822898613660854
  0
ARC
  5
AC4E
  8
0
 10
3627.4412431566879604
 20
188.2369544180209004
 30
0.0
 40
5.9243241640246884
 50
96.2533468920708941
 51
102.4942680262182932
  0
ARC
  5
AC4F
  8
0
 10
3625.3573850101079188
 20
198.2571019471436102
 30
0.0
 40
4.3114089643693152
 50
270.6088792780154222
 51
280.7229064800429796
  0
LINE
  5
AC50
  8
0
 10
3625.4032012672560086
 20
193.9459364285598895
 30
0.0
 11
3621.1945881803558223
 21
193.9459364285598895
 31
0.0
  0
ARC
  5
AC51
  8
0
 10
3621.2103751793788433
 20
194.3175955512276971
 30
0.0
 40
0.3719942644724438
 50
178.7214888289759074
 51
267.5677040230859234
  0
LINE
  5
AC52
  8
0
 10
3620.8384735236559209
 20
194.3258956277597918
 30
0.0
 11
3620.8384733152561239
 21
200.3005335005599079
 31
0.0
  0
ARC
  5
AC53
  8
0
 10
3617.8228246172839135
 20
208.1315408099270883
 30
0.0
 40
8.3915917768288644
 50
280.183124007424226
 51
291.061235228155283
  0
ARC
  5
AC54
  8
0
 10
3617.8068692789202032
 20
205.613096643308495
 30
0.0
 40
5.9335713765704741
 50
253.3004999877948933
 51
284.6386596416166981
  0
ARC
  5
AC55
  8
0
 10
3618.1654469681338924
 20
208.0190874787155053
 30
0.0
 40
8.3483802540970142
 50
234.697683849611991
 51
255.6889469227280074
  0
ARC
  5
AC56
  8
0
 10
3626.6748018829330249
 20
193.0782075475927968
 30
0.0
 40
1.1090682878132381
 50
64.7069214202230114
 51
84.3589105331682845
  0
ARC
  5
AC57
  8
0
 10
3626.6960422867477973
 20
207.3446442638158942
 30
0.0
 40
13.1630321385609097
 50
267.6034130070966057
 51
270.3820778069612061
  0
ARC
  5
AC58
  8
0
 10
3626.5699680461248136
 20
205.1021719587384951
 30
0.0
 40
10.9172967990197307
 50
260.8847683156780022
 51
267.7723644795311202
  0
ARC
  5
AC59
  8
0
 10
3621.3573460253592202
 20
170.5839951771008884
 30
0.0
 40
23.9929168657839398
 50
81.6527652917325781
 51
91.2391791474868654
  0
ARC
  5
AC5A
  8
0
 10
3624.9776064904108352
 20
202.9717366595980934
 30
0.0
 40
1.254071609813838
 50
269.882849387694705
 51
328.7441897187359245
  0
LINE
  5
AC5B
  8
0
 10
3624.9750423372429395
 20
201.7176676712008998
 30
0.0
 11
3622.5295039766560876
 21
201.7176627943599101
 31
0.0
  0
ARC
  5
AC5C
  8
0
 10
3623.0094559935009784
 20
200.8167555950354028
 30
0.0
 40
1.020777997543278
 50
118.0461478539590985
 51
147.5166657228828058
  0
ARC
  5
AC5D
  8
0
 10
3624.660888381130917
 20
199.9071500357304103
 30
0.0
 40
2.9048112644236421
 50
149.8766352775255086
 51
175.4172050692189089
  0
ARC
  5
AC5E
  8
0
 10
3544.1970639314399705
 20
212.6988590844200075
 30
0.0
 40
78.5785284327983078
 50
349.0142604614126753
 51
350.8026685071282031
  0
ARC
  5
AC5F
  8
0
 10
3616.2797713047179968
 20
198.7060179211561888
 30
0.0
 40
5.150221179518347
 50
332.2696020747061993
 51
349.0142604614126753
  0
ARC
  5
AC60
  8
0
 10
3630.3451795555670287
 20
199.1920158451316922
 30
0.0
 40
8.2758362254088471
 50
153.0891434738209114
 51
162.577562515940599
  0
ARC
  5
AC61
  8
0
 10
3650.1456335842940462
 20
189.1419542397883902
 30
0.0
 40
30.4808293128854793
 50
149.9698189296717885
 51
153.0891434738223893
  0
ARC
  5
AC62
  8
0
 10
3630.163168751187186
 20
200.6928745533450922
 30
0.0
 40
7.400043778235557
 50
144.9332852621110135
 51
149.9698189296717885
  0
ARC
  5
AC63
  8
0
 10
3624.013405583129952
 20
205.0096653690386859
 30
0.0
 40
0.1135618788132262
 50
324.9332852621109851
 51
91.6618606570056329
  0
ARC
  5
AC64
  8
0
 10
3622.4783164488808325
 20
68.5698834244516888
 30
0.0
 40
136.5536151445020892
 50
89.8761373039416469
 51
91.0917189580811737
  0
ARC
  5
AC65
  8
0
 10
3623.3918158170258721
 20
491.131142888047691
 30
0.0
 40
286.0086317263657065
 50
269.8761373039416185
 51
270.1238626960583815
  0
ARC
  5
AC66
  8
0
 10
3635.0936079458510903
 20
117.0736240336273966
 30
0.0
 40
89.3307012443892745
 50
99.4969851585738638
 51
99.8078791227306539
  0
ARC
  5
AC67
  8
0
 10
3621.3232821129267904
 20
199.388550184377408
 30
0.0
 40
5.8719153633063668
 50
93.9159615341994538
 51
99.4971401094451124
  0
ARC
  5
AC68
  8
0
 10
3622.7159999321220312
 20
179.0429559344634072
 30
0.0
 40
26.265121788634179
 50
92.2536112984046355
 51
93.9159615341994538
  0
ARC
  5
AC69
  8
0
 10
3622.7926732063028794
 20
121.3992254349586943
 30
0.0
 40
83.8958744085553718
 50
89.7088054073577297
 51
90.7577371670249136
  0
LINE
  5
AC6A
  8
0
 10
3623.4051798959558255
 20
205.7019531027598873
 30
0.0
 11
3623.2190557428561988
 21
205.2940163382598087
 31
0.0
  0
LINE
  5
AC6B
  8
0
 10
3628.6487570251638317
 20
192.8200298758598876
 30
0.0
 11
3628.6246456122557902
 21
194.0811232317597899
 31
0.0
  0
LINE
  5
AC6C
  8
0
 10
3628.6246456122557902
 20
194.0811232317597899
 30
0.0
 11
3627.1488721869559413
 21
194.0809011363598984
 31
0.0
  0
LINE
  5
AC6D
  8
0
 10
3629.2644587626709836
 20
222.170423576659914
 30
0.0
 11
3637.0043925871191277
 21
222.170423576659914
 31
0.0
  0
LINE
  5
AC6F
  8
0
 10
3623.9590826183939498
 20
208.5601878798287032
 30
0.0
 11
3608.807889138578048
 21
208.5601878798287032
 31
0.0
  0
ENDSEC
  0
EOF
