  0
SECTION
  2
HEADER
  9
$ACADVER
  1
AC1009
  9
$INSBASE
 10
3688.0249367727501522
 20
339.2781783631114081
 30
0.0
  9
$EXTMIN
 10
3679.9925917397890771
 20
323.9162899211542026
 30
-0.0015258207003583
  9
$EXTMAX
 10
3696.631886855941957
 20
350.235523404612195
 30
0.0000000349246037
  9
$LIMMIN
 10
0.0
 20
0.0
  9
$LIMMAX
 10
11.6929133858000007
 20
8.2677165353999982
  9
$ORTHOMODE
 70
     0
  9
$REGENMODE
 70
     1
  9
$FILLMODE
 70
     1
  9
$QTEXTMODE
 70
     0
  9
$MIRRTEXT
 70
     0
  9
$DRAGMODE
 70
     2
  9
$LTSCALE
 40
0.6431102362
  9
$OSMODE
 70
  4095
  9
$ATTMODE
 70
     1
  9
$TEXTSIZE
 40
0.2
  9
$TRACEWID
 40
0.05
  9
$TEXTSTYLE
  7
STANDARD
  9
$CLAYER
  8
0
  9
$CELTYPE
  6
BYLAYER
  9
$CECOLOR
 62
   256
  9
$DIMSCALE
 40
1.0
  9
$DIMASZ
 40
0.1875
  9
$DIMEXO
 40
0.0625
  9
$DIMDLI
 40
0.4443307087
  9
$DIMRND
 40
0.0
  9
$DIMDLE
 40
0.0
  9
$DIMEXE
 40
0.125
  9
$DIMTP
 40
0.01
  9
$DIMTM
 40
0.01
  9
$DIMTXT
 40
2.0
  9
$DIMCEN
 40
0.1052362205
  9
$DIMTSZ
 40
0.0
  9
$DIMTOL
 70
     1
  9
$DIMLIM
 70
     0
  9
$DIMTIH
 70
     1
  9
$DIMTOH
 70
     1
  9
$DIMSE1
 70
     0
  9
$DIMSE2
 70
     0
  9
$DIMTAD
 70
     0
  9
$DIMZIN
 70
     0
  9
$DIMBLK
  1

  9
$DIMASO
 70
     1
  9
$DIMSHO
 70
     1
  9
$DIMPOST
  1
\X
  9
$DIMAPOST
  1

  9
$DIMALT
 70
     1
  9
$DIMALTD
 70
     2
  9
$DIMALTF
 40
25.3999999999999986
  9
$DIMLFAC
 40
1.0
  9
$DIMTOFL
 70
     0
  9
$DIMTVP
 40
0.0
  9
$DIMTIX
 70
     0
  9
$DIMSOXD
 70
     0
  9
$DIMSAH
 70
     0
  9
$DIMBLK1
  1

  9
$DIMBLK2
  1

  9
$DIMSTYLE
  2
STANDARD
  9
$DIMCLRD
 70
     0
  9
$DIMCLRE
 70
     0
  9
$DIMCLRT
 70
     0
  9
$DIMTFAC
 40
1.0
  9
$DIMGAP
 40
0.09
  9
$LUNITS
 70
     2
  9
$LUPREC
 70
     4
  9
$SKETCHINC
 40
0.1
  9
$FILLETRAD
 40
0.0
  9
$AUNITS
 70
     0
  9
$AUPREC
 70
     0
  9
$MENU
  1
.
  9
$ELEVATION
 40
0.0
  9
$PELEVATION
 40
0.0
  9
$THICKNESS
 40
0.0
  9
$LIMCHECK
 70
     0
  9
$BLIPMODE
 70
     0
  9
$CHAMFERA
 40
0.0
  9
$CHAMFERB
 40
0.0
  9
$SKPOLY
 70
     0
  9
$TDCREATE
 40
2458060.468368056230247
  9
$TDUPDATE
 40
2459076.7976273149251938
  9
$TDINDWG
 40
0.7027153935
  9
$TDUSRTIMER
 40
0.7027153935
  9
$USRTIMER
 70
     1
  9
$ANGBASE
 50
0.0
  9
$ANGDIR
 70
     0
  9
$PDMODE
 70
     0
  9
$PDSIZE
 40
0.3125
  9
$PLINEWID
 40
0.0
  9
$COORDS
 70
     1
  9
$SPLFRAME
 70
     0
  9
$SPLINETYPE
 70
     6
  9
$SPLINESEGS
 70
     8
  9
$ATTDIA
 70
     1
  9
$ATTREQ
 70
     1
  9
$HANDLING
 70
     1
  9
$HANDSEED
  5
E948
  9
$SURFTAB1
 70
     6
  9
$SURFTAB2
 70
     6
  9
$SURFTYPE
 70
     6
  9
$SURFU
 70
     6
  9
$SURFV
 70
     6
  9
$UCSNAME
  2

  9
$UCSORG
 10
0.0
 20
0.0
 30
0.0
  9
$UCSXDIR
 10
1.0
 20
0.0
 30
0.0
  9
$UCSYDIR
 10
0.0
 20
1.0
 30
0.0
  9
$PUCSNAME
  2

  9
$PUCSORG
 10
0.0
 20
0.0
 30
0.0
  9
$PUCSXDIR
 10
1.0
 20
0.0
 30
0.0
  9
$PUCSYDIR
 10
0.0
 20
1.0
 30
0.0
  9
$USERI1
 70
     0
  9
$USERI2
 70
     0
  9
$USERI3
 70
     0
  9
$USERI4
 70
     0
  9
$USERI5
 70
     0
  9
$USERR1
 40
0.0
  9
$USERR2
 40
0.0
  9
$USERR3
 40
0.0
  9
$USERR4
 40
0.0
  9
$USERR5
 40
0.0
  9
$WORLDVIEW
 70
     1
  9
$SHADEDGE
 70
     3
  9
$SHADEDIF
 70
    70
  9
$TILEMODE
 70
     1
  9
$MAXACTVP
 70
    64
  9
$PLIMCHECK
 70
     0
  9
$PEXTMIN
 10
1.0000000000000000E+20
 20
1.0000000000000000E+20
 30
1.0000000000000000E+20
  9
$PEXTMAX
 10
-1.0000000000000000E+20
 20
-1.0000000000000000E+20
 30
-1.0000000000000000E+20
  9
$PLIMMIN
 10
0.0
 20
0.0
  9
$PLIMMAX
 10
12.0
 20
9.0
  9
$UNITMODE
 70
     0
  9
$VISRETAIN
 70
     1
  9
$PLINEGEN
 70
     0
  9
$PSLTSCALE
 70
     1
  0
ENDSEC
  0
SECTION
  2
TABLES
  0
TABLE
  2
VPORT
 70
     1
  0
VPORT
  2
*ACTIVE
 70
     0
 10
0.0
 20
0.0
 11
1.0
 21
1.0
 12
-0.5371259365092556
 22
-8.7335415793043012
 13
0.0
 23
0.0
 14
1.0
 24
1.0
 15
0.0
 25
0.0
 16
0.0
 26
0.0
 36
84.6342861404427254
 17
3688.849365234375
 27
345.8094482421875
 37
0.0
 40
26.5382562308931504
 41
2.6486111111111108
 42
50.0
 43
0.0
 44
0.0
 50
0.0
 51
0.0
 71
     0
 72
   100
 73
     1
 74
     1
 75
     0
 76
     0
 77
     0
 78
     0
  0
ENDTAB
  0
TABLE
  2
LTYPE
 70
     2
  0
LTYPE
  2
CONTINUOUS
 70
     0
  3
Solid line
 72
    65
 73
     0
 40
0.0
  0
LTYPE
  2
PHANTOM2
 70
     0
  3
___ _ _ ___ _ _ ___ _ _ ___ _ _
 72
    65
 73
     6
 40
1.25
 49
0.625
 49
-0.125
 49
0.125
 49
-0.125
 49
0.125
 49
-0.125
  0
ENDTAB
  0
TABLE
  2
LAYER
 70
     2
  0
LAYER
  2
0
 70
     0
 62
   255
  6
CONTINUOUS
  0
LAYER
  2
DEFPOINTS
 70
     0
 62
     7
  6
CONTINUOUS
  0
ENDTAB
  0
TABLE
  2
STYLE
 70
     1
  0
STYLE
  2
STANDARD
 70
     0
 40
0.0
 41
0.8
 50
0.0
 71
     0
 42
0.2
  3
txt
  4

  0
ENDTAB
  0
TABLE
  2
VIEW
 70
     0
  0
ENDTAB
  0
TABLE
  2
UCS
 70
     0
  0
ENDTAB
  0
TABLE
  2
APPID
 70
     9
  0
APPID
  2
ACAD
 70
     0
  0
APPID
  2
ACAD_MLEADERVER
 70
     0
  0
APPID
  2
ACAD_EXEMPT_FROM_CAD_STANDARDS
 70
     0
  0
APPID
  2
ACAD_NAV_VCDISPLAY
 70
     0
  0
APPID
  2
ACAECLAYERSTANDARD
 70
     0
  0
APPID
  2
ACCMTRANSPARENCY
 70
     0
  0
APPID
  2
ACAD_DSTYLE_DIMJAG
 70
     0
  0
APPID
  2
ACAD_DSTYLE_DIMTALN
 70
     0
  0
APPID
  2
ACDBATTR
 70
     0
  0
ENDTAB
  0
TABLE
  2
DIMSTYLE
 70
     1
  0
DIMSTYLE
  2
STANDARD
 70
     0
  3

  4

  5

  6

  7

 40
1.0
 41
0.1875
 42
0.0625
 43
0.38
 44
0.125
 45
0.0
 46
0.0
 47
0.01
 48
0.01
140
0.15625
141
0.09
142
0.0
143
25.3999999999999986
144
1.0
145
0.0
146
1.0
147
0.09
 71
     1
 72
     0
 73
     1
 74
     1
 75
     0
 76
     0
 77
     0
 78
     4
170
     0
171
     2
172
     0
173
     0
174
     0
175
     0
176
     0
177
     0
178
     0
  0
ENDTAB
  0
ENDSEC
  0
SECTION
  2
BLOCKS
  0
BLOCK
  8
0
  2
$MODEL_SPACE
 70
     0
 10
0.0
 20
0.0
 30
0.0
  3
$MODEL_SPACE
  1

  0
ENDBLK
  5
21
  8
0
  0
BLOCK
 67
     1
  8
0
  2
$PAPER_SPACE
 70
     0
 10
0.0
 20
0.0
 30
0.0
  3
$PAPER_SPACE
  1

  0
ENDBLK
  5
1D
 67
     1
  8
0
  0
BLOCK
  8
0
  2
_FILLED
 70
     0
 10
0.0
 20
0.0
 30
0.0
  3
_FILLED
  1

  0
SOLID
  5
E286
  8
0
  6
BYBLOCK
 62
     0
 10
0.0
 20
0.0
 30
0.0
 11
-1.0
 21
0.1666666667
 31
0.0
 12
-1.0
 22
-0.1666666667
 32
0.0
 13
-1.0
 23
-0.1666666667
 33
0.0
  0
ENDBLK
  5
E287
  8
0
  6
BYBLOCK
 62
     0
  0
ENDSEC
  0
SECTION
  2
ENTITIES
  0
ATTDEF
  5
3930
  8
DEFPOINTS
 10
3688.0251127416759118
 20
339.2820907396636017
 30
0.0
 40
0.001
  1
K-8793T-4M
  3

  2
MODELNUMBER
 70
     0
1001
ACDBATTR
1070
     0
1070
     1
  0
ATTDEF
  5
3931
  8
DEFPOINTS
 10
3688.0251127416759118
 20
339.2804240729969933
 30
0.0
 40
0.001
  1
FINIAL
  3

  2
TRADENAME
 70
     0
1001
ACDBATTR
1070
     0
1070
     1
  0
ATTDEF
  5
3932
  8
DEFPOINTS
 10
3688.0251127416759118
 20
339.2787574063303282
 30
0.0
 40
0.001
  1
BATH FAUCET
  3

  2
PRODUCT
 70
     0
1001
ACDBATTR
1070
     0
1070
     1
  0
LINE
  5
E485
  8
0
 10
3687.3878986587760664
 20
340.041299229561389
 30
0.0
 11
3687.3878986587760664
 21
340.2104919503614155
 31
0.0
  0
LINE
  5
E486
  8
0
 10
3687.5197884225758571
 20
340.3168897807614144
 30
0.0
 11
3687.5197884225758571
 21
340.6594094657614278
 31
0.0
  0
LINE
  5
E487
  8
0
 10
3687.5197884225758571
 20
340.7348712552613961
 30
0.0
 11
3687.5197884225758571
 21
341.0033027428614218
 31
0.0
  0
LINE
  5
E488
  8
0
 10
3687.4951666348770232
 20
340.2803864793614252
 30
0.0
 11
3687.4125204463771297
 21
340.2469952517614047
 31
0.0
  0
LINE
  5
E489
  8
0
 10
3687.584749052476127
 20
340.6594094657614278
 30
0.0
 11
3687.584749052476127
 21
340.7151862200614119
 31
0.0
  0
LINE
  5
E48A
  8
0
 10
3687.7291005018259966
 20
327.8318555285114257
 30
0.0
 11
3687.7291007303260812
 21
339.6202019852113949
 31
0.0
  0
LINE
  5
E48B
  8
0
 10
3688.3183503589261818
 20
327.8318555285114826
 30
0.0
 11
3688.3183616615260689
 21
339.6202019852113949
 31
0.0
  0
LINE
  5
E48C
  8
0
 10
3687.4476623839759668
 20
341.0149754033614045
 30
0.0
 11
3687.4422973883761188
 21
341.0270150145614139
 31
0.0
  0
LINE
  5
E48D
  8
0
 10
3687.5197883664768597
 20
340.7348712552613961
 30
0.0
 11
3687.5394734577757845
 21
340.7151861662613896
 31
0.0
  0
LINE
  5
E48E
  8
0
 10
3687.4272690678772051
 20
340.0019291508086212
 30
0.0
 11
3688.6201821224772175
 21
340.0019291508086212
 31
0.0
  0
LINE
  5
E48F
  8
0
 10
3688.5276624373768755
 20
340.6594094657614278
 30
0.0
 11
3687.5197948401760186
 21
340.6594094657614278
 31
0.0
  0
LINE
  5
E490
  8
0
 10
3687.5394734577757845
 20
340.7151862200614119
 30
0.0
 11
3688.5079774021760386
 21
340.7151861662613896
 31
0.0
  0
LINE
  5
E491
  8
0
 10
3687.4656526076760201
 20
341.0033027428614218
 30
0.0
 11
3688.5817982530761583
 21
341.0033027428614218
 31
0.0
  0
ARC
  5
E492
  8
0
 10
3687.427268737569193
 20
340.0412992295997014
 30
0.0
 40
0.0393700787924845
 50
180.0000000557513999
 51
270.0004807012172137
  0
ARC
  5
E493
  8
0
 10
3687.4272687374759698
 20
340.2104919503614155
 30
0.0
 40
0.0393700787
 50
112.0000000000925979
 51
180.0
  0
ARC
  5
E494
  8
0
 10
3687.4804183437768188
 20
340.3168897807614144
 30
0.0
 40
0.0393700787
 50
292.0000000000927116
 51
0.0
  0
ARC
  5
E495
  8
0
 10
3687.4656430001768967
 20
341.0229877821614082
 30
0.0
 40
0.0196850394
 50
204.020255178712091
 51
270.0
  0
ARC
  5
E496
  8
0
 10
3682.8962387657720683
 20
347.942246867844176
 30
0.0
 40
0.0100041834985821
 50
194.8473641812898052
 51
284.9768274733830253
  0
ARC
  5
E497
  8
0
 10
3685.3948047973458415
 20
348.6341064619055032
 30
0.0
 40
2.602589531454397
 50
183.7532781789300032
 51
195.4751296155997977
  0
ARC
  5
E498
  8
0
 10
3683.7785380999698646
 20
348.4916152884823077
 30
0.0
 40
0.9811368015727081
 50
126.9808332803910957
 51
181.6280399109323014
  0
ARC
  5
E499
  8
0
 10
3685.0095270097981484
 20
345.8383113716740809
 30
0.0
 40
3.8897552831311288
 50
91.361089458039757
 51
117.9176212676587028
  0
ARC
  5
E49A
  8
0
 10
3685.1928383585209303
 20
368.1874055288095064
 30
0.0
 40
18.4624950732248401
 50
269.1443539613401867
 51
271.4548291407699026
  0
ARC
  5
E49B
  8
0
 10
3685.3968785072611354
 20
352.272467983613808
 30
0.0
 40
2.555352923835791
 50
275.9457560332634785
 51
282.841205144515925
  0
LINE
  5
E49C
  8
0
 10
3685.9648050148139191
 20
349.7810250187085899
 30
0.0
 11
3686.365743669126914
 21
349.8729362609115014
 31
0.0
  0
ARC
  5
E49D
  8
0
 10
3686.3726748159829185
 20
349.8440459133956892
 30
0.0
 40
0.0297101493825647
 50
10.3833156490891199
 51
103.4909766444879011
  0
ARC
  5
E49E
  8
0
 10
3686.3033813047741205
 20
349.8383036839121019
 30
0.0
 40
0.0991401386001373
 50
357.7794081105423061
 51
6.4267086056086766
  0
ARC
  5
E49F
  8
0
 10
3686.5494479606159075
 20
349.8016042450199166
 30
0.0
 40
0.0929990340139401
 50
359.9995036726381272
 51
159.30971870575911
  0
ARC
  5
E4A0
  8
0
 10
3682.8837414203680964
 20
347.835392048616427
 30
0.0
 40
0.090024732311802
 50
103.100631647251106
 51
284.9842614277911252
  0
LINE
  5
E4A1
  8
0
 10
3682.8633362304549337
 20
347.9230737494007144
 30
0.0
 11
3685.0311097356038772
 21
348.5046379378459847
 31
0.0
  0
LINE
  5
E4A2
  8
0
 10
3682.9070176484729018
 20
347.7484284376459982
 30
0.0
 11
3685.0776971637051247
 21
348.3307712891460142
 31
0.0
  0
ARC
  5
E4A3
  8
0
 10
3685.0544034496779204
 20
348.4177046134612965
 30
0.0
 40
0.0900000000216891
 50
285.000000013805618
 51
105.0000000056589045
  0
ARC
  5
E4A4
  8
0
 10
3685.0020955707091161
 20
348.5081733418389263
 30
0.0
 40
0.0111533472102643
 50
296.6302709567597162
 51
339.0401866932191979
  0
ARC
  5
E4A5
  8
0
 10
3685.5237279223201767
 20
348.863471892974303
 30
0.0
 40
0.2750306698374591
 50
0.8897555090477892
 51
179.1104187550376139
  0
LINE
  5
E4A6
  8
0
 10
3685.2487304013261564
 20
348.8677418810631821
 30
0.0
 11
3685.2487279158258389
 21
348.4307889105631943
 31
0.0
  0
LINE
  5
E4A7
  8
0
 10
3685.7987254303261579
 20
348.8677427174632157
 30
0.0
 11
3685.7987254303261579
 21
348.4245113089596089
 31
0.0
  0
ARC
  5
E4A8
  8
0
 10
3690.5237241844120035
 20
348.863472325962789
 30
0.0
 40
0.2750302368486985
 50
0.866850728083717
 51
179.1330621402676968
  0
LINE
  5
E4A9
  8
0
 10
3690.7987229448258404
 20
348.8676332095024009
 30
0.0
 11
3690.7987254303261579
 21
348.4306802390024131
 31
0.0
  0
LINE
  5
E4AA
  8
0
 10
3690.248725430325976
 20
348.8676336277023893
 30
0.0
 11
3690.248725430325976
 21
348.4246203987204922
 31
0.0
  0
ARC
  5
E4AB
  8
0
 10
3686.549447960616817
 20
348.8376026338044085
 30
0.0
 40
0.0929990340154961
 50
200.6902812948324879
 51
0.0006615618223975
  0
LINE
  5
E4AC
  8
0
 10
3686.6424469946259705
 20
348.8376037076113789
 30
0.0
 11
3686.6424469946259705
 21
349.8016034394113944
 31
0.0
  0
LINE
  5
E4AD
  8
0
 10
3686.4024469946270983
 20
349.8344623071114938
 30
0.0
 11
3686.4024469946270983
 21
348.7718791126624183
 31
0.0
  0
ARC
  5
E4AE
  8
0
 10
3686.3724469942039832
 20
348.7718791119305024
 30
0.0
 40
0.0300000014144335
 50
257.6671023725480723
 51
0.0147412121304072
  0
LINE
  5
E4AF
  8
0
 10
3686.6424469946259705
 20
349.7896034394115077
 30
0.0
 11
3690.7987241875762265
 21
349.7896034394115077
 31
0.0
  0
LINE
  5
E4B0
  8
0
 10
3686.6424469946259705
 20
348.8496034394113963
 30
0.0
 11
3690.248725430325976
 21
348.8506210719071987
 31
0.0
  0
LINE
  5
E4B1
  8
0
 10
3690.7987241875762265
 20
349.8041735315114238
 30
0.0
 11
3690.7987229448258404
 21
348.8676332095024009
 31
0.0
  0
ARC
  5
E4B2
  8
0
 10
3690.8387241878940586
 20
349.8041797299842983
 30
0.0
 40
0.0400000007984109
 50
93.5119694137960096
 51
180.0088786582477951
  0
ARC
  5
E4B3
  8
0
 10
3690.8208897614172201
 20
350.0668503119197226
 30
0.0
 40
0.2232763284257711
 50
273.9509135639090118
 51
324.1041618758738991
  0
ARC
  5
E4B4
  8
0
 10
3691.0094991094611032
 20
349.9296023132570213
 30
0.0
 40
0.0100013943940002
 50
90.0050408874815844
 51
140.6749887500915008
  0
LINE
  5
E4B5
  8
0
 10
3691.0094982296041053
 20
349.9396037076123207
 30
0.0
 11
3691.0599145811611379
 21
349.9396037076123207
 31
0.0
  0
ARC
  5
E4B6
  8
0
 10
3691.05991370130414
 20
349.9296023136590748
 30
0.0
 40
0.0100013939918135
 50
39.3250092549868526
 51
89.9949596304157069
  0
ARC
  5
E4B7
  8
0
 10
3691.2625934628231335
 20
350.0956313619392972
 30
0.0
 40
0.2520000002877226
 50
219.3232147454473875
 51
265.5803597792797746
  0
ARC
  5
E4B8
  8
0
 10
3691.2397064052520363
 20
349.7995145221775033
 30
0.0
 40
0.0450000000864082
 50
0.0000000431049126
 51
85.5803597967102547
  0
ARC
  5
E4B9
  8
0
 10
3690.731721469041986
 20
348.3505417151829988
 30
0.0
 40
0.4442261498690456
 50
52.5628606202194675
 51
81.325063442471432
  0
ARC
  5
E4BA
  8
0
 10
3691.0094982296041053
 20
348.7096034397077915
 30
0.0
 40
0.0100000002963761
 50
219.323215937156391
 51
269.9999996182667132
  0
LINE
  5
E4BB
  8
0
 10
3691.0094982296041053
 20
348.699603439411419
 30
0.0
 11
3691.0599145811379458
 21
348.699603439411419
 31
0.0
  0
ARC
  5
E4BC
  8
0
 10
3691.0599145811611379
 20
348.7096034393056811
 30
0.0
 40
0.0099999998943231
 50
269.9999998638880925
 51
320.6767860577965052
  0
ARC
  5
E4BD
  8
0
 10
3691.2625934628231335
 20
348.5435755168836067
 30
0.0
 40
0.2520000002877226
 50
94.4196402207202539
 51
140.6767852545526125
  0
ARC
  5
E4BE
  8
0
 10
3691.2397064052520363
 20
348.839692356645287
 30
0.0
 40
0.0450000000864082
 50
274.4196402032898163
 51
359.9999999568951239
  0
LINE
  5
E4BF
  8
0
 10
3691.2847064053371469
 20
349.7995145221775033
 30
0.0
 11
3691.2847064053371469
 21
348.8396923566114083
 31
0.0
  0
LINE
  5
E4C0
  8
0
 10
3691.0094982295381669
 20
349.9396037076123207
 30
0.0
 11
3691.0094982295381669
 21
348.699603439411419
 31
0.0
  0
LINE
  5
E4C1
  8
0
 10
3691.0599145811379458
 20
349.9396037076123207
 30
0.0
 11
3691.0599145811379458
 21
348.699603439411419
 31
0.0
  0
LINE
  5
E4C2
  8
0
 10
3687.645351966546059
 20
348.4949206274040989
 30
0.0
 11
3687.5295833904579013
 21
347.1932295563439084
 31
0.0
  0
ARC
  5
E4C3
  8
0
 10
3684.2076397100581744
 20
351.4078972778572734
 30
0.0
 40
9.446000005370756
 50
256.548542008364393
 51
261.6540474337957107
  0
LINE
  5
E4C4
  8
0
 10
3682.8365549109757922
 20
342.0619333053376749
 30
0.0
 11
3683.1259067183418665
 21
342.0315613358881137
 31
0.0
  0
ARC
  5
E4C5
  8
0
 10
3683.1446268673198574
 20
342.3259667644396131
 30
0.0
 40
0.2950000005733923
 50
266.3616721838739068
 51
303.4177776017029942
  0
ARC
  5
E4C6
  8
0
 10
3683.3296754230759689
 20
342.0455152848613807
 30
0.0
 40
0.0410000000000002
 50
0.0
 51
123.4177776543025971
  0
ARC
  5
E4C7
  8
0
 10
3683.4146754230760052
 20
342.0964224405614118
 30
0.0
 40
0.0439999999999999
 50
18.7174692506825799
 51
180.0
  0
ARC
  5
E4C8
  8
0
 10
3684.2076397100581744
 20
332.2429476032651792
 30
0.0
 40
9.4460000053710296
 50
98.3459525662043461
 51
103.451457991635607
  0
LINE
  5
E4C9
  8
0
 10
3682.8365549109757922
 20
341.5889115757851187
 30
0.0
 11
3683.1259067183418665
 21
341.619283545234623
 31
0.0
  0
ARC
  5
E4CA
  8
0
 10
3683.1446268673198574
 20
341.3248781166831805
 30
0.0
 40
0.2950000005733923
 50
56.5822223982970272
 51
93.6383278161261643
  0
ARC
  5
E4CB
  8
0
 10
3683.3296754230759689
 20
341.6053295962614129
 30
0.0
 40
0.0410000000000002
 50
236.5822223456974029
 51
0.0
  0
ARC
  5
E4CC
  8
0
 10
3683.4146754230760052
 20
341.5544224405613818
 30
0.0
 40
0.0439999999999999
 50
180.0
 51
341.2825307493143896
  0
LINE
  5
E4CD
  8
0
 10
3683.3706754230761362
 20
342.0964224405614118
 30
0.0
 11
3683.3706754230761362
 21
341.5544224405613818
 31
0.0
  0
LINE
  5
E4CE
  8
0
 10
3683.4563483721772172
 20
342.1105421186234139
 30
0.0
 11
3683.4563483721772172
 21
341.5403027624993797
 31
0.0
  0
ARC
  5
E4CF
  8
0
 10
3683.6410353057449356
 20
342.1731179649327146
 30
0.0
 40
0.194999999874814
 50
198.717469192772711
 51
275.2467603728399013
  0
ARC
  5
E4D0
  8
0
 10
3683.6410353057449356
 20
341.4777269161900222
 30
0.0
 40
0.194999999874814
 50
84.7532396271601556
 51
161.282530807227289
  0
ARC
  5
E4D1
  8
0
 10
3684.0256882433409373
 20
341.8259637558884947
 30
0.0
 40
0.4036037355111402
 50
155.3489005030363899
 51
157.8054986631329086
  0
ARC
  5
E4D2
  8
0
 10
3683.6738671418770537
 20
342.0046724405614214
 30
0.0
 40
0.0149999999999941
 50
153.0860699022703102
 51
180.0000000000065086
  0
ARC
  5
E4D3
  8
0
 10
3684.0269753936690904
 20
341.8254224405737887
 30
0.0
 40
0.4109999999876035
 50
26.9139300957138303
 51
153.0860699043560089
  0
ARC
  5
E4D4
  8
0
 10
3684.3800836454761338
 20
342.0046724405614214
 30
0.0
 40
0.0149999999999915
 50
359.9999999999935199
 51
26.9139298331150698
  0
ARC
  5
E4D5
  8
0
 10
3684.0269753936768211
 20
341.8254224405613968
 30
0.0
 40
0.404999999999927
 50
22.3336826578085592
 51
24.6449476191394616
  0
LINE
  5
E4D6
  8
0
 10
3684.3950836454760065
 20
341.9793224405613046
 30
0.0
 11
3684.42143855557606
 21
341.9793224405613046
 31
0.0
  0
ARC
  5
E4D7
  8
0
 10
3684.4214385555519584
 20
342.1693224406864147
 30
0.0
 40
0.1900000001250315
 50
270.0000000072955118
 51
313.8425993107999261
  0
ARC
  5
E4D8
  8
0
 10
3684.6105400891760837
 20
341.9724224405613882
 30
0.0
 40
0.0830000000000002
 50
28.2221041035195093
 51
133.8425993801633069
  0
ARC
  5
E4D9
  8
0
 10
3684.9920655170471946
 20
342.1771841250435955
 30
0.0
 40
0.3499999994733498
 50
208.2221040754230046
 51
239.0877767216244081
  0
ARC
  5
E4DA
  8
0
 10
3684.7814385555748231
 20
341.8254224405613968
 30
0.0
 40
0.06000000000197
 50
300.9122232642546919
 51
59.0877767357452228
  0
ARC
  5
E4DB
  8
0
 10
3684.0256882433409373
 20
341.8248811252341852
 30
0.0
 40
0.4036037355111402
 50
202.1945013368670914
 51
204.6510994969636101
  0
ARC
  5
E4DC
  8
0
 10
3683.6738671418770537
 20
341.6461724405613722
 30
0.0
 40
0.0149999999999941
 50
179.9999999999934914
 51
206.9139300977267908
  0
ARC
  5
E4DD
  8
0
 10
3684.0269753936690904
 20
341.8254224405490049
 30
0.0
 40
0.4109999999876035
 50
206.9139300956439058
 51
333.0860699042862052
  0
ARC
  5
E4DE
  8
0
 10
3684.3800836454761338
 20
341.6461724405613722
 30
0.0
 40
0.0149999999999915
 50
333.0860701668850083
 51
0.0000000000065138
  0
ARC
  5
E4DF
  8
0
 10
3684.0269753936768211
 20
341.8254224405612831
 30
0.0
 40
0.404999999999927
 50
335.3550523808606272
 51
337.6663173421914053
  0
LINE
  5
E4E0
  8
0
 10
3684.3950836454760065
 20
341.6715224405613753
 30
0.0
 11
3684.42143855557606
 21
341.6715224405613753
 31
0.0
  0
ARC
  5
E4E1
  8
0
 10
3684.4214385555519584
 20
341.4815224404363221
 30
0.0
 40
0.1900000001250315
 50
46.1574006892000526
 51
89.9999999927045735
  0
ARC
  5
E4E2
  8
0
 10
3684.6105400891760837
 20
341.6784224405614054
 30
0.0
 40
0.0830000000000002
 50
226.1574006198366931
 51
331.7778958964776166
  0
ARC
  5
E4E3
  8
0
 10
3684.9920655170471946
 20
341.4736607560790844
 30
0.0
 40
0.3499999994733498
 50
120.9122232783755067
 51
151.7778959245769954
  0
LINE
  5
E4E4
  8
0
 10
3683.658867141877181
 20
342.0046724405614214
 30
0.0
 11
3683.658867141877181
 21
341.6461724405613722
 31
0.0
  0
LINE
  5
E4E5
  8
0
 10
3684.3950836454760065
 20
342.0046724405614214
 30
0.0
 11
3684.3950836454760065
 21
341.6461724405613722
 31
0.0
  0
ARC
  5
E4E6
  8
0
 10
3688.0288529257159098
 20
343.8611293503155935
 30
0.0
 40
0.6336289433731477
 50
175.5651066967751035
 51
269.536342089627226
  0
ARC
  5
E4E7
  8
0
 10
3572.1493814320988349
 20
345.1701988957793787
 30
0.0
 40
115.2546281008216056
 50
359.3735754651135039
 51
359.7935879624574227
  0
LINE
  5
E4E8
  8
0
 10
3687.409082695673078
 20
345.2917620771743827
 30
0.0
 11
3687.2597722659038482
 21
345.1804985042123235
 31
0.0
  0
ARC
  5
E4E9
  8
0
 10
3687.2836526966771089
 20
345.1484091753613939
 30
0.0
 40
0.0400000000000055
 50
126.6561084159964992
 51
179.9999999999934914
  0
LINE
  5
E4EA
  8
0
 10
3687.2436526966771453
 20
345.1484091753613939
 30
0.0
 11
3687.2436526966771453
 21
345.0647004022613942
 31
0.0
  0
ARC
  5
E4EB
  8
0
 10
3687.2836526966771089
 20
345.0647004022613942
 30
0.0
 40
0.0399999999999929
 50
180.0
 51
224.0906196842690008
  0
LINE
  5
E4EC
  8
0
 10
3687.2549230878289563
 20
345.0368685935613939
 30
0.0
 11
3687.2758885714188182
 21
345.0152268040187096
 31
0.0
  0
LINE
  5
E4ED
  8
0
 10
3686.4624469946270438
 20
348.8047400859611002
 30
0.0
 11
3686.4624469946270438
 21
349.8344623071114938
 31
0.0
  0
LINE
  5
E4EE
  8
0
 10
3686.4624469946270438
 20
349.8196034394114236
 30
0.0
 11
3686.4024469946270983
 21
349.8196034394114236
 31
0.0
  0
LINE
  5
E4EF
  8
0
 10
3686.4624469946270438
 20
348.8196034394114236
 30
0.0
 11
3686.4024469946270983
 21
348.8196034394114236
 31
0.0
  0
LINE
  5
E4F0
  8
0
 10
3687.4176225826731752
 20
346.8431808879320215
 30
0.0
 11
3687.4266706348757907
 21
345.2040655033783878
 31
0.0
  0
ARC
  5
E4F1
  8
0
 10
3688.0819100778421671
 20
343.7007952180970278
 30
0.0
 40
1.6867756227063471
 50
91.9767870646582679
 51
104.7296884041737002
  0
ARC
  5
E4F2
  8
0
 10
3687.8517258346328163
 20
344.6919767414084959
 30
0.0
 40
0.6702866802650747
 50
107.243372965310499
 51
119.2090474534131062
  0
ARC
  5
E4F3
  8
0
 10
3687.7478389100961067
 20
344.8751422593155098
 30
0.0
 40
0.4597168275061541
 50
119.0479130368458982
 51
134.3165486744663895
  0
ARC
  5
E4F4
  8
0
 10
3654.112205364574038
 20
387.0089089444782076
 30
0.0
 40
53.4555753068008883
 50
308.4741466349590837
 51
308.5514968814273971
  0
ARC
  5
E4F5
  8
0
 10
3688.0095186508478946
 20
343.8271473824108853
 30
0.0
 40
1.4978197286045301
 50
89.4565429507061367
 51
107.6052165668926932
  0
ARC
  5
E4F6
  8
0
 10
3687.7467681477060069
 20
344.6551803360727035
 30
0.0
 40
0.6290986000188081
 50
107.6052165668926932
 51
126.7681789774419059
  0
ARC
  5
E4F7
  8
0
 10
3687.5333402703518004
 20
344.9408058487176731
 30
0.0
 40
0.2725409015948353
 50
126.7681789774419059
 51
147.9193337887737982
  0
ARC
  5
E4F8
  8
0
 10
3687.4649500572181751
 20
344.9840819345869818
 30
0.0
 40
0.1916096246169784
 50
148.022487481067003
 51
177.042683163072013
  0
LINE
  5
E4F9
  8
0
 10
3687.2735956094979883
 20
344.9939674585323814
 30
0.0
 11
3687.2735956094979883
 21
344.9498268630613893
 31
0.0
  0
ARC
  5
E4FA
  8
0
 10
3687.4510631455418661
 20
344.9521721978408095
 30
0.0
 40
0.1774830328359488
 50
180.7571523509556073
 51
209.7389287309725887
  0
ARC
  5
E4FB
  8
0
 10
3687.5859874882557961
 20
345.0425545205578146
 30
0.0
 40
0.3396675686499109
 50
211.6874862757433107
 51
235.2396901066005057
  0
ARC
  5
E4FC
  8
0
 10
3685.7223362051699951
 20
342.6080040973210998
 30
0.0
 40
2.726728017300839
 50
50.2477472345074787
 51
52.2329463316566418
  0
ARC
  5
E4FD
  8
0
 10
3688.021845017448868
 20
343.8880836557956968
 30
0.0
 40
1.1179500384742409
 50
89.9036273995873501
 51
110.708083044570003
  0
ARC
  5
E4FE
  8
0
 10
3687.7546747006608712
 20
344.6020978321374741
 30
0.0
 40
0.3556014006589962
 50
111.1222905865722055
 51
139.1036104067707981
  0
ARC
  5
E4FF
  8
0
 10
3687.5769736088118407
 20
344.7645252254840784
 30
0.0
 40
0.1151181571951822
 50
142.3097157018819985
 51
182.8128326620019948
  0
LINE
  5
E500
  8
0
 10
3687.4619941492760518
 20
344.7588759776613756
 30
0.0
 11
3687.5319577735108396
 21
343.8070873495577757
 31
0.0
  0
ARC
  5
E501
  8
0
 10
3688.0326013969752239
 20
343.0869855257450922
 30
0.0
 40
0.9374564240176853
 50
90.5424924654433738
 51
116.2665022561374002
  0
ARC
  5
E502
  8
0
 10
3687.698069668872904
 20
343.7710257699339991
 30
0.0
 40
0.1760217044056587
 50
117.1552255624000054
 51
152.9873619792224986
  0
ARC
  5
E503
  8
0
 10
3687.6331829536011355
 20
343.8085786473903909
 30
0.0
 40
0.1012361647511637
 50
155.2435245795346077
 51
200.0892312325435114
  0
ARC
  5
E504
  8
0
 10
3687.7573416922500655
 20
343.8722627168555732
 30
0.0
 40
0.2403289761400018
 50
204.1844770284484127
 51
248.830370732720894
  0
ARC
  5
E505
  8
0
 10
3687.9767137366111456
 20
344.3460028503257035
 30
0.0
 40
0.7620568868718496
 50
246.311901091845499
 51
264.6320304908757066
  0
ARC
  5
E506
  8
0
 10
3688.0231461185530861
 20
344.6643037274724861
 30
0.0
 40
1.0834305668723201
 50
263.7620000827367903
 51
270.0306361129011066
  0
ARC
  5
E507
  8
0
 10
3688.028431339699182
 20
343.043949665193793
 30
0.0
 40
0.917083154386545
 50
90.2940081800392562
 51
107.7781426584620021
  0
ARC
  5
E508
  8
0
 10
3687.8453713047251767
 20
343.6207035687870075
 30
0.0
 40
0.3119825894964031
 50
108.1056454463019065
 51
131.6841295003291066
  0
ARC
  5
E509
  8
0
 10
3687.6775738068881765
 20
343.8091404134448794
 30
0.0
 40
0.059664447650115
 50
131.6841295003291066
 51
221.0104555215891935
  0
ARC
  5
E50A
  8
0
 10
3687.9152714494839529
 20
344.0626413179792848
 30
0.0
 40
0.4069103089713631
 50
225.9890026510284997
 51
261.6611770824687824
  0
ARC
  5
E50B
  8
0
 10
3688.0214420040251753
 20
344.5479197964826881
 30
0.0
 40
0.9031215731731784
 50
259.4611187975901885
 51
270.1448651135842738
  0
ARC
  5
E50C
  8
0
 10
3688.0125539355890396
 20
343.8260512823051727
 30
0.0
 40
1.4424538410790819
 50
89.5562520893247154
 51
112.4482199477845938
  0
ARC
  5
E50D
  8
0
 10
3687.615495067064785
 20
344.7915949305246954
 30
0.0
 40
0.3984617059321885
 50
112.6954723168940973
 51
138.9307119006672906
  0
ARC
  5
E50E
  8
0
 10
3687.4433007998791254
 20
344.9419090804540815
 30
0.0
 40
0.1698897964081204
 50
138.9973233830903894
 51
177.3287394243797905
  0
LINE
  5
E50F
  8
0
 10
3687.409082695673078
 20
345.1900556438583862
 30
0.0
 11
3687.4094559050918178
 21
346.0377870863147223
 31
0.0
  0
ARC
  5
E510
  8
0
 10
3717.941672116846803
 20
345.8911294788957775
 30
0.0
 40
30.5325684352820588
 50
178.56636043521479
 51
179.7247891454555031
  0
ARC
  5
E511
  8
0
 10
3688.0237254302769543
 20
350.1601561060675749
 30
0.0
 40
0.0590551180269543
 50
89.9999999514854068
 51
145.5394488434166931
  0
ARC
  5
E512
  8
0
 10
3687.6828798575311339
 20
350.3940674146377887
 30
0.0
 40
0.3543335667927006
 50
295.9153039047805009
 51
325.5394488259155992
  0
ARC
  5
E513
  8
0
 10
3687.8721515173870102
 20
350.0045426397177266
 30
0.0
 40
0.0787406895431833
 50
115.9153039047805009
 51
223.8269157646057863
  0
ARC
  5
E514
  8
0
 10
3687.6733271861207868
 20
349.8136975854739035
 30
0.0
 40
0.1968549371132895
 50
0.0005319445718113
 51
43.8269157646057934
  0
LINE
  5
E515
  8
0
 10
3687.8701821232261864
 20
349.8136994131114079
 30
0.0
 11
3687.8701823469350529
 21
349.7896037076113771
 31
0.0
  0
LINE
  5
E516
  8
0
 10
3683.9398861866038715
 20
348.0255230550222905
 30
0.0
 11
3683.9490400112099451
 21
347.9888090699176928
 31
0.0
  0
ARC
  5
E517
  8
0
 10
3683.7738110214258995
 20
348.8618984417112756
 30
0.0
 40
0.8904999999999142
 50
267.8539813049852114
 51
281.3484887711089186
  0
LINE
  5
E518
  8
0
 10
3684.0481639582849311
 20
348.0545714639985135
 30
0.0
 11
3684.0586029507207968
 21
348.018166371081918
 31
0.0
  0
ARC
  5
E519
  8
0
 10
3683.7738110214258995
 20
348.861898441711503
 30
0.0
 40
0.8905000000001061
 50
288.6515112309472784
 51
302.1810370569914994
  0
LINE
  5
E51A
  8
0
 10
3687.369013171296956
 20
344.7812190982114089
 30
0.0
 11
3687.0404892856759034
 21
344.7812190982114089
 31
0.0
  0
ARC
  5
E51B
  8
0
 10
3687.0404892856759034
 20
344.7512190982905054
 30
0.0
 40
0.0299999999209533
 50
90.0
 51
148.3924979949331941
  0
LINE
  5
E51C
  8
0
 10
3687.0149395361759161
 20
344.7669420209114151
 30
0.0
 11
3686.878174190028858
 21
344.5447387527174783
 31
0.0
  0
ARC
  5
E51D
  8
0
 10
3686.9452974688879294
 20
344.5034321199623832
 30
0.0
 40
0.078814798575457
 50
148.3924979949331941
 51
186.9624204091859951
  0
LINE
  5
E51E
  8
0
 10
3686.8670638608259651
 20
344.4938783226036207
 30
0.0
 11
3687.0166602009658163
 21
343.2511151022982858
 31
0.0
  0
ARC
  5
E51F
  8
0
 10
3687.0542386437000459
 20
343.2628059659601263
 30
0.0
 40
0.0393549952553315
 50
197.2812100393526862
 51
266.6834941986174954
  0
LINE
  5
E520
  8
0
 10
3687.051961893177122
 20
343.2235168827613734
 30
0.0
 11
3688.9954889667769748
 21
343.2235168827613734
 31
0.0
  0
ARC
  5
E521
  8
0
 10
3687.1484848165428048
 20
343.2090980779086067
 30
0.0
 40
0.0144253266865663
 50
88.277850998651374
 51
185.9154869140693904
  0
LINE
  5
E522
  8
0
 10
3687.1341363047758932
 20
343.2076113835614137
 30
0.0
 11
3687.1341363434771665
 21
342.6686660917613949
 31
0.0
  0
ARC
  5
E523
  8
0
 10
3686.8997452223989058
 20
342.6683792112243054
 30
0.0
 40
0.234391296639905
 50
272.8201607647970945
 51
0.0701265291962837
  0
LINE
  5
E524
  8
0
 10
3686.9112775597759537
 20
342.4342717890114045
 30
0.0
 11
3684.4704099358759777
 21
342.4532877355613891
 31
0.0
  0
ARC
  5
E525
  8
0
 10
3684.4765184932089142
 20
342.7429591971180116
 30
0.0
 40
0.2897358626628834
 50
248.7761723706501868
 51
268.7919324694922807
  0
ARC
  5
E526
  8
0
 10
3684.0269753936768211
 20
341.8254224405613968
 30
0.0
 40
0.7334726964000006
 50
7.437254587533058
 51
159.2792111288848957
  0
ARC
  5
E527
  8
0
 10
3684.0269753936768211
 20
341.8254224405613968
 30
0.0
 40
0.7334726964000006
 50
200.7207888711180885
 51
352.5627454124668816
  0
LINE
  5
E528
  8
0
 10
3683.3723072805978518
 20
341.4946780406372113
 30
0.0
 11
3683.3723072796769884
 21
340.2506193080113803
 31
0.0
  0
LINE
  5
E529
  8
0
 10
3684.6840661904761873
 20
340.2506193080113803
 30
0.0
 11
3684.6840661904761873
 21
341.2182040049614784
 31
0.0
  0
LINE
  5
E52A
  8
0
 10
3683.4377983018757732
 20
340.2309342686114064
 30
0.0
 11
3683.4377983018757732
 21
339.8175484247614122
 31
0.0
  0
LINE
  5
E52B
  8
0
 10
3683.4377983018757732
 20
339.8175484247614122
 30
0.0
 11
3683.3885857033760658
 21
339.7762541515613748
 31
0.0
  0
LINE
  5
E52C
  8
0
 10
3683.3885857033760658
 20
339.7762541515613748
 30
0.0
 11
3683.3885857033760658
 21
339.3254224405613968
 31
0.0
  0
LINE
  5
E52D
  8
0
 10
3683.3885857033760658
 20
339.3254224405613968
 30
0.0
 11
3683.4082707427760397
 21
339.3057374011614229
 31
0.0
  0
LINE
  5
E52E
  8
0
 10
3683.4082707427760397
 20
339.3057374011614229
 30
0.0
 11
3684.6484282230758254
 21
339.3057374011614229
 31
0.0
  0
LINE
  5
E52F
  8
0
 10
3683.5381920990771505
 20
339.3057374011614229
 30
0.0
 11
3683.5657511146760044
 21
339.278178380161421
 31
0.0
  0
LINE
  5
E530
  8
0
 10
3683.5657511146760044
 20
339.278178380161421
 30
0.0
 11
3684.4909478511772249
 21
339.2781783460613951
 31
0.0
  0
LINE
  5
E531
  8
0
 10
3684.6189006640770458
 20
340.2309342686114064
 30
0.0
 11
3684.6189006640770458
 21
339.8175484247614122
 31
0.0
  0
LINE
  5
E532
  8
0
 10
3684.6189006640770458
 20
339.8175484247614122
 30
0.0
 11
3684.6681132625758437
 21
339.7762541515613748
 31
0.0
  0
LINE
  5
E533
  8
0
 10
3684.6681132625758437
 20
339.7762541515613748
 30
0.0
 11
3684.6681132625758437
 21
339.3254224405613968
 31
0.0
  0
LINE
  5
E534
  8
0
 10
3684.6681132625758437
 20
339.3254224405613968
 30
0.0
 11
3684.6484282231767793
 21
339.3057374011614229
 31
0.0
  0
LINE
  5
E535
  8
0
 10
3684.5185068668761232
 20
339.3057374011614229
 30
0.0
 11
3684.4909478511772249
 21
339.2781783460613951
 31
0.0
  0
ARC
  5
E536
  8
0
 10
3687.3699612319887819
 20
340.9944605825676263
 30
0.0
 40
0.0793240856452049
 50
24.2298278158542395
 51
87.0142469978373754
  0
ARC
  5
E537
  8
0
 10
3682.9864298001361931
 20
284.5142476501467854
 30
0.0
 40
56.7293630812345597
 50
85.5640978194687989
 51
88.2851574862024222
  0
ARC
  5
E538
  8
0
 10
3684.5829166810572133
 20
339.3889593787829995
 30
0.0
 40
1.8320390622632581
 50
86.8350083078270245
 51
92.1191239437441283
  0
ARC
  5
E539
  8
0
 10
3684.5269231046709137
 20
340.9021944155347796
 30
0.0
 40
0.3177684269243449
 50
92.1191239437441283
 51
114.0436216396412021
  0
LINE
  5
E53A
  8
0
 10
3688.6595522011762114
 20
340.041299229561389
 30
0.0
 11
3688.6595522011762114
 21
340.2104919503614155
 31
0.0
  0
LINE
  5
E53B
  8
0
 10
3688.5276624373768755
 20
340.3168897807614144
 30
0.0
 11
3688.5276624373768755
 21
340.6594094657614278
 31
0.0
  0
LINE
  5
E53C
  8
0
 10
3688.5276624373768755
 20
340.7348712552613961
 30
0.0
 11
3688.5276624373768755
 21
341.0033027428614218
 31
0.0
  0
LINE
  5
E53D
  8
0
 10
3688.5522842250770736
 20
340.2803864793614252
 30
0.0
 11
3688.6349304135760576
 21
340.2469952517614047
 31
0.0
  0
LINE
  5
E53E
  8
0
 10
3688.4627018074761509
 20
340.6594094657614278
 30
0.0
 11
3688.4627018074761509
 21
340.7151862200614119
 31
0.0
  0
LINE
  5
E53F
  8
0
 10
3688.5997884759772205
 20
341.0149754033614045
 30
0.0
 11
3688.6051534715761591
 21
341.0270150145614139
 31
0.0
  0
LINE
  5
E540
  8
0
 10
3688.5276624934758729
 20
340.7348712552613961
 30
0.0
 11
3688.5079774021760386
 21
340.7151861662613896
 31
0.0
  0
ARC
  5
E541
  8
0
 10
3688.6201821223858133
 20
340.0412992295986783
 30
0.0
 40
0.0393700787901175
 50
270.0000001311614142
 51
359.9999999456783826
  0
ARC
  5
E542
  8
0
 10
3688.6201821224772175
 20
340.2104919503614155
 30
0.0
 40
0.0393700787
 50
0.0
 51
67.9999999999073452
  0
ARC
  5
E543
  8
0
 10
3688.5670325161759138
 20
340.3168897807614144
 30
0.0
 40
0.0393700787
 50
180.0
 51
247.9999999999072884
  0
ARC
  5
E544
  8
0
 10
3688.5818078597758358
 20
341.0229877821614082
 30
0.0
 40
0.0196850394
 50
270.0
 51
335.979744821287909
  0
LINE
  5
E545
  8
0
 10
3688.4020988936508729
 20
348.4949206325168234
 30
0.0
 11
3688.5178674694948313
 21
347.1932295563439084
 31
0.0
  0
ARC
  5
E546
  8
0
 10
3695.6691017271941746
 20
341.8254224403589205
 30
0.0
 40
0.1398375038954194
 50
299.8105010835446933
 51
60.1894310494526579
  0
ARC
  5
E547
  8
0
 10
3695.70867103071987
 20
341.885500991781214
 30
0.0
 40
0.0699653810077184
 50
92.0305344778366106
 51
141.4398582784864971
  0
ARC
  5
E548
  8
0
 10
3695.6218228874031411
 20
341.9529169767862982
 30
0.0
 40
0.0399938857134915
 50
241.9897068335889969
 51
323.4736452010782273
  0
ARC
  5
E549
  8
0
 10
3695.6218193256008817
 20
341.6979224405994273
 30
0.0
 40
0.0399999999574381
 50
36.5296072301746619
 51
118.0100935860465938
  0
ARC
  5
E54A
  8
0
 10
3695.7243381213547764
 20
341.5047195285831094
 30
0.0
 40
0.2587177655830832
 50
117.9606901841624023
 51
157.6132173864072001
  0
ARC
  5
E54B
  8
0
 10
3695.72445026857622
 20
342.1462329816857277
 30
0.0
 40
0.2588624582638943
 50
202.3993557538636878
 51
242.0297881400055928
  0
ARC
  5
E54C
  8
0
 10
3695.4524311957479767
 20
342.0319307843216734
 30
0.0
 40
0.0385209126388076
 50
92.2197638086541787
 51
177.7820573010735927
  0
LINE
  5
E54D
  8
0
 10
3695.4139391412090845
 20
342.0334215719748272
 30
0.0
 11
3695.4139391411767974
 21
341.617422440555174
 31
0.0
  0
LINE
  5
E54E
  8
0
 10
3695.4851189003761647
 20
342.0475908583613887
 30
0.0
 11
3695.4851189003761647
 21
341.6032540226772767
 31
0.0
  0
ARC
  5
E54F
  8
0
 10
3695.3933385922150592
 20
342.0182009223220234
 30
0.0
 40
0.0206056972907824
 50
1.8615230796958779
 51
60.6802422333453606
  0
ARC
  5
E550
  8
0
 10
3694.4814506633902056
 20
340.3633974637335768
 30
0.0
 40
1.9100266591362101
 50
61.1378226631726776
 51
89.9997026484450657
  0
ARC
  5
E551
  8
0
 10
3694.4814820247211173
 20
340.3633018889938739
 30
0.0
 40
1.9101222339706241
 50
90.0006433737574554
 51
103.4512425504213979
  0
ARC
  5
E552
  8
0
 10
3691.8398111498950129
 20
351.4078972778572734
 30
0.0
 40
9.446000005370756
 50
278.3459525662042893
 51
283.451457991635607
  0
LINE
  5
E553
  8
0
 10
3693.2108959489760309
 20
342.0619333053376749
 30
0.0
 11
3692.9215441416108661
 21
342.0315613358881137
 31
0.0
  0
ARC
  5
E554
  8
0
 10
3692.9028239926328752
 20
342.3259667644396131
 30
0.0
 40
0.2950000005733923
 50
236.5822223982970058
 51
273.6383278161262069
  0
ARC
  5
E555
  8
0
 10
3692.7177754368758542
 20
342.0455152848613807
 30
0.0
 40
0.0410000000000002
 50
56.5822223456973816
 51
180.0
  0
ARC
  5
E556
  8
0
 10
3692.6327754368771821
 20
342.0964224405614118
 30
0.0
 40
0.0439999999999999
 50
0.0
 51
161.2825307493174023
  0
ARC
  5
E557
  8
0
 10
3695.3930204506159498
 20
341.6327365466178207
 30
0.0
 40
0.020925728280673
 50
300.3454950134163823
 51
358.5139771717250028
  0
ARC
  5
E558
  8
0
 10
3691.8398111498950129
 20
332.2429476032651792
 30
0.0
 40
9.4460000053710296
 50
76.5485420083644215
 51
81.6540474337956539
  0
LINE
  5
E559
  8
0
 10
3693.2108959489760309
 20
341.5889115757851187
 30
0.0
 11
3692.9215441416108661
 21
341.619283545234623
 31
0.0
  0
ARC
  5
E55A
  8
0
 10
3692.9028239926328752
 20
341.3248781166831805
 30
0.0
 40
0.2950000005733923
 50
86.3616721838738641
 51
123.4177776017029942
  0
ARC
  5
E55B
  8
0
 10
3692.7177754368758542
 20
341.6053295962614129
 30
0.0
 40
0.0410000000000002
 50
180.0
 51
303.4177776543025971
  0
ARC
  5
E55C
  8
0
 10
3692.6327754368771821
 20
341.5544224405613818
 30
0.0
 40
0.0439999999999999
 50
198.7174692506825124
 51
0.0
  0
LINE
  5
E55D
  8
0
 10
3692.6767754368761416
 20
342.0964224405614118
 30
0.0
 11
3692.6767754368761416
 21
341.5544224405613818
 31
0.0
  0
LINE
  5
E55E
  8
0
 10
3692.5911024877768796
 20
342.1105421186234139
 30
0.0
 11
3692.5911024877768796
 21
341.5403027624993797
 31
0.0
  0
ARC
  5
E55F
  8
0
 10
3692.406415554207797
 20
342.1731179649327146
 30
0.0
 40
0.194999999874814
 50
264.7532396271602124
 51
341.2825308072273174
  0
ARC
  5
E560
  8
0
 10
3692.406415554207797
 20
341.4777269161900222
 30
0.0
 40
0.194999999874814
 50
18.7174691927726791
 51
95.2467603728398586
  0
ARC
  5
E561
  8
0
 10
3692.0217626166117952
 20
341.8259637558884947
 30
0.0
 40
0.4036037355111402
 50
22.1945013368671091
 51
24.6510994969636208
  0
ARC
  5
E562
  8
0
 10
3692.3735837180761337
 20
342.0046724405614214
 30
0.0
 40
0.0149999999999941
 50
359.9999999999935199
 51
26.9139300977297005
  0
ARC
  5
E563
  8
0
 10
3692.0204754662840969
 20
341.8254224405737887
 30
0.0
 40
0.4109999999876035
 50
26.9139300956439484
 51
153.0860699042860915
  0
ARC
  5
E564
  8
0
 10
3691.667367214476144
 20
342.0046724405614214
 30
0.0
 40
0.0149999999999915
 50
153.0860701668848947
 51
180.0000000000065086
  0
ARC
  5
E565
  8
0
 10
3692.0204754662759115
 20
341.8254224405613968
 30
0.0
 40
0.404999999999927
 50
155.3550523808605135
 51
157.6663173421914053
  0
LINE
  5
E566
  8
0
 10
3691.6523672144758166
 20
341.9793224405613046
 30
0.0
 11
3691.6260123043762178
 21
341.9793224405613046
 31
0.0
  0
ARC
  5
E567
  8
0
 10
3691.6260123043998647
 20
342.1693224406864147
 30
0.0
 40
0.1900000001250315
 50
226.1574006891978001
 51
269.9999999927046019
  0
ARC
  5
E568
  8
0
 10
3691.4369107707761941
 20
341.9724224405613882
 30
0.0
 40
0.0830000000000002
 50
46.1574006198367073
 51
151.7778958964775882
  0
ARC
  5
E569
  8
0
 10
3691.0553853429059927
 20
342.1771841250435955
 30
0.0
 40
0.3499999994733498
 50
300.9122232783756203
 51
331.7778959245770238
  0
ARC
  5
E56A
  8
0
 10
3691.266012304378819
 20
341.8254224405613968
 30
0.0
 40
0.06000000000197
 50
120.9122232642547061
 51
239.0877767357451944
  0
ARC
  5
E56B
  8
0
 10
3692.0217626166117952
 20
341.8248811252341852
 30
0.0
 40
0.4036037355111402
 50
335.3489005030364183
 51
337.8054986631328802
  0
ARC
  5
E56C
  8
0
 10
3692.3735837180761337
 20
341.6461724405613722
 30
0.0
 40
0.0149999999999941
 50
333.0860699022703102
 51
0.0000000000065138
  0
ARC
  5
E56D
  8
0
 10
3692.0204754662840969
 20
341.8254224405490049
 30
0.0
 40
0.4109999999876035
 50
206.9139300957137948
 51
333.0860699043561226
  0
ARC
  5
E56E
  8
0
 10
3691.667367214476144
 20
341.6461724405613722
 30
0.0
 40
0.0149999999999915
 50
179.9999999999934914
 51
206.9139298331151053
  0
ARC
  5
E56F
  8
0
 10
3692.0204754662759115
 20
341.8254224405612831
 30
0.0
 40
0.404999999999927
 50
202.3336826578085947
 51
204.6449476191394865
  0
LINE
  5
E570
  8
0
 10
3691.6523672144758166
 20
341.6715224405613753
 30
0.0
 11
3691.6260123043762178
 21
341.6715224405613753
 31
0.0
  0
ARC
  5
E571
  8
0
 10
3691.6260123043998647
 20
341.4815224404363221
 30
0.0
 40
0.1900000001250315
 50
90.0000000072954265
 51
133.8425993107998977
  0
ARC
  5
E572
  8
0
 10
3691.4369107707761941
 20
341.6784224405614054
 30
0.0
 40
0.0830000000000002
 50
208.2221041035195128
 51
313.8425993801632785
  0
ARC
  5
E573
  8
0
 10
3691.0553853429059927
 20
341.4736607560790844
 30
0.0
 40
0.3499999994733498
 50
28.222104075423001
 51
59.0877767216244578
  0
LINE
  5
E574
  8
0
 10
3692.3885837180760063
 20
342.0046724405614214
 30
0.0
 11
3692.3885837180760063
 21
341.6461724405613722
 31
0.0
  0
LINE
  5
E575
  8
0
 10
3691.6523672144758166
 20
342.0046724405614214
 30
0.0
 11
3691.6523672144758166
 21
341.6461724405613722
 31
0.0
  0
ARC
  5
E576
  8
0
 10
3688.0185979342368228
 20
343.861129350316105
 30
0.0
 40
0.6336289433735767
 50
270.463657910398922
 51
4.4348933035224052
  0
ARC
  5
E577
  8
0
 10
3703.3947947391311573
 20
344.2540097346836205
 30
0.0
 40
14.7484746950943908
 50
178.020297170904314
 51
181.3360637243964959
  0
LINE
  5
E578
  8
0
 10
3688.6415899227999944
 20
345.2893612779483874
 30
0.0
 11
3688.7876785940488844
 21
345.1804985042123235
 31
0.0
  0
ARC
  5
E579
  8
0
 10
3688.7637981632769879
 20
345.1484091753613939
 30
0.0
 40
0.0400000000000055
 50
0.0000000000065138
 51
53.3438915840034511
  0
LINE
  5
E57A
  8
0
 10
3688.803798163276042
 20
345.1484091753613939
 30
0.0
 11
3688.803798163276042
 21
345.0647004022613942
 31
0.0
  0
ARC
  5
E57B
  8
0
 10
3688.7637981632769879
 20
345.0647004022613942
 30
0.0
 40
0.0399999999999929
 50
315.9093803157310276
 51
0.0
  0
LINE
  5
E57C
  8
0
 10
3688.7925277721228667
 20
345.0368685935613939
 30
0.0
 11
3688.7715622885339144
 21
345.0152268040187096
 31
0.0
  0
ARC
  5
E57D
  8
0
 10
3688.0150356000190186
 20
346.8394727224321059
 30
0.0
 40
0.6148038601855724
 50
0.3455793478143716
 51
89.1901365737421656
  0
LINE
  5
E57E
  8
0
 10
3688.6298282772791026
 20
346.8431808879320215
 30
0.0
 11
3688.6207802250760324
 21
345.2040655033783878
 31
0.0
  0
ARC
  5
E57F
  8
0
 10
3687.9939486256362215
 20
343.8942652510992843
 30
0.0
 40
1.4925988107498711
 50
74.4366303617159133
 51
88.8568941694529002
  0
ARC
  5
E580
  8
0
 10
3688.1957250253199163
 20
344.6919767414084959
 30
0.0
 40
0.6702866802650747
 50
60.7909525465868796
 51
72.756627034689501
  0
ARC
  5
E581
  8
0
 10
3688.2996119498570806
 20
344.8751422593155098
 30
0.0
 40
0.4597168275061541
 50
45.6834513255335892
 51
60.9520869631541018
  0
ARC
  5
E582
  8
0
 10
3721.9352454953791494
 20
387.0089089444782076
 30
0.0
 40
53.4555753068008883
 50
231.4485031185724893
 51
231.5258533650408879
  0
ARC
  5
E583
  8
0
 10
3688.037932209104838
 20
343.8271473824108853
 30
0.0
 40
1.4978197286045301
 50
72.3947834331072926
 51
90.5434570492938633
  0
ARC
  5
E584
  8
0
 10
3688.3006827122471805
 20
344.6551803360727035
 30
0.0
 40
0.6290986000188081
 50
53.2318210225581083
 51
72.3947834331072926
  0
ARC
  5
E585
  8
0
 10
3688.5141105896009321
 20
344.9408058487176731
 30
0.0
 40
0.2725409015948353
 50
32.080666211226152
 51
53.2318210225581083
  0
ARC
  5
E586
  8
0
 10
3688.5825007927019215
 20
344.9840819299681129
 30
0.0
 40
0.191609635572829
 50
2.9573180507087868
 51
31.9775121018736996
  0
LINE
  5
E587
  8
0
 10
3688.7738552511541457
 20
344.9939674585323814
 30
0.0
 11
3688.7738552511541457
 21
344.9498268630613893
 31
0.0
  0
ARC
  5
E588
  8
0
 10
3688.5963877041658634
 20
344.9521722020822949
 30
0.0
 40
0.1774830438344114
 50
330.2610717204295838
 51
359.2428463265475784
  0
ARC
  5
E589
  8
0
 10
3688.4614633716969365
 20
345.0425545205578146
 30
0.0
 40
0.3396675686499109
 50
304.7603098933993806
 51
328.3125137242566893
  0
ARC
  5
E58A
  8
0
 10
3690.325114654781828
 20
342.6080040973210998
 30
0.0
 40
2.726728017300839
 50
127.7670536683432942
 51
129.7522527654925
  0
ARC
  5
E58B
  8
0
 10
3688.0256058425029551
 20
343.8880836557956968
 30
0.0
 40
1.117950038474242
 50
69.2919169554299543
 51
90.0963726004126357
  0
ARC
  5
E58C
  8
0
 10
3688.2927761592909519
 20
344.6020978321374741
 30
0.0
 40
0.3556014006589962
 50
40.8963895932291521
 51
68.8777094134277661
  0
ARC
  5
E58D
  8
0
 10
3688.4704772511408919
 20
344.7645252254840784
 30
0.0
 40
0.1151181571951822
 50
357.1871673379980052
 51
37.6902842981180299
  0
LINE
  5
E58E
  8
0
 10
3688.5854567106762261
 20
344.7588759776613756
 30
0.0
 11
3688.5154930864409835
 21
343.8070873495577757
 31
0.0
  0
ARC
  5
E58F
  8
0
 10
3688.0148494629779634
 20
343.0869855257450922
 30
0.0
 40
0.9374564240176853
 50
63.7334977438625501
 51
89.4575075345566262
  0
ARC
  5
E590
  8
0
 10
3688.3493811910789191
 20
343.7710257699339991
 30
0.0
 40
0.1760217044056587
 50
27.0126380207774908
 51
62.8447744376000088
  0
ARC
  5
E591
  8
0
 10
3688.4142679063511423
 20
343.8085786473903909
 30
0.0
 40
0.1012361647511637
 50
339.9107687674564886
 51
24.7564754204653603
  0
ARC
  5
E592
  8
0
 10
3688.2901091677031218
 20
343.8722627168555732
 30
0.0
 40
0.2403289761400018
 50
291.1696292672789923
 51
335.8155229715516157
  0
ARC
  5
E593
  8
0
 10
3688.0707371233420417
 20
344.3460028503257035
 30
0.0
 40
0.7620568868718496
 50
275.3679695091242934
 51
293.6880989081544726
  0
ARC
  5
E594
  8
0
 10
3688.0243047413991917
 20
344.664303727472884
 30
0.0
 40
1.0834305668727491
 50
269.9693638870988934
 51
276.2379999172368912
  0
ARC
  5
E595
  8
0
 10
3688.0190195202540053
 20
343.043949665193793
 30
0.0
 40
0.9170831543865505
 50
72.2218573415380263
 51
89.705991819960758
  0
ARC
  5
E596
  8
0
 10
3688.2020795552280106
 20
343.6207035687870075
 30
0.0
 40
0.3119825894964031
 50
48.3158704996709076
 51
71.8943545536980508
  0
ARC
  5
E597
  8
0
 10
3688.3698770530650108
 20
343.8091404134448794
 30
0.0
 40
0.059664447650115
 50
318.9895444784107781
 51
48.3158704996709076
  0
ARC
  5
E598
  8
0
 10
3688.1321794104687797
 20
344.0626413179792848
 30
0.0
 40
0.4069103089713631
 50
278.3388229175312176
 51
314.010997348971614
  0
ARC
  5
E599
  8
0
 10
3688.0260088559280121
 20
344.5479197964826881
 30
0.0
 40
0.9031215731731784
 50
269.8551348864157262
 51
280.5388812024098115
  0
ARC
  5
E59A
  8
0
 10
3688.0348969243627835
 20
343.8260512823051727
 30
0.0
 40
1.442453841079083
 50
67.5517800522153493
 51
90.4437479106752704
  0
ARC
  5
E59B
  8
0
 10
3688.4319557928879476
 20
344.7915949305246954
 30
0.0
 40
0.3984617059321885
 50
41.0692880993327094
 51
67.3045276831058459
  0
ARC
  5
E59C
  8
0
 10
3688.6041500546161842
 20
344.9419090771201013
 30
0.0
 40
0.1698898027144536
 50
2.6712616020299089
 51
41.0026762578302026
  0
LINE
  5
E59D
  8
0
 10
3688.6420811237690032
 20
345.1870995921082113
 30
0.0
 11
3688.6379949548609147
 21
346.0377870863147223
 31
0.0
  0
ARC
  5
E59E
  8
0
 10
3658.1057787431059296
 20
345.8911294788957775
 30
0.0
 40
30.5325684352820588
 50
0.2752108545444416
 51
1.433639564785234
  0
ARC
  5
E59F
  8
0
 10
3688.0237254303760892
 20
350.1601561060675749
 30
0.0
 40
0.0590551180269527
 50
34.4605511565832785
 51
90.0000000485146359
  0
ARC
  5
E5A0
  8
0
 10
3688.3645710031210001
 20
350.3940674146377887
 30
0.0
 40
0.3543335667927006
 50
214.4605511740844008
 51
244.0846960952194138
  0
ARC
  5
E5A1
  8
0
 10
3688.1752993432660332
 20
350.0045426397177266
 30
0.0
 40
0.0787406895431833
 50
316.1730842353941853
 51
64.0846960952194422
  0
ARC
  5
E5A2
  8
0
 10
3688.3741236745308925
 20
349.8136975854739035
 30
0.0
 40
0.1968549371132895
 50
136.1730842353942137
 51
179.9994680554281956
  0
LINE
  5
E5A3
  8
0
 10
3688.1772687374259476
 20
349.8136994131114079
 30
0.0
 11
3688.1772685137170811
 21
349.7896037076113771
 31
0.0
  0
LINE
  5
E5A4
  8
0
 10
3688.6782442165749671
 20
344.7812190982114089
 30
0.0
 11
3689.0069615742768292
 21
344.7812190982114089
 31
0.0
  0
ARC
  5
E5A5
  8
0
 10
3689.0069615742768292
 20
344.7512190982905054
 30
0.0
 40
0.0299999999209533
 50
31.6075020050667916
 51
90.0
  0
LINE
  5
E5A6
  8
0
 10
3689.0325113237768164
 20
344.7669420209114151
 30
0.0
 11
3689.1692766699238746
 21
344.5447387527174783
 31
0.0
  0
ARC
  5
E5A7
  8
0
 10
3689.1021533910638937
 20
344.5034321199623832
 30
0.0
 40
0.078814798575457
 50
353.0375795908140049
 51
31.6075020050667916
  0
LINE
  5
E5A8
  8
0
 10
3689.1803869991272222
 20
344.4938783226036207
 30
0.0
 11
3689.0307906589878257
 21
343.2511151022982858
 31
0.0
  0
ARC
  5
E5A9
  8
0
 10
3688.9914135879230344
 20
343.2651066442199976
 30
0.0
 40
0.0417889575245944
 50
275.5965437638981825
 51
340.4387519981481205
  0
ARC
  5
E5AA
  8
0
 10
3688.8989660434090183
 20
343.2090980779086067
 30
0.0
 40
0.0144253266865663
 50
354.0845130859306096
 51
91.7221490013486545
  0
LINE
  5
E5AB
  8
0
 10
3688.9133145551768393
 20
343.2076113835614137
 30
0.0
 11
3688.9133145164760208
 21
342.6686660917613949
 31
0.0
  0
ARC
  5
E5AC
  8
0
 10
3689.1477056375538268
 20
342.6683792112243054
 30
0.0
 40
0.234391296639905
 50
179.9298734708036989
 51
267.1798392352027918
  0
LINE
  5
E5AD
  8
0
 10
3689.1361733001767789
 20
342.4342717890114045
 30
0.0
 11
3691.5770409240772096
 21
342.4532877355613891
 31
0.0
  0
ARC
  5
E5AE
  8
0
 10
3691.5709323667438184
 20
342.7429591971180116
 30
0.0
 40
0.2897358626628834
 50
271.2080675305077762
 51
291.2238276293497847
  0
ARC
  5
E5AF
  8
0
 10
3692.0204754662759115
 20
341.8254224405613968
 30
0.0
 40
0.7334726964000006
 50
20.7207888711151007
 51
172.56274541246691
  0
ARC
  5
E5B0
  8
0
 10
3692.0204754662759115
 20
341.8254224405613968
 30
0.0
 40
0.7334726964000006
 50
187.4372545875330047
 51
339.2792111288819115
  0
LINE
  5
E5B1
  8
0
 10
3692.676517669453915
 20
341.497412038265395
 30
0.0
 11
3692.6765176703761426
 21
340.2506193080113803
 31
0.0
  0
LINE
  5
E5B2
  8
0
 10
3692.6765176703761426
 20
340.2506193080113803
 30
0.0
 11
3691.3671813742771519
 21
340.2506193080113803
 31
0.0
  0
LINE
  5
E5B3
  8
0
 10
3691.3671813742771519
 20
340.2506193080113803
 30
0.0
 11
3691.364758570658978
 21
341.2182794583915779
 31
0.0
  0
LINE
  5
E5B4
  8
0
 10
3692.4437038135770308
 20
340.2506193080113803
 30
0.0
 11
3692.4437038135770308
 21
340.2309342686114064
 31
0.0
  0
LINE
  5
E5B5
  8
0
 10
3691.5972471206769114
 20
340.2506193080113803
 30
0.0
 11
3691.5972471206769114
 21
340.2309342686114064
 31
0.0
  0
LINE
  5
E5B6
  8
0
 10
3691.4299242859760852
 20
340.2309342686114064
 30
0.0
 11
3692.6110266481759936
 21
340.2309342686114064
 31
0.0
  0
LINE
  5
E5B7
  8
0
 10
3692.6110266481759936
 20
340.2309342686114064
 30
0.0
 11
3692.6110266481759936
 21
339.8175484247614122
 31
0.0
  0
LINE
  5
E5B8
  8
0
 10
3692.6110266481759936
 20
339.8175484247614122
 30
0.0
 11
3692.6602392466761557
 21
339.7762541515613748
 31
0.0
  0
LINE
  5
E5B9
  8
0
 10
3692.6602392466761557
 20
339.7762541515613748
 30
0.0
 11
3692.6602392466761557
 21
339.3254224405613968
 31
0.0
  0
LINE
  5
E5BA
  8
0
 10
3692.6602392466761557
 20
339.3254224405613968
 30
0.0
 11
3692.6405542072761818
 21
339.3057374011614229
 31
0.0
  0
LINE
  5
E5BB
  8
0
 10
3692.6405542072761818
 20
339.3057374011614229
 30
0.0
 11
3691.4003967269759414
 21
339.3057374011614229
 31
0.0
  0
LINE
  5
E5BC
  8
0
 10
3692.5106328509759805
 20
339.3057374011614229
 30
0.0
 11
3692.4830738353762172
 21
339.278178380161421
 31
0.0
  0
LINE
  5
E5BD
  8
0
 10
3692.4830738353762172
 20
339.278178380161421
 30
0.0
 11
3691.5578770988768156
 21
339.2781783460613951
 31
0.0
  0
LINE
  5
E5BE
  8
0
 10
3691.4299242859760852
 20
340.2309342515613935
 30
0.0
 11
3691.4299242859760852
 21
339.8175484247614122
 31
0.0
  0
LINE
  5
E5BF
  8
0
 10
3691.4299242859760852
 20
339.8175484247614122
 30
0.0
 11
3691.3807116874768326
 21
339.7762541515613748
 31
0.0
  0
LINE
  5
E5C0
  8
0
 10
3691.3807116874768326
 20
339.7762541515613748
 30
0.0
 11
3691.3807116874768326
 21
339.3254224405613968
 31
0.0
  0
LINE
  5
E5C1
  8
0
 10
3691.3807116874768326
 20
339.3254224405613968
 30
0.0
 11
3691.400396726875897
 21
339.3057374011614229
 31
0.0
  0
LINE
  5
E5C2
  8
0
 10
3691.5303180831760983
 20
339.3057374011614229
 30
0.0
 11
3691.5578770988768156
 21
339.2781783460613951
 31
0.0
  0
ARC
  5
E5C3
  8
0
 10
3688.6774896279648601
 20
340.9944605825676263
 30
0.0
 40
0.0793240856452049
 50
92.9857530021626246
 51
155.7701721841486915
  0
ARC
  5
E5C4
  8
0
 10
3693.0610210598169942
 20
284.5142476501467854
 30
0.0
 40
56.7293630812345597
 50
91.714842513797592
 51
94.4359021805312011
  0
ARC
  5
E5C5
  8
0
 10
3691.464534178895974
 20
339.3889593787829995
 30
0.0
 40
1.8320390622632581
 50
87.8808760562558859
 51
93.1649916921729471
  0
ARC
  5
E5C6
  8
0
 10
3691.5205277552818188
 20
340.9021944155347796
 30
0.0
 40
0.3177684269243449
 50
65.9563783603587837
 51
87.8808760562558859
  0
LINE
  5
E5C7
  8
0
 10
3691.2847064053371469
 20
349.7650751625113799
 30
0.0
 11
3691.8523877365769295
 21
349.7461128939114019
 31
0.0
  0
LINE
  5
E5C8
  8
0
 10
3691.8523877365769295
 20
349.7461128939114019
 30
0.0
 11
3691.8523877365769295
 21
348.8930945212114239
 31
0.0
  0
LINE
  5
E5C9
  8
0
 10
3691.8523877365769295
 20
348.8930945212114239
 30
0.0
 11
3691.2847064053371469
 21
348.8741317163114104
 31
0.0
  0
ARC
  5
E5CA
  8
0
 10
3691.1761195616591067
 20
341.1923086175930848
 30
0.0
 40
2.7018360542482469
 50
146.8777331105395945
 51
164.5983511314910004
  0
ARC
  5
E5CB
  8
0
 10
3692.6643683012689507
 20
340.7823305387752839
 30
0.0
 40
4.2455220119681307
 50
164.5983511314910004
 51
171.1311009898429916
  0
ARC
  5
E5CC
  8
0
 10
3689.1875499999928252
 20
341.4469651374860177
 30
0.0
 40
0.7180138035280877
 50
180.804795620969287
 51
215.7943368680014942
  0
ARC
  5
E5CD
  8
0
 10
3684.8713312982940806
 20
341.1923086175930848
 30
0.0
 40
2.7018360542482469
 50
15.4016488685089907
 51
33.1222668894603416
  0
ARC
  5
E5CE
  8
0
 10
3683.3830825586837818
 20
340.7823305387752839
 30
0.0
 40
4.2455220119681307
 50
8.8688990101569232
 51
15.4016488685089907
  0
ARC
  5
E5CF
  8
0
 10
3686.8599008599589979
 20
341.4469651374860177
 30
0.0
 40
0.7180138035280877
 50
324.2056631319985058
 51
359.195204379030713
  0
LINE
  5
E5D0
  8
0
 10
3686.8670638608259651
 20
344.4938783226016881
 30
0.0
 11
3687.4020251724527952
 21
344.4938783226016881
 31
0.0
  0
LINE
  5
E5D1
  8
0
 10
3688.6455312561620303
 20
344.4938783226016881
 30
0.0
 11
3689.180386999125858
 21
344.4938783226016881
 31
0.0
  0
LINE
  5
E5D2
  8
0
 10
3687.4951666348770232
 20
340.2803864793614252
 30
0.0
 11
3688.5522842259761092
 21
340.2803864793614252
 31
0.0
  0
ARC
  5
E5D3
  8
0
 10
3695.7055680934158772
 20
341.8880879556833179
 30
0.0
 40
0.0673373754064316
 50
60.6044492217821471
 51
89.4691159103335991
  0
ARC
  5
E5D4
  8
0
 10
3695.4472763183262032
 20
342.0279397133198245
 30
0.0
 40
0.0426406908697134
 50
27.4422466361353408
 51
85.0721778484948885
  0
ARC
  5
E5D5
  8
0
 10
3694.4812920747622229
 20
343.2887000034049265
 30
0.0
 40
1.9112792525539231
 50
270.0050512809406769
 51
298.8525080184791136
  0
ARC
  5
E5D6
  8
0
 10
3694.4814820247211173
 20
343.2875429921289196
 30
0.0
 40
1.9101222339706241
 50
256.5487574495786021
 51
269.999356626242502
  0
ARC
  5
E5D7
  8
0
 10
3695.7086702786550632
 20
341.7653400880085997
 30
0.0
 40
0.0699624234646674
 50
218.5580913178966966
 51
267.9699959398392934
  0
ARC
  5
E5D8
  8
0
 10
3695.4524311957479767
 20
341.6189132282083278
 30
0.0
 40
0.0385209126388076
 50
182.2179426989264073
 51
267.7802361913458071
  0
ARC
  5
E5D9
  8
0
 10
3695.705569718949846
 20
341.7627441080439894
 30
0.0
 40
0.0673254120722139
 50
270.5295949937361115
 51
299.3995584014788847
  0
ARC
  5
E5DA
  8
0
 10
3695.4472768707960313
 20
341.6229027247143222
 30
0.0
 40
0.0426390747380434
 50
274.9272642612619961
 51
332.5603246335047061
  0
ARC
  5
E5DB
  8
0
 10
3680.378349135246026
 20
341.8254224403589205
 30
0.0
 40
0.1398375051314723
 50
119.8105698344718064
 51
240.1894980325307927
  0
ARC
  5
E5DC
  8
0
 10
3680.3387798292328625
 20
341.885500991781214
 30
0.0
 40
0.0699653810077184
 50
38.5601417215134319
 51
87.9694655221633752
  0
ARC
  5
E5DD
  8
0
 10
3680.4256279725500463
 20
341.9529169767862982
 30
0.0
 40
0.0399938857134915
 50
216.5263547989216875
 51
298.0102931664109747
  0
ARC
  5
E5DE
  8
0
 10
3680.4256315343509414
 20
341.6979224405994273
 30
0.0
 40
0.0399999999574381
 50
61.989906413953328
 51
143.4703927698253096
  0
ARC
  5
E5DF
  8
0
 10
3680.3231127385979562
 20
341.5047195285831094
 30
0.0
 40
0.2587177655830832
 50
22.3867826135927714
 51
62.0393098158375622
  0
ARC
  5
E5E0
  8
0
 10
3680.3230005913760579
 20
342.1462329816857277
 30
0.0
 40
0.2588624582638943
 50
297.9702118599943788
 51
337.6006442461361985
  0
ARC
  5
E5E1
  8
0
 10
3680.5950196642052106
 20
342.0319307843216734
 30
0.0
 40
0.0385209126388076
 50
2.2179426989263988
 51
87.7802361913458071
  0
LINE
  5
E5E2
  8
0
 10
3680.6335117187441028
 20
342.0334215719748272
 30
0.0
 11
3680.6335117187759352
 21
341.617422440555174
 31
0.0
  0
LINE
  5
E5E3
  8
0
 10
3680.5623319595761131
 20
342.0475908583613887
 30
0.0
 11
3680.5623319595761131
 21
341.6032540226772767
 31
0.0
  0
ARC
  5
E5E4
  8
0
 10
3680.6541122677381281
 20
342.0182009223220234
 30
0.0
 40
0.0206056972907824
 50
119.3197577666546039
 51
178.1384769203041003
  0
ARC
  5
E5E5
  8
0
 10
3681.5660001965629817
 20
340.3633974637335768
 30
0.0
 40
1.9100266591362101
 50
90.0002973515549485
 51
118.8621773368273011
  0
ARC
  5
E5E6
  8
0
 10
3681.56596883523207
 20
340.3633018889938739
 30
0.0
 40
1.9101222339706241
 50
76.548757449578531
 51
89.9993566262425446
  0
ARC
  5
E5E7
  8
0
 10
3680.6544304093367828
 20
341.6327365466178207
 30
0.0
 40
0.020925728280673
 50
181.4860228282749972
 51
239.654504986583504
  0
ARC
  5
E5E8
  8
0
 10
3680.3418827665368553
 20
341.8880879556833179
 30
0.0
 40
0.0673373754064316
 50
90.5308840896664151
 51
119.3955507782177961
  0
ARC
  5
E5E9
  8
0
 10
3680.6001745416269841
 20
342.0279397133198245
 30
0.0
 40
0.0426406908697134
 50
94.9278221515051257
 51
152.5577533638646059
  0
ARC
  5
E5EA
  8
0
 10
3681.5661587851909644
 20
343.2887000034049265
 30
0.0
 40
1.9112792525539231
 50
241.1474919815208864
 51
269.9949487190592095
  0
ARC
  5
E5EB
  8
0
 10
3681.56596883523207
 20
343.2875429921289196
 30
0.0
 40
1.9101222339706241
 50
270.0006433737573843
 51
283.4512425504215116
  0
ARC
  5
E5EC
  8
0
 10
3680.3387805812981242
 20
341.7653400880085997
 30
0.0
 40
0.0699624234646674
 50
272.0300040601605929
 51
321.4419086821031897
  0
ARC
  5
E5ED
  8
0
 10
3680.5950196642052106
 20
341.6189132282083278
 30
0.0
 40
0.0385209126388076
 50
272.2197638086541929
 51
357.7820573010736211
  0
ARC
  5
E5EE
  8
0
 10
3680.3418811410019771
 20
341.7627441080439894
 30
0.0
 40
0.0673254120722139
 50
240.6004415985210017
 51
269.4704050062640022
  0
ARC
  5
E5EF
  8
0
 10
3680.600173989157156
 20
341.6229027247143222
 30
0.0
 40
0.0426390747380434
 50
207.4396753664923949
 51
265.0727357387380039
  0
ARC
  5
E5F0
  8
0
 10
3688.0324152599328045
 20
346.8394727224321059
 30
0.0
 40
0.6148038601855724
 50
90.8098634262578344
 51
179.6544206521855926
  0
ARC
  5
E5F1
  8
0
 10
3690.5184096481762026
 20
348.4222756697428736
 30
0.0
 40
0.2696944106042547
 50
179.5018629912192125
 51
271.1291312552223758
  0
ARC
  5
E5F2
  8
0
 10
3690.5286861448839772
 20
348.4227439377485211
 30
0.0
 40
0.2701558819641341
 50
268.9475883451141272
 51
1.68340586105143
  0
ARC
  5
E5F3
  8
0
 10
3685.5272190895861968
 20
348.4312119108053025
 30
0.0
 40
0.2784914950070212
 50
180.0870264922135107
 51
269.2817203925006879
  0
ARC
  5
E5F4
  8
0
 10
3685.5201773344110734
 20
348.4313517513954253
 30
0.0
 40
0.2786320753077409
 50
270.7301343015178077
 51
358.5932421402459909
  0
ARC
  5
E5F5
  8
0
 10
3692.0204758757759009
 20
341.8254224405613968
 30
0.0
 40
0.6594488188999997
 50
27.5662151409408587
 51
160.4288131881197046
  0
ARC
  5
E5F6
  8
0
 10
3692.0204758757759009
 20
341.8254224405613968
 30
0.0
 40
0.6594488188999997
 50
199.5711868118802101
 51
332.4337848590590738
  0
ARC
  5
E5F7
  8
0
 10
3684.0269749841768316
 20
341.8254224405613968
 30
0.0
 40
0.6594488188999997
 50
19.5711868118802492
 51
152.4337848590591022
  0
ARC
  5
E5F8
  8
0
 10
3684.0269749841768316
 20
341.8254224405613968
 30
0.0
 40
0.6594488188999997
 50
207.5662151409408125
 51
340.4288131881166919
  0
LINE
  5
E5F9
  8
0
 10
3691.3807116874768326
 20
339.3254224405613968
 30
0.0
 11
3692.6602392466761557
 21
339.3254224405613968
 31
0.0
  0
LINE
  5
E5FA
  8
0
 10
3684.6681132625758437
 20
339.3254224405613968
 30
0.0
 11
3683.3885857033760658
 21
339.3254224405613968
 31
0.0
  0
ARC
  5
E5FB
  8
0
 10
3684.0293677235817995
 20
339.7824123489280055
 30
0.0
 40
0.4943646022781265
 50
254.6263418996288976
 51
285.3736581003710739
  0
ARC
  5
E5FC
  8
0
 10
3692.0204800374599472
 20
339.7703825635788917
 30
0.0
 40
0.48236133583921
 50
254.4233299643007911
 51
285.5766700356991805
  0
ARC
  5
E5FD
  8
0
 10
3685.5631036985591891
 20
348.2860270113422985
 30
0.0
 40
0.5922370595332254
 50
122.0616738896039948
 51
158.3854426404141975
  0
ARC
  5
E5FE
  8
0
 10
3685.6167477126818994
 20
347.5570834425179214
 30
0.0
 40
1.350338440752207
 50
73.0469579628659034
 51
82.3142190418460871
  0
ARC
  5
E5FF
  8
0
 10
3687.9556590377269458
 20
354.7144133442204179
 30
0.0
 40
6.1797885930076859
 50
251.653490644386892
 51
255.094306016452407
  0
LINE
  5
E600
  8
0
 10
3685.7987254303261579
 20
348.5510025628113908
 30
0.0
 11
3687.2079589196259803
 21
348.5510025628113908
 31
0.0
  0
ARC
  5
E601
  8
0
 10
3687.1933606218649402
 20
346.9198493358770179
 30
0.0
 40
1.6312185506657659
 50
81.3850932607444548
 51
89.4872348560120798
  0
ARC
  5
E602
  8
0
 10
3687.4467489630537784
 20
348.5607678109365111
 30
0.0
 40
0.029523557755966
 50
252.1619109078411043
 51
268.1639008626838176
  0
LINE
  5
E603
  8
0
 10
3687.4458030137761853
 20
348.5312594114113836
 30
0.0
 11
3688.60054870062595
 21
348.5312190853114203
 31
0.0
  0
ARC
  5
E604
  8
0
 10
3688.6003195707130544
 20
348.5627383541532254
 30
0.0
 40
0.0315201394225877
 50
270.4289617464751814
 51
288.6707427438309992
  0
ARC
  5
E605
  8
0
 10
3688.8634043534320881
 20
346.7920827856465849
 30
0.0
 40
1.7590823135852061
 50
90.7788848182930508
 51
98.2690542030983636
  0
LINE
  5
E606
  8
0
 10
3688.8394919410261537
 20
348.5510025628113908
 30
0.0
 11
3690.248725430325976
 21
348.5510025628113908
 31
0.0
  0
ARC
  5
E607
  8
0
 10
3687.6852391783168059
 20
348.4911897811111885
 30
0.0
 40
0.0400613139691707
 50
90.0841608152808959
 51
174.6563922497458066
  0
ARC
  5
E608
  8
0
 10
3688.3622534205601369
 20
348.4912106638071236
 30
0.0
 40
0.040017815953636
 50
5.3194113539717298
 51
89.5784784694623539
  0
LINE
  5
E609
  8
0
 10
3687.6750584874271226
 20
348.8496037076113794
 30
0.0
 11
3687.6750257872258771
 21
348.8051575879114239
 31
0.0
  0
ARC
  5
E60A
  8
0
 10
3687.6755633772709189
 20
348.7939972548451237
 30
0.0
 40
0.0111732733434048
 50
92.7577896056752138
 51
127.9661910859985028
  0
ARC
  5
E60B
  8
0
 10
3687.8670824752930457
 20
348.6100747746344268
 30
0.0
 40
0.2765954437088633
 50
135.8293186080964858
 51
146.831688416306406
  0
ARC
  5
E60C
  8
0
 10
3684.8611548562280404
 20
350.7013773231030882
 30
0.0
 40
3.385380214674377
 50
321.2092523398490016
 51
325.0371242082961203
  0
ARC
  5
E60D
  8
0
 10
3687.5350995487378896
 20
348.5521814355535071
 30
0.0
 40
0.0452207795627359
 50
141.2092523398488879
 51
173.3120515651376081
  0
ARC
  5
E60E
  8
0
 10
3687.5146906219329139
 20
348.5569720506665021
 30
0.0
 40
0.0245087533989747
 50
178.887433754623089
 51
239.420782228249891
  0
ARC
  5
E60F
  8
0
 10
3687.5192451753478053
 20
348.5647968145077016
 30
0.0
 40
0.0335623878311627
 50
239.5224416447335045
 51
267.90363000558051
  0
LINE
  5
E610
  8
0
 10
3688.37239201427019
 20
348.8500916014597237
 30
0.0
 11
3688.3724250734258021
 21
348.8051575879114239
 31
0.0
  0
ARC
  5
E611
  8
0
 10
3688.3718874833821246
 20
348.7939972548451237
 30
0.0
 40
0.0111732733434048
 50
52.0338089140015185
 51
87.2422103943247862
  0
ARC
  5
E612
  8
0
 10
3688.1803683853599978
 20
348.6100747746344268
 30
0.0
 40
0.2765954437088633
 50
33.1683115836936366
 51
44.1706813919035284
  0
ARC
  5
E613
  8
0
 10
3691.186296004425003
 20
350.7013773231030882
 30
0.0
 40
3.385380214674377
 50
214.9628757917039081
 51
218.7907476601511121
  0
ARC
  5
E614
  8
0
 10
3688.5123513119151539
 20
348.5521814355535071
 30
0.0
 40
0.0452207795627359
 50
6.6879484348623448
 51
38.7907476601510766
  0
ARC
  5
E615
  8
0
 10
3688.5327602387201296
 20
348.5569720506665021
 30
0.0
 40
0.0245087533989747
 50
300.579217771750109
 51
1.1125662453768781
  0
ARC
  5
E616
  8
0
 10
3688.5280940149750677
 20
348.56505465459378
 30
0.0
 40
0.0338412585157237
 50
271.2608335608313723
 51
300.4190861402868222
  0
LINE
  5
E617
  8
0
 10
3691.8563052623258045
 20
348.921965912311407
 30
0.0
 11
3691.8563052623258045
 21
349.7172415029114063
 31
0.0
  0
ARC
  5
E618
  8
0
 10
3691.8917383332259305
 20
349.7172415029114063
 30
0.0
 40
0.0354330708999999
 50
0.0
 51
180.0
  0
LINE
  5
E619
  8
0
 10
3691.9271714041260566
 20
349.7172415029114063
 30
0.0
 11
3691.9271714041260566
 21
348.921965912311407
 31
0.0
  0
ARC
  5
E61A
  8
0
 10
3691.8917383332259305
 20
348.921965912311407
 30
0.0
 40
0.0354330709000017
 50
180.0
 51
0.0
  0
LINE
  5
E61B
  8
0
 10
3691.9311084119271982
 20
348.8963753611113816
 30
0.0
 11
3691.9311084119271982
 21
349.7428320540113873
 31
0.0
  0
LINE
  5
E61C
  8
0
 10
3691.9311084119271982
 20
349.7428320540113873
 30
0.0
 11
3692.4035493568258062
 21
349.7230988987089972
 31
0.0
  0
LINE
  5
E61D
  8
0
 10
3692.4035493568258062
 20
349.7230988987089972
 30
0.0
 11
3692.4035493568258062
 21
348.9160604005114124
 31
0.0
  0
LINE
  5
E61E
  8
0
 10
3692.4035493568258062
 20
348.9160604005114124
 30
0.0
 11
3691.9311084119271982
 21
348.8963753611113816
 31
0.0
  0
LINE
  5
E61F
  8
0
 10
3691.8523682545260272
 20
348.9416509517113809
 30
0.0
 11
3691.8563052623258045
 21
348.9416509517113809
 31
0.0
  0
LINE
  5
E620
  8
0
 10
3691.9271714041260566
 20
348.9416509517113809
 30
0.0
 11
3691.9311084119271982
 21
348.9416509517113809
 31
0.0
  0
LINE
  5
E621
  8
0
 10
3691.8523682545260272
 20
349.6975564635114893
 30
0.0
 11
3691.8563052623258045
 21
349.6975564635114893
 31
0.0
  0
LINE
  5
E622
  8
0
 10
3691.9271714041260566
 20
349.6975564635114893
 30
0.0
 11
3691.9311084119271982
 21
349.6975564635114893
 31
0.0
  0
LINE
  5
E623
  8
0
 10
3692.4035493568258062
 20
349.6146239785971943
 30
0.0
 11
3694.0303926810261146
 21
349.6146239785971943
 31
0.0
  0
ARC
  5
E624
  8
0
 10
3693.9975796556968817
 20
346.7982140312848856
 30
0.0
 40
2.81660108747255
 50
58.0921776555788512
 51
89.332496745127898
  0
ARC
  5
E625
  8
0
 10
3693.7780076817821282
 20
347.1650883931330895
 30
0.0
 40
2.6486626837158549
 50
9.7217893139115432
 51
49.8368444177301271
  0
ARC
  5
E626
  8
0
 10
3687.8636111176688246
 20
346.1098302251152177
 30
0.0
 40
8.6564187326668467
 50
352.1622060863916772
 51
9.9956394764317213
  0
ARC
  5
E627
  8
0
 10
3652.3404669922238099
 20
349.7593486624135721
 30
0.0
 40
44.3624132602270009
 50
350.0211749641322854
 51
353.7494947164609016
  0
ARC
  5
E628
  8
0
 10
3725.1959206751371312
 20
336.3573953981018008
 30
0.0
 40
29.7187734216070183
 50
168.9134952501061946
 51
177.2621013697564933
  0
LINE
  5
E629
  8
0
 10
3695.5110713045260127
 20
337.7769768607113861
 30
0.0
 11
3695.5110783983259353
 21
327.8318528402112975
 31
0.0
  0
ARC
  5
E62A
  8
0
 10
3691.6200894500761933
 20
327.8318522796840853
 30
0.0
 40
3.890988948250695
 50
179.9999521602105972
 51
0.0000082539019307
  0
ARC
  5
E62B
  8
0
 10
3691.6200859031760046
 20
327.8318643725733068
 30
0.0
 40
3.3017355442618448
 50
180.0001534730463959
 51
359.9998465269536041
  0
LINE
  5
E62C
  8
0
 10
3694.9218214474258275
 20
327.8318555285114257
 30
0.0
 11
3694.9218480879380877
 21
337.777503405309119
 31
0.0
  0
ARC
  5
E62D
  8
0
 10
3720.6872401921800702
 20
336.7836929525047935
 30
0.0
 40
25.7845513728944198
 50
169.2605734725040065
 51
177.7911094373463072
  0
ARC
  5
E62E
  8
0
 10
3652.6711720637599683
 20
349.4539745182573824
 30
0.0
 40
43.3973600698072772
 50
350.1986623004000876
 51
355.0575408269755826
  0
ARC
  5
E62F
  8
0
 10
3686.2021550477788878
 20
346.0955984276251911
 30
0.0
 40
9.7124712458661673
 50
357.754580070427096
 51
8.1751920423302362
  0
ARC
  5
E630
  8
0
 10
3694.017673968471172
 20
347.2841778606317007
 30
0.0
 40
1.808531207921096
 50
6.1113315200372389
 51
57.7490704470163507
  0
ARC
  5
E631
  8
0
 10
3694.0897197428930667
 20
347.0404201222365259
 30
0.0
 40
1.9854452302820871
 50
63.2696550267810025
 51
91.7123092838007921
  0
LINE
  5
E632
  8
0
 10
3694.0303926810261146
 20
349.0249787790114055
 30
0.0
 11
3692.4035493568258062
 21
349.0249787790114055
 31
0.0
  0
LINE
  5
E633
  8
0
 10
3687.5709695248260687
 20
340.0019291508086212
 30
0.0
 11
3687.5709695248260687
 21
339.6989421427114166
 31
0.0
  0
LINE
  5
E634
  8
0
 10
3687.5709695248260687
 20
339.6989421427114166
 30
0.0
 11
3688.4764813358260653
 21
339.6989421427114166
 31
0.0
  0
LINE
  5
E635
  8
0
 10
3688.4764813358260653
 20
339.6989421427114166
 30
0.0
 11
3688.4764813358260653
 21
340.0019291508086212
 31
0.0
  0
LINE
  5
E636
  8
0
 10
3688.4752411293270598
 20
340.0019291508086212
 30
0.0
 11
3688.4752411293270598
 21
339.6989421427114166
 31
0.0
  0
LINE
  5
E637
  8
0
 10
3688.4718011837271661
 20
340.0019291508086212
 30
0.0
 11
3688.4718011837271661
 21
339.6989421427114166
 31
0.0
  0
LINE
  5
E638
  8
0
 10
3688.4661782580260478
 20
340.0019291508086212
 30
0.0
 11
3688.4661782580260478
 21
339.6989421427114166
 31
0.0
  0
LINE
  5
E639
  8
0
 10
3688.4583997467261725
 20
340.0019291508086212
 30
0.0
 11
3688.4583997467261725
 21
339.6989421427114166
 31
0.0
  0
LINE
  5
E63A
  8
0
 10
3688.4485035457259983
 20
340.0019291508086212
 30
0.0
 11
3688.4485035457259983
 21
339.6989421427114166
 31
0.0
  0
LINE
  5
E63B
  8
0
 10
3688.4365378685261021
 20
340.0019291508086212
 30
0.0
 11
3688.4365378685261021
 21
339.6989421427114166
 31
0.0
  0
LINE
  5
E63C
  8
0
 10
3688.422561010625941
 20
340.0019291508086212
 30
0.0
 11
3688.422561010625941
 21
339.6989421427114166
 31
0.0
  0
LINE
  5
E63D
  8
0
 10
3688.4066410658269888
 20
340.0019291508086212
 30
0.0
 11
3688.4066410658269888
 21
339.6989421427114166
 31
0.0
  0
LINE
  5
E63E
  8
0
 10
3688.3888555946259658
 20
340.0019291508086212
 30
0.0
 11
3688.3888555946259658
 21
339.6989421427114166
 31
0.0
  0
LINE
  5
E63F
  8
0
 10
3688.3692912459259787
 20
340.0019291508086212
 30
0.0
 11
3688.3692912459259787
 21
339.6989421427114166
 31
0.0
  0
LINE
  5
E640
  8
0
 10
3688.3480433352260661
 20
340.0019291508086212
 30
0.0
 11
3688.3480433352260661
 21
339.6989421427114166
 31
0.0
  0
LINE
  5
E641
  8
0
 10
3688.3252153804269255
 20
340.0019291508086212
 30
0.0
 11
3688.3252153804269255
 21
339.6989421427114166
 31
0.0
  0
LINE
  5
E642
  8
0
 10
3688.3009185968257952
 20
340.0019291508086212
 30
0.0
 11
3688.3009185968257952
 21
339.6989421427114166
 31
0.0
  0
LINE
  5
E643
  8
0
 10
3688.2752713559270887
 20
340.0019291508086212
 30
0.0
 11
3688.2752713559270887
 21
339.6989421427114166
 31
0.0
  0
LINE
  5
E644
  8
0
 10
3688.2483986086272125
 20
340.0019291508086212
 30
0.0
 11
3688.2483986086272125
 21
339.6989421427114166
 31
0.0
  0
LINE
  5
E645
  8
0
 10
3688.2204312762269183
 20
340.0019291508086212
 30
0.0
 11
3688.2204312762269183
 21
339.6989421427114166
 31
0.0
  0
LINE
  5
E646
  8
0
 10
3688.2273133746261919
 20
340.0019291508086212
 30
0.0
 11
3688.2273133746261919
 21
339.6989421427114166
 31
0.0
  0
LINE
  5
E647
  8
0
 10
3688.1915056126272248
 20
340.0019291508086212
 30
0.0
 11
3688.1915056126272248
 21
339.6989421427114166
 31
0.0
  0
LINE
  5
E648
  8
0
 10
3688.2001081627258827
 20
340.0019291508086212
 30
0.0
 11
3688.2001081627258827
 21
339.6989421427114166
 31
0.0
  0
LINE
  5
E649
  8
0
 10
3688.1617625409257926
 20
340.0019291508086212
 30
0.0
 11
3688.1617625409257926
 21
339.6989421427114166
 31
0.0
  0
LINE
  5
E64A
  8
0
 10
3688.1720436319260443
 20
340.0019291508086212
 30
0.0
 11
3688.1720436319260443
 21
339.6989421427114166
 31
0.0
  0
LINE
  5
E64B
  8
0
 10
3688.1432565097261431
 20
340.0019291508086212
 30
0.0
 11
3688.1432565097261431
 21
339.6989421427114166
 31
0.0
  0
LINE
  5
E64C
  8
0
 10
3688.1351670282269879
 20
340.0019291508086212
 30
0.0
 11
3688.1351670282269879
 21
339.6989421427114166
 31
0.0
  0
LINE
  5
E64D
  8
0
 10
3688.1138870441268409
 20
340.0019291508086212
 30
0.0
 11
3688.1138870441268409
 21
339.6989421427114166
 31
0.0
  0
LINE
  5
E64E
  8
0
 10
3688.1004070703261277
 20
340.0019291508086212
 30
0.0
 11
3688.1004070703261277
 21
339.6989421427114166
 31
0.0
  0
LINE
  5
E64F
  8
0
 10
3688.0730090296260641
 20
340.0019291508086212
 30
0.0
 11
3688.0730090296260641
 21
339.6989421427114166
 31
0.0
  0
LINE
  5
E650
  8
0
 10
3688.0690935891261688
 20
340.0019291508086212
 30
0.0
 11
3688.0690935891261688
 21
339.6989421427114166
 31
0.0
  0
LINE
  5
E651
  8
0
 10
3688.0414936883262271
 20
340.0019291508086212
 30
0.0
 11
3688.0414936883262271
 21
339.6989421427114166
 31
0.0
  0
LINE
  5
E652
  8
0
 10
3688.0375590788257796
 20
340.0019291508086212
 30
0.0
 11
3688.0375590788257796
 21
339.6989421427114166
 31
0.0
  0
LINE
  5
E653
  8
0
 10
3688.0098917819259441
 20
340.0019291508086212
 30
0.0
 11
3688.0098917819259441
 21
339.6989421427114166
 31
0.0
  0
LINE
  5
E654
  8
0
 10
3688.0059571723259069
 20
340.0019291508086212
 30
0.0
 11
3688.0059571723259069
 21
339.6989421427114166
 31
0.0
  0
LINE
  5
E655
  8
0
 10
3687.9783572715259652
 20
340.0019291508086212
 30
0.0
 11
3687.9783572715259652
 21
339.6989421427114166
 31
0.0
  0
LINE
  5
E656
  8
0
 10
3687.9744418310260698
 20
340.0019291508086212
 30
0.0
 11
3687.9744418310260698
 21
339.6989421427114166
 31
0.0
  0
LINE
  5
E657
  8
0
 10
3687.9470437903260063
 20
340.0019291508086212
 30
0.0
 11
3687.9470437903260063
 21
339.6989421427114166
 31
0.0
  0
LINE
  5
E658
  8
0
 10
3687.9401350595330769
 20
340.0019291508086212
 30
0.0
 11
3687.9401350595330769
 21
339.6989421427114166
 31
0.0
  0
LINE
  5
E659
  8
0
 10
3687.9122838324269651
 20
340.0019291508086212
 30
0.0
 11
3687.9122838324269651
 21
339.6989421427114166
 31
0.0
  0
LINE
  5
E65A
  8
0
 10
3687.9041943509259909
 20
340.0019291508086212
 30
0.0
 11
3687.9041943509259909
 21
339.6989421427114166
 31
0.0
  0
LINE
  5
E65B
  8
0
 10
3687.8856883197258867
 20
340.0019291508086212
 30
0.0
 11
3687.8856883197258867
 21
339.6989421427114166
 31
0.0
  0
LINE
  5
E65C
  8
0
 10
3687.8819440027259589
 20
340.0019291508086212
 30
0.0
 11
3687.8819440027259589
 21
339.6989421427114166
 31
0.0
  0
LINE
  5
E65D
  8
0
 10
3687.8522949178259296
 20
340.0019291508086212
 30
0.0
 11
3687.8522949178259296
 21
339.6989421427114166
 31
0.0
  0
LINE
  5
E65E
  8
0
 10
3687.8559452480258187
 20
340.0019291508086212
 30
0.0
 11
3687.8559452480258187
 21
339.6989421427114166
 31
0.0
  0
LINE
  5
E65F
  8
0
 10
3687.8270195844261252
 20
340.0019291508086212
 30
0.0
 11
3687.8270195844261252
 21
339.6989421427114166
 31
0.0
  0
LINE
  5
E660
  8
0
 10
3687.8201374860259421
 20
340.0019291508086212
 30
0.0
 11
3687.8201374860259421
 21
339.6989421427114166
 31
0.0
  0
LINE
  5
E661
  8
0
 10
3687.7990522520271952
 20
340.0019291508086212
 30
0.0
 11
3687.7990522520271952
 21
339.6989421427114166
 31
0.0
  0
LINE
  5
E662
  8
0
 10
3687.7956427031272142
 20
340.0019291508086212
 30
0.0
 11
3687.7956427031272142
 21
339.6989421427114166
 31
0.0
  0
LINE
  5
E663
  8
0
 10
3687.5756496769258774
 20
340.0019291508086212
 30
0.0
 11
3687.5756496769258774
 21
339.6989421427114166
 31
0.0
  0
LINE
  5
E664
  8
0
 10
3687.5804540526260098
 20
340.0019291508086212
 30
0.0
 11
3687.5804540526260098
 21
339.6989421427114166
 31
0.0
  0
LINE
  5
E665
  8
0
 10
3687.587965927526966
 20
340.0019291508086212
 30
0.0
 11
3687.587965927526966
 21
339.6989421427114166
 31
0.0
  0
LINE
  5
E666
  8
0
 10
3687.5989473149261357
 20
340.0019291508086212
 30
0.0
 11
3687.5989473149261357
 21
339.6989421427114166
 31
0.0
  0
LINE
  5
E667
  8
0
 10
3687.6093116667261711
 20
340.0019291508086212
 30
0.0
 11
3687.6093116667261711
 21
339.6989421427114166
 31
0.0
  0
LINE
  5
E668
  8
0
 10
3687.6248898500271025
 20
340.0019291508086212
 30
0.0
 11
3687.6248898500271025
 21
339.6989421427114166
 31
0.0
  0
LINE
  5
E669
  8
0
 10
3687.6387234985259056
 20
340.0019291508086212
 30
0.0
 11
3687.6387234985259056
 21
339.6989421427114166
 31
0.0
  0
LINE
  5
E66A
  8
0
 10
3687.6562811509261337
 20
340.0019291508086212
 30
0.0
 11
3687.6562811509261337
 21
339.6989421427114166
 31
0.0
  0
LINE
  5
E66B
  8
0
 10
3687.6756289549261965
 20
340.0019291508086212
 30
0.0
 11
3687.6756289549261965
 21
339.6989421427114166
 31
0.0
  0
LINE
  5
E66C
  8
0
 10
3687.6966726499258584
 20
340.0019291508086212
 30
0.0
 11
3687.6966726499258584
 21
339.6989421427114166
 31
0.0
  0
LINE
  5
E66D
  8
0
 10
3687.719309713227176
 20
340.0019291508086212
 30
0.0
 11
3687.719309713227176
 21
339.6989421427114166
 31
0.0
  0
LINE
  5
E66E
  8
0
 10
3687.7434298593270796
 20
340.0019291508086212
 30
0.0
 11
3687.7434298593270796
 21
339.6989421427114166
 31
0.0
  0
LINE
  5
E66F
  8
0
 10
3687.7689155772259255
 20
340.0019291508086212
 30
0.0
 11
3687.7689155772259255
 21
339.6989421427114166
 31
0.0
  0
LINE
  5
E670
  8
0
 10
3687.630024642925946
 20
339.6989421427114166
 30
0.0
 11
3687.6300248611260031
 21
339.6202019852113949
 31
0.0
  0
LINE
  5
E671
  8
0
 10
3687.6300248611260031
 20
339.6202019852113949
 30
0.0
 11
3688.417426217726188
 21
339.6202019852113949
 31
0.0
  0
LINE
  5
E672
  8
0
 10
3688.417426217726188
 20
339.6202019852113949
 30
0.0
 11
3688.417426217726188
 21
339.6989421427114166
 31
0.0
  0
LINE
  5
E673
  8
0
 10
3683.3723072796769884
 20
340.2506193080113803
 30
0.0
 11
3684.6840661904761873
 21
340.2506193080113803
 31
0.0
  0
LINE
  5
E674
  8
0
 10
3683.6037472652760698
 20
340.2506193080113803
 30
0.0
 11
3683.6037472652760698
 21
340.2309342686114064
 31
0.0
  0
LINE
  5
E675
  8
0
 10
3684.4502039581770987
 20
340.2506193080113803
 30
0.0
 11
3684.4502039581770987
 21
340.2309342686114064
 31
0.0
  0
LINE
  5
E676
  8
0
 10
3684.6189006640770458
 20
340.2309342686114064
 30
0.0
 11
3683.4377983018757732
 21
340.2309342686114064
 31
0.0
  0
ENDSEC
  0
EOF
