  0
SECTION
  2
HEADER
  9
$ACADVER
  1
AC1009
  9
$INSBASE
 10
4270.0554688839110895
 20
226.2107574419260061
 30
0.0
  9
$EXTMIN
 10
4266.5689832466669031
 20
221.4784739774260913
 30
0.0
  9
$EXTMAX
 10
4272.1420830571114493
 20
228.820993662425991
 30
0.0
  9
$LIMMIN
 10
0.0
 20
0.0
  9
$LIMMAX
 10
11.6929133858000007
 20
8.2677165353999982
  9
$ORTHOMODE
 70
     0
  9
$REGENMODE
 70
     1
  9
$FILLMODE
 70
     1
  9
$QTEXTMODE
 70
     0
  9
$MIRRTEXT
 70
     0
  9
$DRAGMODE
 70
     2
  9
$LTSCALE
 40
0.6431102362
  9
$OSMODE
 70
  3839
  9
$ATTMODE
 70
     1
  9
$TEXTSIZE
 40
0.2
  9
$TRACEWID
 40
0.05
  9
$TEXTSTYLE
  7
STANDARD
  9
$CLAYER
  8
0
  9
$CELTYPE
  6
BYLAYER
  9
$CECOLOR
 62
     1
  9
$DIMSCALE
 40
1.0
  9
$DIMASZ
 40
0.1875
  9
$DIMEXO
 40
0.0625
  9
$DIMDLI
 40
0.4443307087
  9
$DIMRND
 40
0.0
  9
$DIMDLE
 40
0.0
  9
$DIMEXE
 40
0.125
  9
$DIMTP
 40
0.01
  9
$DIMTM
 40
0.01
  9
$DIMTXT
 40
2.0
  9
$DIMCEN
 40
0.1052362205
  9
$DIMTSZ
 40
0.0
  9
$DIMTOL
 70
     1
  9
$DIMLIM
 70
     0
  9
$DIMTIH
 70
     1
  9
$DIMTOH
 70
     1
  9
$DIMSE1
 70
     0
  9
$DIMSE2
 70
     0
  9
$DIMTAD
 70
     0
  9
$DIMZIN
 70
     0
  9
$DIMBLK
  1

  9
$DIMASO
 70
     1
  9
$DIMSHO
 70
     1
  9
$DIMPOST
  1
\X
  9
$DIMAPOST
  1

  9
$DIMALT
 70
     1
  9
$DIMALTD
 70
     2
  9
$DIMALTF
 40
25.3999999999999986
  9
$DIMLFAC
 40
1.0
  9
$DIMTOFL
 70
     0
  9
$DIMTVP
 40
0.0
  9
$DIMTIX
 70
     0
  9
$DIMSOXD
 70
     0
  9
$DIMSAH
 70
     0
  9
$DIMBLK1
  1

  9
$DIMBLK2
  1

  9
$DIMSTYLE
  2
STANDARD
  9
$DIMCLRD
 70
     0
  9
$DIMCLRE
 70
     0
  9
$DIMCLRT
 70
     0
  9
$DIMTFAC
 40
1.0
  9
$DIMGAP
 40
0.09
  9
$LUNITS
 70
     2
  9
$LUPREC
 70
     4
  9
$SKETCHINC
 40
0.1
  9
$FILLETRAD
 40
0.0
  9
$AUNITS
 70
     0
  9
$AUPREC
 70
     0
  9
$MENU
  1
.
  9
$ELEVATION
 40
0.0
  9
$PELEVATION
 40
0.0
  9
$THICKNESS
 40
0.0
  9
$LIMCHECK
 70
     0
  9
$BLIPMODE
 70
     0
  9
$CHAMFERA
 40
0.0
  9
$CHAMFERB
 40
0.0
  9
$SKPOLY
 70
     0
  9
$TDCREATE
 40
2458060.468368056230247
  9
$TDUPDATE
 40
2459089.9638194451108575
  9
$TDINDWG
 40
0.5928774306
  9
$TDUSRTIMER
 40
0.5928774306
  9
$USRTIMER
 70
     1
  9
$ANGBASE
 50
0.0
  9
$ANGDIR
 70
     0
  9
$PDMODE
 70
     0
  9
$PDSIZE
 40
0.3125
  9
$PLINEWID
 40
0.0
  9
$COORDS
 70
     1
  9
$SPLFRAME
 70
     0
  9
$SPLINETYPE
 70
     6
  9
$SPLINESEGS
 70
     8
  9
$ATTDIA
 70
     1
  9
$ATTREQ
 70
     1
  9
$HANDLING
 70
     1
  9
$HANDSEED
  5
A3C9
  9
$SURFTAB1
 70
     6
  9
$SURFTAB2
 70
     6
  9
$SURFTYPE
 70
     6
  9
$SURFU
 70
     6
  9
$SURFV
 70
     6
  9
$UCSNAME
  2

  9
$UCSORG
 10
0.0
 20
0.0
 30
0.0
  9
$UCSXDIR
 10
1.0
 20
0.0
 30
0.0
  9
$UCSYDIR
 10
0.0
 20
1.0
 30
0.0
  9
$PUCSNAME
  2

  9
$PUCSORG
 10
0.0
 20
0.0
 30
0.0
  9
$PUCSXDIR
 10
1.0
 20
0.0
 30
0.0
  9
$PUCSYDIR
 10
0.0
 20
1.0
 30
0.0
  9
$USERI1
 70
     0
  9
$USERI2
 70
     0
  9
$USERI3
 70
     0
  9
$USERI4
 70
     0
  9
$USERI5
 70
     0
  9
$USERR1
 40
0.0
  9
$USERR2
 40
0.0
  9
$USERR3
 40
0.0
  9
$USERR4
 40
0.0
  9
$USERR5
 40
0.0
  9
$WORLDVIEW
 70
     1
  9
$SHADEDGE
 70
     3
  9
$SHADEDIF
 70
    70
  9
$TILEMODE
 70
     1
  9
$MAXACTVP
 70
    64
  9
$PLIMCHECK
 70
     0
  9
$PEXTMIN
 10
1.0000000000000000E+20
 20
1.0000000000000000E+20
 30
1.0000000000000000E+20
  9
$PEXTMAX
 10
-1.0000000000000000E+20
 20
-1.0000000000000000E+20
 30
-1.0000000000000000E+20
  9
$PLIMMIN
 10
0.0
 20
0.0
  9
$PLIMMAX
 10
12.0
 20
9.0
  9
$UNITMODE
 70
     0
  9
$VISRETAIN
 70
     1
  9
$PLINEGEN
 70
     0
  9
$PSLTSCALE
 70
     1
  0
ENDSEC
  0
SECTION
  2
TABLES
  0
TABLE
  2
VPORT
 70
     1
  0
VPORT
  2
*ACTIVE
 70
     0
 10
0.0
 20
0.0
 11
1.0
 21
1.0
 12
0.0
 22
0.0
 13
0.0
 23
0.0
 14
1.0
 24
1.0
 15
0.0
 25
0.0
 16
0.0
 26
0.0
 36
38.2694715070914313
 17
4269.35546875
 27
225.1497344970703125
 37
0.0
 40
9.2181215524637921
 41
3.314341846758349
 42
50.0
 43
0.0
 44
0.0
 50
0.0
 51
0.0
 71
     0
 72
   100
 73
     1
 74
     1
 75
     0
 76
     0
 77
     0
 78
     0
  0
ENDTAB
  0
TABLE
  2
LTYPE
 70
     2
  0
LTYPE
  2
CONTINUOUS
 70
     0
  3
Solid line
 72
    65
 73
     0
 40
0.0
  0
LTYPE
  2
PHANTOM2
 70
     0
  3
___ _ _ ___ _ _ ___ _ _ ___ _ _
 72
    65
 73
     6
 40
1.25
 49
0.625
 49
-0.125
 49
0.125
 49
-0.125
 49
0.125
 49
-0.125
  0
ENDTAB
  0
TABLE
  2
LAYER
 70
     2
  0
LAYER
  2
0
 70
     0
 62
   255
  6
CONTINUOUS
  0
LAYER
  2
DEFPOINTS
 70
     0
 62
     7
  6
CONTINUOUS
  0
ENDTAB
  0
TABLE
  2
STYLE
 70
     1
  0
STYLE
  2
STANDARD
 70
     0
 40
0.0
 41
0.8
 50
0.0
 71
     0
 42
0.2
  3
txt
  4

  0
ENDTAB
  0
TABLE
  2
VIEW
 70
     0
  0
ENDTAB
  0
TABLE
  2
UCS
 70
     0
  0
ENDTAB
  0
TABLE
  2
APPID
 70
     9
  0
APPID
  2
ACAD
 70
     0
  0
APPID
  2
ACAD_MLEADERVER
 70
     0
  0
APPID
  2
ACAD_EXEMPT_FROM_CAD_STANDARDS
 70
     0
  0
APPID
  2
ACAD_NAV_VCDISPLAY
 70
     0
  0
APPID
  2
ACAECLAYERSTANDARD
 70
     0
  0
APPID
  2
ACCMTRANSPARENCY
 70
     0
  0
APPID
  2
ACAD_DSTYLE_DIMJAG
 70
     0
  0
APPID
  2
ACAD_DSTYLE_DIMTALN
 70
     0
  0
APPID
  2
ACDBATTR
 70
     0
  0
ENDTAB
  0
TABLE
  2
DIMSTYLE
 70
     1
  0
DIMSTYLE
  2
STANDARD
 70
     0
  3

  4

  5

  6

  7

 40
1.0
 41
0.1875
 42
0.0625
 43
0.38
 44
0.125
 45
0.0
 46
0.0
 47
0.01
 48
0.01
140
0.15625
141
0.09
142
0.0
143
25.3999999999999986
144
1.0
145
0.0
146
1.0
147
0.09
 71
     1
 72
     0
 73
     1
 74
     1
 75
     0
 76
     0
 77
     0
 78
     4
170
     0
171
     2
172
     0
173
     0
174
     0
175
     0
176
     0
177
     0
178
     0
  0
ENDTAB
  0
ENDSEC
  0
SECTION
  2
BLOCKS
  0
BLOCK
  8
0
  2
$MODEL_SPACE
 70
     0
 10
0.0
 20
0.0
 30
0.0
  3
$MODEL_SPACE
  1

  0
ENDBLK
  5
21
  8
0
  0
BLOCK
 67
     1
  8
0
  2
$PAPER_SPACE
 70
     0
 10
0.0
 20
0.0
 30
0.0
  3
$PAPER_SPACE
  1

  0
ENDBLK
  5
1D
 67
     1
  8
0
  0
BLOCK
  8
0
  2
_FILLED
 70
     0
 10
0.0
 20
0.0
 30
0.0
  3
_FILLED
  1

  0
SOLID
  5
6F59
  8
0
  6
BYBLOCK
 62
     0
 10
0.0
 20
0.0
 30
0.0
 11
-1.0
 21
0.1666666667
 31
0.0
 12
-1.0
 22
-0.1666666667
 32
0.0
 13
-1.0
 23
-0.1666666667
 33
0.0
  0
ENDBLK
  5
6F5A
  8
0
  6
BYBLOCK
 62
     0
  0
ENDSEC
  0
SECTION
  2
ENTITIES
  0
ATTDEF
  5
3930
  8
DEFPOINTS
 10
4270.0439471178779058
 20
226.209518787055913
 30
0.0
 40
0.001
  1
K-880IN
  3

  2
MODELNUMBER
 70
     0
1001
ACDBATTR
1070
     0
1070
     1
  0
ATTDEF
  5
3931
  8
DEFPOINTS
 10
4270.0439471178779058
 20
226.2078521203893047
 30
0.0
 40
0.001
  1
AQUA TURBO
  3

  2
TRADENAME
 70
     0
1001
ACDBATTR
1070
     0
1070
     1
  0
ATTDEF
  5
3932
  8
DEFPOINTS
 10
4270.0439471178779058
 20
226.2061854537226111
 30
0.0
 40
0.001
  1
BATH AND SHOWER VALVE
  3

  2
PRODUCT
 70
     0
1001
ACDBATTR
1070
     0
1070
     1
  0
LINE
  5
A0E5
  8
0
 10
4270.4885397500111139
 20
227.4996787252260049
 30
0.0
 11
4270.5909019558639557
 21
227.4996787252260049
 31
0.0
  0
LINE
  5
A0E6
  8
0
 10
4270.0554688839110895
 20
224.1831983868260068
 30
0.0
 11
4270.2326342382102666
 21
224.1831983868260068
 31
0.0
  0
LINE
  5
A0E7
  8
0
 10
4267.4176736083109063
 20
225.8918598041259997
 30
0.0
 11
4267.525941324811356
 21
225.8918598041259997
 31
0.0
  0
LINE
  5
A0E8
  8
0
 10
4267.4176736083109063
 20
226.4391038986260867
 30
0.0
 11
4267.4865712461096336
 21
226.4391038986260867
 31
0.0
  0
LINE
  5
A0E9
  8
0
 10
4268.0003463570874374
 20
227.1753248440759876
 30
0.0
 11
4270.1538940807104154
 21
227.1753248440759876
 31
0.0
  0
LINE
  5
A0EA
  8
0
 10
4267.9885397500111139
 20
227.1637922371542118
 30
0.0
 11
4267.9885397500111139
 21
225.2577226466979141
 31
0.0
  0
LINE
  5
A0EB
  8
0
 10
4267.4176736083109063
 20
226.4391038986260867
 30
0.0
 11
4267.4176736083109063
 21
225.8918598041259997
 31
0.0
  0
LINE
  5
A0EC
  8
0
 10
4267.5830279390111173
 20
226.3761117726259897
 30
0.0
 11
4267.5053690886970799
 21
226.3761117726259897
 31
0.0
  0
ARC
  5
A0ED
  8
0
 10
4267.50625421096629
 20
226.3859124191762078
 30
0.0
 40
0.0098405342453397
 50
179.7561959604759068
 51
264.8394668803088052
  0
LINE
  5
A0EE
  8
0
 10
4267.4964137658107575
 20
226.3859542923260904
 30
0.0
 11
4267.4964137658107575
 21
226.429261378925986
 31
0.0
  0
ARC
  5
A0EF
  8
0
 10
4267.4865712461096336
 20
226.429261378925986
 30
0.0
 40
0.0098425197000012
 50
359.9999999999951115
 51
90.0
  0
LINE
  5
A0F0
  8
0
 10
4270.1538940807104154
 20
227.1753248440759876
 30
0.0
 11
4270.1538940807104154
 21
225.2461900397761099
 31
0.0
  0
LINE
  5
A0F1
  8
0
 10
4270.2562562855109718
 20
227.1753243711260097
 30
0.0
 11
4270.1696421122096581
 21
227.1753243710261074
 31
0.0
  0
ARC
  5
A0F2
  8
0
 10
4270.1696421122096581
 20
227.1202062608259951
 30
0.0
 40
0.0551181102000804
 50
90.0
 51
106.6015495989884982
  0
LINE
  5
A0F3
  8
0
 10
4268.0003463570874374
 20
225.2461900397761099
 30
0.0
 11
4270.1538940807104154
 21
225.2461900397761099
 31
0.0
  0
ARC
  5
A0F4
  8
0
 10
4268.0003539586668921
 20
225.2580076839844025
 30
0.0
 40
0.0118176466531509
 50
181.3820871364044933
 51
269.9631450574019027
  0
ARC
  5
A0F5
  8
0
 10
4419.4569854017890975
 20
350.7908587967843914
 30
0.0
 40
192.728811986718199
 50
219.9289606027543869
 51
220.0312824051119094
  0
ARC
  5
A0F6
  8
0
 10
4270.488540051775999
 20
227.4406228805569867
 30
0.0
 40
0.059055844669846
 50
90.0002927718753654
 51
180.2173206109328021
  0
LINE
  5
A0F7
  8
0
 10
4270.4294846319098724
 20
226.958788938026089
 30
0.0
 11
4270.4294846319098724
 21
227.0375290955261107
 31
0.0
  0
LINE
  5
A0F8
  8
0
 10
4270.4294846319098724
 20
227.391859804226101
 30
0.0
 11
4270.4294846319098724
 21
227.4403988846260916
 31
0.0
  0
ARC
  5
A0F9
  8
0
 10
4270.2562562851917392
 20
227.1202062604002947
 30
0.0
 40
0.0551181107257635
 50
45.3725019910907719
 51
89.9999996685269537
  0
CIRCLE
  5
A0FA
  8
0
 10
4271.1775161280111206
 20
226.0139070482260877
 30
0.0
 40
0.5275590551999993
  0
CIRCLE
  5
A0FB
  8
0
 10
4271.1775161280111206
 20
226.0139070482260877
 30
0.0
 40
0.3592519685000006
  0
CIRCLE
  5
A0FC
  8
0
 10
4271.1775161280111206
 20
226.0139070482260877
 30
0.0
 40
0.4183070866000005
  0
LINE
  5
A0FD
  8
0
 10
4272.0239728209098757
 20
226.446977914425986
 30
0.0
 11
4272.0239728209098757
 21
224.1950094105260973
 31
0.0
  0
ARC
  5
A0FE
  8
0
 10
4271.4334216398110584
 20
226.446977914425986
 30
0.0
 40
0.5905511811000395
 50
0.0000000000016284
 51
39.9999999976832399
  0
LINE
  5
A0FF
  8
0
 10
4271.0397208524100279
 20
225.504661509467212
 30
0.0
 11
4271.0397208524100279
 21
224.2678686410260127
 31
0.0
  0
LINE
  5
A100
  8
0
 10
4270.2326342382102666
 20
223.088219979491214
 30
0.0
 11
4270.2326342382102666
 21
224.2151846682608891
 31
0.0
  0
ARC
  5
A101
  8
0
 10
4270.3703443691028951
 20
226.9588709564268925
 30
0.0
 40
0.059140319681454
 50
184.3497714107251113
 51
359.9205396633053056
  0
ARC
  5
A102
  8
0
 10
4270.4884335672568341
 20
227.0086529080639082
 30
0.0
 40
0.0589740855288938
 50
181.6733740316281001
 51
270.1031610213003091
  0
LINE
  5
A103
  8
0
 10
4270.4885397500111139
 20
226.9496789181260112
 30
0.0
 11
4270.6657051044103355
 21
226.9496789181260112
 31
0.0
  0
ARC
  5
A104
  8
0
 10
4270.665844778639439
 20
227.0085942576669993
 30
0.0
 40
0.0589155051079139
 50
269.8641656172640069
 51
359.9173912415483869
  0
LINE
  5
A105
  8
0
 10
4270.7247602225106675
 20
227.008509313626007
 30
0.0
 11
4270.7247602225106675
 21
227.4028025757260139
 31
0.0
  0
ARC
  5
A106
  8
0
 10
4270.5703237019242806
 20
227.3684309115888027
 30
0.0
 40
0.158215202135396
 50
12.5473450796333506
 51
67.6987435112749409
  0
LINE
  5
A107
  8
0
 10
4270.0554688839110895
 20
224.1831983868260068
 30
0.0
 11
4270.0554688839110895
 21
223.1202062609260963
 31
0.0
  0
ARC
  5
A108
  8
0
 10
4272.0633428996106886
 20
224.0487560591259069
 30
0.0
 40
0.0787401575001217
 50
359.9999283259264757
 51
77.8468025035588624
  0
LINE
  5
A109
  8
0
 10
4272.1420830571114493
 20
224.0487559606260106
 30
0.0
 11
4272.1420829146873075
 21
223.258005754997896
 31
0.0
  0
ARC
  5
A10A
  8
0
 10
4272.0631856704094389
 20
223.2580617688435041
 30
0.0
 40
0.0788972641612429
 50
272.8785545622502013
 51
359.959322325623873
  0
LINE
  5
A10B
  8
0
 10
4272.0671478217736876
 20
223.179264055369714
 30
0.0
 11
4271.7680674919356534
 21
223.1792595311696914
 31
0.0
  0
ARC
  5
A10C
  8
0
 10
4271.7667073717184394
 20
223.1007210184237124
 30
0.0
 40
0.0785502890596908
 50
89.0078579758055071
 51
141.7075216414602039
  0
ARC
  5
A10D
  8
0
 10
4270.5909019548098513
 20
222.8052456309260094
 30
0.0
 40
0.059055118099999
 50
359.9999999999984084
 51
90.0
  0
LINE
  5
A10E
  8
0
 10
4270.0781992105112295
 20
224.1831983868260068
 30
0.0
 11
4270.0781992105112295
 21
224.1428804277261122
 31
0.0
  0
LINE
  5
A10F
  8
0
 10
4270.0781992105112295
 20
224.1428804277261122
 30
0.0
 11
4270.2326342382102666
 21
224.1428804277261122
 31
0.0
  0
LINE
  5
A110
  8
0
 10
4270.2326342382102666
 20
223.6900517790259926
 30
0.0
 11
4270.0781992105112295
 21
223.6900517790259926
 31
0.0
  0
LINE
  5
A111
  8
0
 10
4270.0781992105112295
 20
223.6900517790259926
 30
0.0
 11
4270.0781992105112295
 21
223.6133528687261105
 31
0.0
  0
ARC
  5
A112
  8
0
 10
4270.9746729929192952
 20
224.2722990248811072
 30
0.0
 40
0.0651985607616009
 50
229.7201182499237007
 51
356.1036247840801252
  0
ARC
  5
A113
  8
0
 10
4271.1944783431536052
 20
223.9164661033761092
 30
0.0
 40
1.139009459243896
 50
168.5342702899116887
 51
191.4657297100881976
  0
ARC
  5
A114
  8
0
 10
4272.0948389627892539
 20
224.1950094106028928
 30
0.0
 40
0.0708661418794279
 50
180.0000000621168965
 51
257.8468024355963166
  0
LINE
  5
A116
  8
0
 10
4270.2641303012096614
 20
224.2225593435559858
 30
0.0
 11
4270.932520692660546
 21
224.2225593434559983
 31
0.0
  0
ARC
  5
A117
  8
0
 10
4270.2640715470442956
 20
224.1518656016116893
 30
0.0
 40
0.0706937662598685
 50
89.9523810040505083
 51
116.4039572927048027
  0
LINE
  5
A118
  8
0
 10
4266.8664925059101733
 20
226.0532766539760132
 30
0.0
 11
4266.8861775452096481
 21
226.0335916145760962
 31
0.0
  0
LINE
  5
A119
  8
0
 10
4266.8861775452096481
 20
226.0335916145760962
 30
0.0
 11
4267.4176736082108619
 21
226.0335916145760962
 31
0.0
  0
LINE
  5
A11A
  8
0
 10
4266.8861775452096481
 20
226.0335916145760962
 30
0.0
 11
4266.8861775452096481
 21
226.3879232692760866
 31
0.0
  0
LINE
  5
A11B
  8
0
 10
4266.8664925059101733
 20
226.0532766539760132
 30
0.0
 11
4266.8664925059101733
 21
226.368238229875999
 31
0.0
  0
LINE
  5
A11C
  8
0
 10
4267.6379378773099234
 20
225.6202062608259951
 30
0.0
 11
4267.7268704108528254
 21
225.6202062608259951
 31
0.0
  0
LINE
  5
A11D
  8
0
 10
4267.8195628859702992
 20
225.4627347792259968
 30
0.0
 11
4267.8214860685684471
 21
225.4627347792259968
 31
0.0
  0
LINE
  5
A11E
  8
0
 10
4267.9487028323528648
 20
225.492262811276106
 30
0.0
 11
4267.9886814344527011
 21
225.492262811276106
 31
0.0
  0
LINE
  5
A11F
  8
0
 10
4267.8081501077322173
 20
225.4825187006761098
 30
0.0
 11
4267.8195628859702992
 21
225.4627347792259968
 31
0.0
  0
LINE
  5
A120
  8
0
 10
4267.6379378773099234
 20
225.6202062608259951
 30
0.0
 11
4267.598456637037998
 21
225.660375689740107
 31
0.0
  0
LINE
  5
A121
  8
0
 10
4267.5910436392532574
 20
225.702892732576089
 30
0.0
 11
4267.598456637037998
 21
225.702892732576089
 31
0.0
  0
ARC
  5
A122
  8
0
 10
4267.5910436425119769
 20
225.7107667559006074
 30
0.0
 40
0.0078740233245881
 50
180.0596443142920862
 51
269.999976291470773
  0
ARC
  5
A123
  8
0
 10
4267.726895878866344
 20
225.580532316670002
 30
0.0
 40
0.0396739523304472
 50
7.387697592541496
 51
90.0367800451540319
  0
ARC
  5
A124
  8
0
 10
4267.8008152071206496
 20
225.478260312943803
 30
0.0
 40
0.0084814287161103
 50
30.137957352281159
 51
149.6219526852906938
  0
LINE
  5
A125
  8
0
 10
4267.7934982150318319
 20
225.4825493990761061
 30
0.0
 11
4267.7821118243546152
 21
225.4627352521760884
 31
0.0
  0
LINE
  5
A126
  8
0
 10
4267.832872731029056
 20
225.4825493990761061
 30
0.0
 11
4267.8214860685684471
 21
225.4627347792259968
 31
0.0
  0
LINE
  5
A127
  8
0
 10
4266.6302720335106642
 20
226.0532771269259911
 30
0.0
 11
4266.6893271516109962
 21
226.0532771269259911
 31
0.0
  0
LINE
  5
A128
  8
0
 10
4266.6893271516109962
 20
226.0532771269259911
 30
0.0
 11
4266.6893271516109962
 21
226.3682377569259927
 31
0.0
  0
LINE
  5
A129
  8
0
 10
4266.6302720335106642
 20
226.0532771269259911
 30
0.0
 11
4266.6302720335106642
 21
226.3682377569259927
 31
0.0
  0
ARC
  5
A12A
  8
0
 10
4266.7910381606889132
 20
226.2073095790694026
 30
0.0
 40
0.2226471287961283
 50
184.1798915236707899
 51
223.7746058624672116
  0
LINE
  5
A12B
  8
0
 10
4266.6893271516109962
 20
226.1320265907760074
 30
0.0
 11
4266.8664925059101733
 21
226.1320265907760074
 31
0.0
  0
LINE
  5
A12C
  8
0
 10
4266.5689832466669031
 20
226.1910812359566876
 30
0.0
 11
4266.5843114257586421
 21
226.1910812359566876
 31
0.0
  0
LINE
  5
A12D
  8
0
 10
4266.8664925059101733
 20
226.368238229875999
 30
0.0
 11
4266.8861775452096481
 21
226.3879232692760866
 31
0.0
  0
LINE
  5
A12E
  8
0
 10
4266.8861775452096481
 20
226.3879232692760866
 30
0.0
 11
4267.4176736082108619
 21
226.3879232692760866
 31
0.0
  0
LINE
  5
A12F
  8
0
 10
4267.6379378773099234
 20
226.8013086230259887
 30
0.0
 11
4267.7268704108528254
 21
226.8013086230259887
 31
0.0
  0
LINE
  5
A130
  8
0
 10
4267.7997002534239073
 20
226.958780104625987
 30
0.0
 11
4267.8016234360220551
 21
226.958780104625987
 31
0.0
  0
LINE
  5
A131
  8
0
 10
4267.8390747694211314
 20
226.958780104625987
 30
0.0
 11
4267.8409979520201887
 21
226.958780104625987
 31
0.0
  0
LINE
  5
A132
  8
0
 10
4267.8784492854183554
 20
226.958780104625987
 30
0.0
 11
4267.8803724680155938
 21
226.958780104625987
 31
0.0
  0
LINE
  5
A133
  8
0
 10
4267.9178238014155795
 20
226.958780104625987
 30
0.0
 11
4267.9197469840137273
 21
226.958780104625987
 31
0.0
  0
LINE
  5
A134
  8
0
 10
4267.9487028323528648
 20
226.9292520725759914
 30
0.0
 11
4267.9886814344527011
 21
226.9292520725759914
 31
0.0
  0
LINE
  5
A135
  8
0
 10
4267.7882874751876443
 20
226.9389961831759877
 30
0.0
 11
4267.7997002534239073
 21
226.958780104625987
 31
0.0
  0
LINE
  5
A136
  8
0
 10
4267.6379378773099234
 20
226.8013086230259887
 30
0.0
 11
4267.598456637037998
 21
226.7611391941119905
 31
0.0
  0
LINE
  5
A137
  8
0
 10
4267.5910436392532574
 20
226.7186221512760085
 30
0.0
 11
4267.598456637037998
 21
226.7186221512760085
 31
0.0
  0
ARC
  5
A138
  8
0
 10
4267.5910436425119769
 20
226.71074812795149
 30
0.0
 40
0.0078740233245831
 50
90.0000237085291843
 51
179.9403556857079138
  0
ARC
  5
A139
  8
0
 10
4267.726895878866344
 20
226.8409825671820954
 30
0.0
 40
0.0396739523304472
 50
269.9632199548460108
 51
352.6123024074616978
  0
ARC
  5
A13A
  8
0
 10
4267.7809525745760766
 20
226.9432545709082945
 30
0.0
 40
0.0084814287161103
 50
232.8653596058383926
 51
329.8620426477187948
  0
ARC
  5
A13B
  8
0
 10
4267.8203270905733007
 20
226.9432545709082945
 30
0.0
 40
0.0084814287161103
 50
210.3780473147093062
 51
329.8620426477187948
  0
LINE
  5
A13C
  8
0
 10
4267.8130100984853925
 20
226.9389654847759914
 30
0.0
 11
4267.8016234360220551
 21
226.958780104625987
 31
0.0
  0
LINE
  5
A13D
  8
0
 10
4266.6302720335106642
 20
226.3682377569259927
 30
0.0
 11
4266.6893271516109962
 21
226.3682377569259927
 31
0.0
  0
ARC
  5
A13E
  8
0
 10
4266.7910436116462733
 20
226.2142029918591959
 30
0.0
 40
0.222652664895592
 50
136.2259347964439939
 51
175.8198598732128914
  0
LINE
  5
A13F
  8
0
 10
4266.6893271516109962
 20
226.28948829307609
 30
0.0
 11
4266.8664925059101733
 21
226.28948829307609
 31
0.0
  0
LINE
  5
A140
  8
0
 10
4266.5689832466669031
 20
226.2304327019953973
 30
0.0
 11
4266.5843114257586421
 21
226.2304327019953973
 31
0.0
  0
ARC
  5
A141
  8
0
 10
4266.6411670818197308
 20
226.2107569689761135
 30
0.0
 40
0.0601639434868112
 50
160.9110715776224936
 51
199.0889284223773927
  0
LINE
  5
A142
  8
0
 10
4267.598456637037998
 20
226.7611391941119905
 30
0.0
 11
4267.598456637037998
 21
225.660375689740107
 31
0.0
  0
LINE
  5
A143
  8
0
 10
4267.6379378773099234
 20
226.8013086230259887
 30
0.0
 11
4267.6379378773099234
 21
225.6202062608259951
 31
0.0
  0
LINE
  5
A144
  8
0
 10
4267.5831696234536139
 20
226.7107563247269013
 30
0.0
 11
4267.5831696234536139
 21
225.7107585591251961
 31
0.0
  0
LINE
  5
A145
  8
0
 10
4267.7662404895527288
 20
226.9531845123966036
 30
0.0
 11
4267.7662404895527288
 21
225.4627352521760884
 31
0.0
  0
LINE
  5
A146
  8
0
 10
4267.9487028323528648
 20
225.4785584338542037
 30
0.0
 11
4267.9487028323528648
 21
226.9440532777643114
 31
0.0
  0
LINE
  5
A147
  8
0
 10
4267.7662404895527288
 20
225.4627352521760884
 30
0.0
 11
4267.7821118243546152
 21
225.4627352521760884
 31
0.0
  0
LINE
  5
A148
  8
0
 10
4267.8016234360220551
 20
226.958780104625987
 30
0.0
 11
4267.8214860685684471
 21
225.4627347792259968
 31
0.0
  0
LINE
  5
A149
  8
0
 10
4267.8195628859702992
 20
225.4627347792259968
 30
0.0
 11
4267.7997002534239073
 21
226.958780104625987
 31
0.0
  0
LINE
  5
A14A
  8
0
 10
4267.8589374019666138
 20
225.4627347792259968
 30
0.0
 11
4267.8608605845647617
 21
225.4627347792259968
 31
0.0
  0
LINE
  5
A14B
  8
0
 10
4267.8475246237303509
 20
225.4825187006761098
 30
0.0
 11
4267.8589374019666138
 21
225.4627347792259968
 31
0.0
  0
ARC
  5
A14C
  8
0
 10
4267.8401897231187831
 20
225.478260312943803
 30
0.0
 40
0.0084814287161103
 50
30.137957352281159
 51
149.6219526852906938
  0
LINE
  5
A14D
  8
0
 10
4267.8722472470262801
 20
225.4825493990761061
 30
0.0
 11
4267.8608605845647617
 21
225.4627347792259968
 31
0.0
  0
LINE
  5
A14E
  8
0
 10
4267.8276619911848684
 20
226.9389961831759877
 30
0.0
 11
4267.8390747694211314
 21
226.958780104625987
 31
0.0
  0
ARC
  5
A14F
  8
0
 10
4267.8597016065696153
 20
226.9432545709082945
 30
0.0
 40
0.0084814287161103
 50
210.3780473147093062
 51
329.8620426477187948
  0
LINE
  5
A150
  8
0
 10
4267.8523846144817071
 20
226.9389654847759914
 30
0.0
 11
4267.8409979520201887
 21
226.958780104625987
 31
0.0
  0
LINE
  5
A151
  8
0
 10
4267.8409979520201887
 20
226.958780104625987
 30
0.0
 11
4267.8608605845647617
 21
225.4627347792259968
 31
0.0
  0
LINE
  5
A152
  8
0
 10
4267.8589374019666138
 20
225.4627347792259968
 30
0.0
 11
4267.8390747694211314
 21
226.958780104625987
 31
0.0
  0
LINE
  5
A153
  8
0
 10
4267.8983119179638379
 20
225.4627347792259968
 30
0.0
 11
4267.9002351005619857
 21
225.4627347792259968
 31
0.0
  0
LINE
  5
A154
  8
0
 10
4267.8868991397266655
 20
225.4825187006761098
 30
0.0
 11
4267.8983119179638379
 21
225.4627347792259968
 31
0.0
  0
ARC
  5
A155
  8
0
 10
4267.8795642391150977
 20
225.478260312943803
 30
0.0
 40
0.0084814287161103
 50
30.137957352281159
 51
149.6219526852906938
  0
LINE
  5
A156
  8
0
 10
4267.9116217630253232
 20
225.4825493990761061
 30
0.0
 11
4267.9002351005619857
 21
225.4627347792259968
 31
0.0
  0
LINE
  5
A157
  8
0
 10
4267.8670365071820925
 20
226.9389961831759877
 30
0.0
 11
4267.8784492854183554
 21
226.958780104625987
 31
0.0
  0
ARC
  5
A158
  8
0
 10
4267.8990761225668393
 20
226.9432545709082945
 30
0.0
 40
0.0084814287161103
 50
210.3780473147093062
 51
329.8620426477187948
  0
LINE
  5
A159
  8
0
 10
4267.8917591304798407
 20
226.9389654847759914
 30
0.0
 11
4267.8803724680155938
 21
226.958780104625987
 31
0.0
  0
LINE
  5
A15A
  8
0
 10
4267.8803724680155938
 20
226.958780104625987
 30
0.0
 11
4267.9002351005619857
 21
225.4627347792259968
 31
0.0
  0
LINE
  5
A15B
  8
0
 10
4267.8983119179638379
 20
225.4627347792259968
 30
0.0
 11
4267.8784492854183554
 21
226.958780104625987
 31
0.0
  0
LINE
  5
A15C
  8
0
 10
4267.937686433961062
 20
225.4627347792259968
 30
0.0
 11
4267.9396096165592098
 21
225.4627347792259968
 31
0.0
  0
LINE
  5
A15D
  8
0
 10
4267.9262736557238895
 20
225.4825187006761098
 30
0.0
 11
4267.937686433961062
 21
225.4627347792259968
 31
0.0
  0
ARC
  5
A15E
  8
0
 10
4267.9189387551132313
 20
225.478260312943803
 30
0.0
 40
0.0084814287161103
 50
30.137957352281159
 51
149.6219526852906938
  0
LINE
  5
A15F
  8
0
 10
4267.9487028323528648
 20
225.4785584338542037
 30
0.0
 11
4267.9396096165592098
 21
225.4627347792259968
 31
0.0
  0
LINE
  5
A160
  8
0
 10
4267.9064110231793165
 20
226.9389961831759877
 30
0.0
 11
4267.9178238014155795
 21
226.958780104625987
 31
0.0
  0
ARC
  5
A161
  8
0
 10
4267.9384506385649729
 20
226.9432545709082945
 30
0.0
 40
0.0084814287161103
 50
210.3780473147093062
 51
329.8620426477187948
  0
LINE
  5
A162
  8
0
 10
4267.9311336464761553
 20
226.9389654847759914
 30
0.0
 11
4267.9197469840137273
 21
226.958780104625987
 31
0.0
  0
LINE
  5
A163
  8
0
 10
4267.9197469840137273
 20
226.958780104625987
 30
0.0
 11
4267.9396096165592098
 21
225.4627347792259968
 31
0.0
  0
LINE
  5
A164
  8
0
 10
4267.937686433961062
 20
225.4627347792259968
 30
0.0
 11
4267.9178238014155795
 21
226.958780104625987
 31
0.0
  0
LINE
  5
A165
  8
0
 10
4267.9457855391756311
 20
226.9389961831759877
 30
0.0
 11
4267.9487028323528648
 21
226.9440532777643114
 31
0.0
  0
LINE
  5
A166
  8
0
 10
4267.7758324201276992
 20
226.9364930140237107
 30
0.0
 11
4267.7662404895527288
 21
226.9531845123966036
 31
0.0
  0
ARC
  5
A167
  8
0
 10
4267.525941324811356
 20
225.9017023238261004
 30
0.0
 40
0.0098425196999976
 50
270.0000000000521254
 51
0.0000000000097707
  0
LINE
  5
A168
  8
0
 10
4267.5357838445097514
 20
225.9017023238261004
 30
0.0
 11
4267.5357838445097514
 21
225.9056393317260927
 31
0.0
  0
ARC
  5
A169
  8
0
 10
4267.5456263642108752
 20
225.9056393317260927
 30
0.0
 40
0.0098425196999958
 50
89.9999999999478888
 51
180.0
  0
LINE
  5
A16A
  8
0
 10
4267.5456263642108752
 20
225.9154818514259944
 30
0.0
 11
4267.5831696234536139
 21
225.9154818514259944
 31
0.0
  0
LINE
  5
A16B
  8
0
 10
4270.4491696713103011
 20
222.8643007490261141
 30
0.0
 11
4270.6657029184098064
 21
222.8643007490261141
 31
0.0
  0
LINE
  5
A16C
  8
0
 10
4271.6976727731462233
 20
228.2028834262260091
 30
0.0
 11
4270.6573408701760854
 21
228.2028834262260091
 31
0.0
  0
LINE
  5
A16D
  8
0
 10
4271.5465691865247209
 20
228.466662953826102
 30
0.0
 11
4270.8084444567957689
 21
228.466662953826102
 31
0.0
  0
LINE
  5
A16E
  8
0
 10
4271.5949129292102953
 20
228.4387516819259929
 30
0.0
 11
4270.760100714111104
 21
228.4387516819259929
 31
0.0
  0
LINE
  5
A16F
  8
0
 10
4271.5875705227108483
 20
228.2028834262260091
 30
0.0
 11
4271.5949129292102953
 21
228.4387516819259929
 31
0.0
  0
LINE
  5
A170
  8
0
 10
4271.5465691865247209
 20
228.466662953826102
 30
0.0
 11
4271.5949129271511993
 21
228.4387516819259929
 31
0.0
  0
LINE
  5
A171
  8
0
 10
4271.7050565704103064
 20
228.1713873632261027
 30
0.0
 11
4271.7050565704103064
 21
227.2231254965450944
 31
0.0
  0
ARC
  5
A172
  8
0
 10
4271.6341904286728095
 20
228.1713873632174057
 30
0.0
 40
0.0708661417369445
 50
0.0000000070023092
 51
26.3877999742997389
  0
LINE
  5
A173
  8
0
 10
4271.4137366004097203
 20
221.4784739774260913
 30
0.0
 11
4271.4137366004097203
 21
221.832804686026094
 31
0.0
  0
LINE
  5
A174
  8
0
 10
4271.4010608390108246
 20
221.832804686026094
 30
0.0
 11
4271.4010608390108246
 21
221.5080015367261126
 31
0.0
  0
LINE
  5
A175
  8
0
 10
4271.4137366004097203
 20
221.5080015367261126
 30
0.0
 11
4271.4010608390108246
 21
221.5080015367261126
 31
0.0
  0
LINE
  5
A176
  8
0
 10
4271.5875705227108483
 20
222.096584213625988
 30
0.0
 11
4271.5949129292102953
 21
221.8607159579260042
 31
0.0
  0
LINE
  5
A177
  8
0
 10
4271.5465691865247209
 20
221.832804686026094
 30
0.0
 11
4271.5949129292102953
 21
221.8607159579260042
 31
0.0
  0
LINE
  5
A178
  8
0
 10
4271.7050565704103064
 20
222.1280802766260081
 30
0.0
 11
4271.7050565704103064
 21
223.149396747586394
 31
0.0
  0
ARC
  5
A179
  8
0
 10
4271.6341904286728095
 20
222.1280802766347051
 30
0.0
 40
0.0708661417369445
 50
333.6122000257001901
 51
359.9999999929976866
  0
LINE
  5
A17A
  8
0
 10
4271.6976727731462233
 20
222.096584213625988
 30
0.0
 11
4270.6573408701760854
 21
222.096584213625988
 31
0.0
  0
LINE
  5
A17B
  8
0
 10
4271.5465691865247209
 20
221.832804686026094
 30
0.0
 11
4270.8084444567957689
 21
221.832804686026094
 31
0.0
  0
LINE
  5
A17C
  8
0
 10
4271.4137366004097203
 20
221.4784739774260913
 30
0.0
 11
4270.9412956558107908
 21
221.4784739774260913
 31
0.0
  0
LINE
  5
A17D
  8
0
 10
4271.5949129292102953
 20
221.8607159579260042
 30
0.0
 11
4270.760100714111104
 21
221.8607159579260042
 31
0.0
  0
LINE
  5
A17E
  8
0
 10
4270.7674431206096415
 20
228.2028834262260091
 30
0.0
 11
4270.760100714111104
 21
228.4387516819259929
 31
0.0
  0
LINE
  5
A17F
  8
0
 10
4270.8084444567957689
 20
228.466662953826102
 30
0.0
 11
4270.760100714111104
 21
228.4387516819259929
 31
0.0
  0
LINE
  5
A180
  8
0
 10
4270.6499570729110928
 20
228.1713873632261027
 30
0.0
 11
4270.6499570729110928
 21
227.5584264346570933
 31
0.0
  0
ARC
  5
A181
  8
0
 10
4270.7208232146476803
 20
228.1713873632174057
 30
0.0
 40
0.0708661417369445
 50
153.6122000257003037
 51
179.9999999929976866
  0
LINE
  5
A182
  8
0
 10
4271.1901918894100163
 20
221.832804686026094
 30
0.0
 11
4271.1901918894100163
 21
221.5080015367261126
 31
0.0
  0
LINE
  5
A183
  8
0
 10
4270.7674431206096415
 20
222.096584213625988
 30
0.0
 11
4270.760100714111104
 21
221.8607159579260042
 31
0.0
  0
LINE
  5
A184
  8
0
 10
4270.8084444567957689
 20
221.832804686026094
 30
0.0
 11
4270.7601007141120135
 21
221.8607159579900951
 31
0.0
  0
LINE
  5
A185
  8
0
 10
4270.6499570729110928
 20
222.1280802766260081
 30
0.0
 11
4270.6499570729110928
 21
222.8052456309260094
 31
0.0
  0
ARC
  5
A186
  8
0
 10
4270.7208232146476803
 20
222.1280802766347051
 30
0.0
 40
0.0708661417369445
 50
180.0000000070023134
 51
206.3877999742996963
  0
ARC
  5
A187
  8
0
 10
4271.2956263642108752
 20
221.6814759443811909
 30
0.0
 40
0.2030019669551033
 50
238.7095545306279121
 51
301.2904454693721732
  0
LINE
  5
A188
  8
0
 10
4270.0554688839110895
 20
223.1202062609260963
 30
0.0
 11
4270.2326342382102666
 21
223.1202062609260963
 31
0.0
  0
LINE
  5
A189
  8
0
 10
4270.0781992105112295
 20
223.1202062609260963
 30
0.0
 11
4270.0781992105112295
 21
223.1605242200259909
 31
0.0
  0
LINE
  5
A18A
  8
0
 10
4270.0781992105112295
 20
223.1605242200259909
 30
0.0
 11
4270.2326342382102666
 21
223.1605242200259909
 31
0.0
  0
LINE
  5
A18B
  8
0
 10
4270.2326342382102666
 20
223.6133528687261105
 30
0.0
 11
4270.0781992105112295
 21
223.6133528687261105
 31
0.0
  0
ARC
  5
A18C
  8
0
 10
4271.1944783431536052
 20
223.3869385443759938
 30
0.0
 40
1.139009459243896
 50
168.5342702899116887
 51
191.4657297100881976
  0
ARC
  5
A18D
  8
0
 10
4270.2641303012096614
 20
223.1517023239260027
 30
0.0
 40
0.0708661416999864
 50
243.6122000388162974
 51
270.0
  0
LINE
  5
A18E
  8
0
 10
4270.7247602225106675
 20
227.183943331028587
 30
0.0
 11
4271.2979654070104516
 21
227.183943332626086
 31
0.0
  0
ARC
  5
A18F
  8
0
 10
4271.3002077049131913
 20
226.0887474944275084
 30
0.0
 40
1.0951981336303009
 50
82.2634122284212168
 51
90.1173068982590166
  0
ARC
  5
A190
  8
0
 10
4271.5241213756198704
 20
228.3829940648537047
 30
0.0
 40
1.21143406706926
 50
266.3804448781040719
 51
273.2219211592571924
  0
ARC
  5
A191
  8
0
 10
4271.6141642738712108
 20
229.6823973566278028
 30
0.0
 40
2.509018555224499
 50
269.4986064234080914
 51
271.4830825268908825
  0
ARC
  5
A192
  8
0
 10
4271.7122752101258811
 20
227.125316208865712
 30
0.0
 40
0.0590928427242205
 50
124.1507289633269977
 51
216.321301209592292
  0
ARC
  5
A193
  8
0
 10
4270.5908763313391319
 20
227.5587604051640085
 30
0.0
 40
0.0590816854948162
 50
270.0248499546091239
 51
359.6761229427845024
  0
LINE
  5
A194
  8
0
 10
4270.3113743957110273
 20
227.1136906590284923
 30
0.0
 11
4270.3113743957110273
 21
226.9543854631259876
 31
0.0
  0
LINE
  5
A195
  8
0
 10
4270.3507444744109307
 20
227.0572141345224111
 30
0.0
 11
4270.4097995925103532
 21
227.0572141345224111
 31
0.0
  0
LINE
  5
A196
  8
0
 10
4270.4097995925103532
 20
227.0375290955261107
 30
0.0
 11
4270.4097995925103532
 21
227.391859804226101
 31
0.0
  0
LINE
  5
A197
  8
0
 10
4270.3507444744109307
 20
227.0572141345224111
 30
0.0
 11
4270.3507444744109307
 21
227.3721747651296994
 31
0.0
  0
ARC
  5
A198
  8
0
 10
4270.5115133290892118
 20
227.2112477439881957
 30
0.0
 40
0.2226498988985938
 50
184.1800159189791941
 51
223.7743353296413034
  0
LINE
  5
A199
  8
0
 10
4270.2894556875680792
 20
227.1950187168567084
 30
0.0
 11
4270.3047838666589087
 21
227.1950187168567084
 31
0.0
  0
LINE
  5
A19A
  8
0
 10
4270.3507444744109307
 20
227.3721747651296994
 30
0.0
 11
4270.4097995925103532
 21
227.3721747651296994
 31
0.0
  0
ARC
  5
A19B
  8
0
 10
4270.5115133285116826
 20
227.218141155908512
 30
0.0
 40
0.2226498983133022
 50
136.2256646131928903
 51
175.8199841072992058
  0
LINE
  5
A19C
  8
0
 10
4270.2894556875680792
 20
227.2343701828953897
 30
0.0
 11
4270.3047838666589087
 21
227.2343701828953897
 31
0.0
  0
ARC
  5
A19D
  8
0
 10
4270.3616395227199973
 20
227.2146944498761059
 30
0.0
 40
0.0601639434868112
 50
160.9110715776224936
 51
199.0889284223773927
  0
LINE
  5
A19E
  8
0
 10
4270.4885397500111139
 20
227.0030325195783973
 30
0.0
 11
4270.4885397500102044
 21
227.4263563801737007
 31
0.0
  0
LINE
  5
A19F
  8
0
 10
4270.4097995925103532
 20
227.391859804226101
 30
0.0
 11
4270.4885397500102044
 21
227.391859804226101
 31
0.0
  0
LINE
  5
A1A0
  8
0
 10
4270.4097995925103532
 20
227.0375290955261107
 30
0.0
 11
4270.4885397500111139
 21
227.0375290955261107
 31
0.0
  0
ARC
  5
A1A1
  8
0
 10
4270.4872334068031705
 20
227.0623210014441895
 30
0.0
 40
0.0593018039685817
 50
204.7123737051329897
 51
271.2622551458254065
  0
ARC
  5
A1A2
  8
0
 10
4270.4872359598703042
 20
227.3670656505283034
 30
0.0
 40
0.059305062942408
 50
88.6941828895501487
 51
155.2866847344562871
  0
ARC
  5
A1A3
  8
0
 10
4270.488540051775999
 20
222.9233565936951038
 30
0.0
 40
0.0590558446698494
 50
180.2173206136166925
 51
269.9997072281245778
  0
LINE
  5
A1A4
  8
0
 10
4270.4294846319098724
 20
222.9430404335261073
 30
0.0
 11
4270.4294846319098724
 21
222.9231325977613949
 31
0.0
  0
LINE
  5
A1A5
  8
0
 10
4270.7247602225106675
 20
223.2956441292222962
 30
0.0
 11
4270.7247602225106675
 21
222.9370000226259947
 31
0.0
  0
ARC
  5
A1A6
  8
0
 10
4270.6438332782381622
 20
222.9424038232907037
 30
0.0
 40
0.0811071598001983
 50
285.6427766351847026
 51
356.1798133254309278
  0
LINE
  5
A1A7
  8
0
 10
4270.3507444744109307
 20
223.2776865762234877
 30
0.0
 11
4270.4097995925103532
 21
223.2776865762234877
 31
0.0
  0
LINE
  5
A1A8
  8
0
 10
4270.4097995925103532
 20
223.2973711422260124
 30
0.0
 11
4270.4097995925103532
 21
222.9430404335261073
 31
0.0
  0
LINE
  5
A1A9
  8
0
 10
4270.3507444744109307
 20
223.2776865762234877
 30
0.0
 11
4270.3507444744109307
 21
222.9627259456161994
 31
0.0
  0
ARC
  5
A1AA
  8
0
 10
4270.511516054835738
 20
223.1236518101848105
 30
0.0
 40
0.2226526672215576
 50
136.2259350236051887
 51
175.8198597687600966
  0
LINE
  5
A1AB
  8
0
 10
4270.2894556875680792
 20
223.1398815208953863
 30
0.0
 11
4270.3047838666589087
 21
223.1398815208953863
 31
0.0
  0
LINE
  5
A1AC
  8
0
 10
4270.3507444744109307
 20
222.9627259456161994
 30
0.0
 11
4270.4097995925103532
 21
222.9627259456161994
 31
0.0
  0
ARC
  5
A1AD
  8
0
 10
4270.5115106027988077
 20
223.1167583982727081
 30
0.0
 40
0.222647130024483
 50
184.1798915788355089
 51
223.7746057425271999
  0
LINE
  5
A1AE
  8
0
 10
4270.2894556875680792
 20
223.100530054856705
 30
0.0
 11
4270.3047838666589087
 21
223.100530054856705
 31
0.0
  0
ARC
  5
A1AF
  8
0
 10
4270.3616395227199973
 20
223.1202057878761025
 30
0.0
 40
0.0601639434868112
 50
160.9110715776224936
 51
199.0889284223773927
  0
LINE
  5
A1B0
  8
0
 10
4270.4885397500111139
 20
223.3318677181736973
 30
0.0
 11
4270.4885397500102044
 21
222.908543857578394
 31
0.0
  0
LINE
  5
A1B1
  8
0
 10
4270.4097995925103532
 20
222.9430404335261073
 30
0.0
 11
4270.4885397500102044
 21
222.9430404335259936
 31
0.0
  0
LINE
  5
A1B2
  8
0
 10
4270.4097995925103532
 20
223.2973711422260124
 30
0.0
 11
4270.4885397500111139
 21
223.2973711422260124
 31
0.0
  0
ARC
  5
A1B3
  8
0
 10
4270.4872359598703042
 20
223.2725769885284137
 30
0.0
 40
0.059305062942408
 50
88.6941828895501487
 51
155.2866847344562871
  0
ARC
  5
A1B4
  8
0
 10
4270.4872359598703042
 20
222.967834587223706
 30
0.0
 40
0.059305062942408
 50
204.7133152655435993
 51
271.3058171104498228
  0
ARC
  5
A1B5
  8
0
 10
4270.4491699730751861
 20
222.9233565936951038
 30
0.0
 40
0.059055844669846
 50
179.7826793890671127
 51
269.9997072281245778
  0
LINE
  5
A1B6
  8
0
 10
4270.3901145532108785
 20
222.9627259456161994
 30
0.0
 11
4270.3901145532108785
 21
222.923580589625999
 31
0.0
  0
ARC
  5
A1B7
  8
0
 10
4270.4884335672568341
 20
223.2955005347882036
 30
0.0
 40
0.0589740855288938
 50
89.8968389786997051
 51
178.1823221078068968
  0
LINE
  5
A1B8
  8
0
 10
4270.4885397500111139
 20
223.3544745247259868
 30
0.0
 11
4270.6657051044103355
 21
223.3544745247259868
 31
0.0
  0
ARC
  5
A1B9
  8
0
 10
4270.665844778639439
 20
223.2955591851851125
 30
0.0
 40
0.0589155051079139
 50
0.0826087584516667
 51
90.1358343827359505
  0
ARC
  5
A1BA
  8
0
 10
4270.7842575094982749
 20
222.9810555633519868
 30
0.0
 40
0.0604118741502006
 50
90.3807742615226317
 51
170.0175197627627881
  0
LINE
  5
A1BB
  8
0
 10
4270.7838560293612318
 20
223.0414661034259893
 30
0.0
 11
4271.0212231868108574
 21
223.041466062826089
 31
0.0
  0
ARC
  5
A1BC
  8
0
 10
4271.0275456379731622
 20
222.8703147077291078
 30
0.0
 40
0.1712680931762336
 50
40.8823280894653394
 51
92.1155843327189388
  0
LINE
  5
A1BD
  8
0
 10
4270.2641303012096614
 20
223.0808361822261077
 30
0.0
 11
4270.2918558273477174
 21
223.0803781271063997
 31
0.0
  0
ARC
  5
A1BE
  8
0
 10
4270.7842575094982749
 20
223.2593560124001044
 30
0.0
 40
0.0604118741502006
 50
189.9824802372372119
 51
269.6192257384773825
  0
LINE
  5
A1BF
  8
0
 10
4270.7838560293612318
 20
223.1989454723259882
 30
0.0
 11
4271.0212231868108574
 21
223.1989455129260023
 31
0.0
  0
ARC
  5
A1C0
  8
0
 10
4271.0275456379731622
 20
223.3700968680230119
 30
0.0
 40
0.1712680931762336
 50
267.8844156672810755
 51
319.117671910534682
  0
LINE
  5
A1C1
  8
0
 10
4271.1570338007113605
 20
223.2580005904260076
 30
0.0
 11
4271.1570338007113605
 21
222.9824109853259984
 31
0.0
  0
LINE
  5
A1C2
  8
0
 10
4270.9690051177103669
 20
224.2073472926794864
 30
0.0
 11
4270.9690051177103669
 21
223.1989455039945085
 31
0.0
  0
LINE
  5
A1C3
  8
0
 10
4271.6617302266104161
 20
223.9727450160526132
 30
0.0
 11
4271.6617302266104161
 21
223.2604849760423917
 31
0.0
  0
ARC
  5
A1C4
  8
0
 10
4271.311313053167396
 20
224.3589425491790053
 30
0.0
 40
0.3573589454308841
 50
204.9278272190632038
 51
257.9274251604301185
  0
ARC
  5
A1C5
  8
0
 10
4271.3153114043952883
 20
225.0350045947843114
 30
0.0
 40
1.028535876073283
 50
265.6093926371478915
 51
274.3906070658380827
  0
ARC
  5
A1C6
  8
0
 10
4271.3747632649256047
 20
224.2524818525629939
 30
0.0
 40
0.2437590313950395
 50
274.5384750529859161
 51
303.0106507726205791
  0
ARC
  5
A1C7
  8
0
 10
4271.53184720246918
 20
224.0095119101972898
 30
0.0
 40
0.0455711746370826
 50
57.7981694693652202
 51
122.2021633658443989
  0
ARC
  5
A1C8
  8
0
 10
4271.2854132834572738
 20
223.5568886784631104
 30
0.0
 40
0.560848406628356
 50
47.8574076129044599
 51
61.1384083535067333
  0
ARC
  5
A1C9
  8
0
 10
4271.8172525869276797
 20
224.0585732490854127
 30
0.0
 40
0.1776335839427118
 50
208.8930188781687889
 51
233.9007229570379991
  0
ARC
  5
A1CA
  8
0
 10
4271.7698579261696068
 20
224.4651019805220074
 30
0.0
 40
0.5530289741810182
 50
264.0565303608822774
 51
275.9434592930919052
  0
ARC
  5
A1CB
  8
0
 10
4271.8003643758429462
 20
224.1720712426840976
 30
0.0
 40
0.2584145536419244
 50
275.9434568030122819
 51
351.8882726053931265
  0
ARC
  5
A1CC
  8
0
 10
4271.7723751768899092
 20
223.2763381043899074
 30
0.0
 40
0.1117748929808999
 50
188.1538036596033123
 51
249.4102326109872934
  0
LINE
  5
A1CD
  8
0
 10
4271.39405155973418
 20
225.5328343265591968
 30
0.0
 11
4271.39405155973418
 21
224.0094871467090059
 31
0.0
  0
ARC
  5
A1CE
  8
0
 10
4270.7906824622959903
 20
227.4071299380429991
 30
0.0
 40
0.066064118573461
 50
183.7557034924342929
 51
264.0335261693189182
  0
ARC
  5
A1CF
  8
0
 10
4270.9026011406731413
 20
496.3765016002049038
 30
0.0
 40
269.0351041275529269
 50
269.9747024612883024
 51
270.025262641075301
  0
ARC
  5
A1D0
  8
0
 10
4271.0213106988039726
 20
227.1427265135772871
 30
0.0
 40
0.1986971295628104
 50
44.6511386277827924
 51
90.0252626410752868
  0
ARC
  5
A1D1
  8
0
 10
4270.9828334293588341
 20
227.2331559296862906
 30
0.0
 40
0.186442453396914
 50
344.6950747818942205
 51
15.3049255374776205
  0
LINE
  5
A1D2
  8
0
 10
4270.1538940807104154
 20
226.1320172844079082
 30
0.0
 11
4270.2562562854109274
 21
226.1320172845261141
 31
0.0
  0
ARC
  5
A1D3
  8
0
 10
4270.256256285476411
 20
226.0759535360242864
 30
0.0
 40
0.0560637485017299
 50
359.0111958185490266
 51
90.0000000661799646
  0
LINE
  5
A1D4
  8
0
 10
4270.3123116853175816
 20
226.0749860421240953
 30
0.0
 11
4270.3101711834870002
 21
225.9509680136457064
 31
0.0
  0
ARC
  5
A1D5
  8
0
 10
4270.2539931393866937
 20
225.9519376243370061
 30
0.0
 40
0.0561864110235009
 50
272.3084906867284758
 51
359.0111958185473213
  0
LINE
  5
A1D6
  8
0
 10
4270.2562563203337049
 20
225.8957968121260933
 30
0.0
 11
4270.1538940807104154
 21
225.8957968120078021
 31
0.0
  0
LINE
  5
A1D7
  8
0
 10
4270.1538940807104154
 20
225.7284739774260913
 30
0.0
 11
4270.7338422400971467
 21
225.7284739774260913
 31
0.0
  0
LINE
  5
A1D8
  8
0
 10
4271.0397208524100279
 20
225.6821323673152904
 30
0.0
 11
4271.0397208524100279
 21
226.1024897254260964
 31
0.0
  0
ARC
  5
A1D9
  8
0
 10
4270.941295655509748
 20
226.1024897254260964
 30
0.0
 40
0.0984251968999992
 50
0.0
 51
90.0
  0
LINE
  5
A1DA
  8
0
 10
4270.941295655509748
 20
226.2009149223260067
 30
0.0
 11
4270.8707751429828932
 21
226.2009149223260067
 31
0.0
  0
ARC
  5
A1DB
  8
0
 10
4271.6530929157470382
 20
227.2193624241737098
 30
0.0
 40
0.0520997324333896
 50
299.9484126309646967
 51
4.1419804804489733
  0
LINE
  5
A1DC
  8
0
 10
4270.1538940807104154
 20
226.2558845911260903
 30
0.0
 11
4270.7087246760238486
 21
226.2558845911260903
 31
0.0
  0
LINE
  5
A1DD
  8
0
 10
4270.9412956558107908
 20
221.4784739774260913
 30
0.0
 11
4270.9412956558107908
 21
221.832804686026094
 31
0.0
  0
LINE
  5
A1DE
  8
0
 10
4270.953971417210596
 20
221.832804686026094
 30
0.0
 11
4270.953971417210596
 21
221.5080015367261126
 31
0.0
  0
LINE
  5
A1DF
  8
0
 10
4270.9412956558107908
 20
221.5080015367261126
 30
0.0
 11
4270.953971417210596
 21
221.5080015367261126
 31
0.0
  0
LINE
  5
A1E0
  8
0
 10
4271.1648403668095852
 20
221.832804686026094
 30
0.0
 11
4271.1648403668095852
 21
221.5080015367261126
 31
0.0
  0
ARC
  5
A1E1
  8
0
 10
4271.0594058920096359
 20
221.6814759443811909
 30
0.0
 40
0.2030019669551033
 50
238.7095545306279121
 51
301.2904454693721732
  0
LINE
  5
A1E2
  8
0
 10
4271.1648403668095852
 20
221.5080015367261126
 30
0.0
 11
4271.1901918894100163
 21
221.5080015367261126
 31
0.0
  0
LINE
  5
A1E3
  8
0
 10
4271.4137366004097203
 20
228.820993662425991
 30
0.0
 11
4271.4137366004097203
 21
228.466662953826102
 31
0.0
  0
LINE
  5
A1E4
  8
0
 10
4271.4010608390108246
 20
228.466662953826102
 30
0.0
 11
4271.4010608390108246
 21
228.7914661031261119
 31
0.0
  0
LINE
  5
A1E5
  8
0
 10
4271.4137366004097203
 20
228.7914661031261119
 30
0.0
 11
4271.4010608390108246
 21
228.7914661031261119
 31
0.0
  0
LINE
  5
A1E6
  8
0
 10
4271.4137366004097203
 20
228.820993662425991
 30
0.0
 11
4270.9412956558107908
 21
228.820993662425991
 31
0.0
  0
LINE
  5
A1E7
  8
0
 10
4271.1901918894100163
 20
228.466662953826102
 30
0.0
 11
4271.1901918894100163
 21
228.7914661031261119
 31
0.0
  0
ARC
  5
A1E8
  8
0
 10
4271.2956263642108752
 20
228.6179916954710052
 30
0.0
 40
0.2030019669551033
 50
58.709554530627841
 51
121.2904454693721021
  0
LINE
  5
A1E9
  8
0
 10
4270.9412956558107908
 20
228.820993662425991
 30
0.0
 11
4270.9412956558107908
 21
228.466662953826102
 31
0.0
  0
LINE
  5
A1EA
  8
0
 10
4270.953971417210596
 20
228.466662953826102
 30
0.0
 11
4270.953971417210596
 21
228.7914661031261119
 31
0.0
  0
LINE
  5
A1EB
  8
0
 10
4270.9412956558107908
 20
228.7914661031261119
 30
0.0
 11
4270.953971417210596
 21
228.7914661031261119
 31
0.0
  0
LINE
  5
A1EC
  8
0
 10
4271.1648403668095852
 20
228.466662953826102
 30
0.0
 11
4271.1648403668095852
 21
228.7914661031261119
 31
0.0
  0
ARC
  5
A1ED
  8
0
 10
4271.0594058920096359
 20
228.6179916954710052
 30
0.0
 40
0.2030019669551033
 50
58.709554530627841
 51
121.2904454693721021
  0
LINE
  5
A1EE
  8
0
 10
4271.1648403668095852
 20
228.7914661031261119
 30
0.0
 11
4271.1901918894100163
 21
228.7914661031261119
 31
0.0
  0
ARC
  5
A1EF
  8
0
 10
4268.0020031608000863
 20
227.1618188147776038
 30
0.0
 40
0.0136072710693271
 50
96.9936133616926952
 51
171.6611544244184984
  0
ARC
  5
A1F0
  8
0
 10
4271.8231882667269019
 20
222.5285140902057037
 30
0.0
 40
1.2460609313753599
 50
123.0661558174112997
 51
133.2754712886043933
  0
ARC
  5
A1F1
  8
0
 10
4271.1778102795888117
 20
223.5198013689872027
 30
0.0
 40
0.0631986336600353
 50
53.6473790114794866
 51
123.0661558174112997
  0
ARC
  5
A1F2
  8
0
 10
4269.3609348269756083
 20
221.05118022155429
 30
0.0
 40
3.1283457394059551
 50
41.4687760041732076
 51
53.6473790114794866
  0
LINE
  5
A1F3
  8
0
 10
4267.598456637037998
 20
226.2106965731094874
 30
0.0
 11
4267.6379603684690665
 21
226.2304426170277907
 31
0.0
  0
LINE
  5
A1F4
  8
0
 10
4267.6379603684690665
 20
226.2304426170277907
 30
0.0
 11
4267.7267287264103288
 21
226.2304424813260084
 31
0.0
  0
ARC
  5
A1F5
  8
0
 10
4267.7267288136881689
 20
226.2875347124256109
 30
0.0
 40
0.0570922310995697
 50
269.9999124109738773
 51
313.7939905762422086
  0
LINE
  5
A1F6
  8
0
 10
4267.598456637037998
 20
226.2106965731094874
 30
0.0
 11
4267.6379603684690665
 21
226.1909505291912126
 31
0.0
  0
LINE
  5
A1F7
  8
0
 10
4267.6379603684690665
 20
226.1909505291912126
 30
0.0
 11
4267.7267287264103288
 21
226.1909506648929096
 31
0.0
  0
ARC
  5
A1F8
  8
0
 10
4267.7267288136881689
 20
226.1338584337933924
 30
0.0
 40
0.0570922310995697
 50
46.2060094237578483
 51
90.0000875890260659
  0
ENDSEC
  0
EOF
