  0
SECTION
  2
HEADER
  9
$ACADVER
  1
AC1009
  9
$INSBASE
 10
4288.838100169739846
 20
226.4439084340274917
 30
0.0
  9
$EXTMIN
 10
4287.1058162321887721
 20
222.1525698513275131
 30
0.0
  9
$EXTMAX
 10
4290.5703841072891009
 20
228.45178244982759
 30
0.0
  9
$LIMMIN
 10
0.0
 20
0.0
  9
$LIMMAX
 10
11.6929133858000007
 20
8.2677165353999982
  9
$ORTHOMODE
 70
     0
  9
$REGENMODE
 70
     1
  9
$FILLMODE
 70
     1
  9
$QTEXTMODE
 70
     0
  9
$MIRRTEXT
 70
     0
  9
$DRAGMODE
 70
     2
  9
$LTSCALE
 40
0.6431102362
  9
$OSMODE
 70
  3839
  9
$ATTMODE
 70
     1
  9
$TEXTSIZE
 40
0.2
  9
$TRACEWID
 40
0.05
  9
$TEXTSTYLE
  7
STANDARD
  9
$CLAYER
  8
0
  9
$CELTYPE
  6
BYLAYER
  9
$CECOLOR
 62
     1
  9
$DIMSCALE
 40
1.0
  9
$DIMASZ
 40
0.1875
  9
$DIMEXO
 40
0.0625
  9
$DIMDLI
 40
0.4443307087
  9
$DIMRND
 40
0.0
  9
$DIMDLE
 40
0.0
  9
$DIMEXE
 40
0.125
  9
$DIMTP
 40
0.01
  9
$DIMTM
 40
0.01
  9
$DIMTXT
 40
2.0
  9
$DIMCEN
 40
0.1052362205
  9
$DIMTSZ
 40
0.0
  9
$DIMTOL
 70
     1
  9
$DIMLIM
 70
     0
  9
$DIMTIH
 70
     1
  9
$DIMTOH
 70
     1
  9
$DIMSE1
 70
     0
  9
$DIMSE2
 70
     0
  9
$DIMTAD
 70
     0
  9
$DIMZIN
 70
     0
  9
$DIMBLK
  1

  9
$DIMASO
 70
     1
  9
$DIMSHO
 70
     1
  9
$DIMPOST
  1
\X
  9
$DIMAPOST
  1

  9
$DIMALT
 70
     1
  9
$DIMALTD
 70
     2
  9
$DIMALTF
 40
25.3999999999999986
  9
$DIMLFAC
 40
1.0
  9
$DIMTOFL
 70
     0
  9
$DIMTVP
 40
0.0
  9
$DIMTIX
 70
     0
  9
$DIMSOXD
 70
     0
  9
$DIMSAH
 70
     0
  9
$DIMBLK1
  1

  9
$DIMBLK2
  1

  9
$DIMSTYLE
  2
STANDARD
  9
$DIMCLRD
 70
     0
  9
$DIMCLRE
 70
     0
  9
$DIMCLRT
 70
     0
  9
$DIMTFAC
 40
1.0
  9
$DIMGAP
 40
0.09
  9
$LUNITS
 70
     2
  9
$LUPREC
 70
     4
  9
$SKETCHINC
 40
0.1
  9
$FILLETRAD
 40
0.0
  9
$AUNITS
 70
     0
  9
$AUPREC
 70
     0
  9
$MENU
  1
.
  9
$ELEVATION
 40
0.0
  9
$PELEVATION
 40
0.0
  9
$THICKNESS
 40
0.0
  9
$LIMCHECK
 70
     0
  9
$BLIPMODE
 70
     0
  9
$CHAMFERA
 40
0.0
  9
$CHAMFERB
 40
0.0
  9
$SKPOLY
 70
     0
  9
$TDCREATE
 40
2458060.468368056230247
  9
$TDUPDATE
 40
2459037.7931365738622844
  9
$TDINDWG
 40
0.5687107639
  9
$TDUSRTIMER
 40
0.5687107639
  9
$USRTIMER
 70
     1
  9
$ANGBASE
 50
0.0
  9
$ANGDIR
 70
     0
  9
$PDMODE
 70
     0
  9
$PDSIZE
 40
0.3125
  9
$PLINEWID
 40
0.0
  9
$COORDS
 70
     1
  9
$SPLFRAME
 70
     0
  9
$SPLINETYPE
 70
     6
  9
$SPLINESEGS
 70
     8
  9
$ATTDIA
 70
     1
  9
$ATTREQ
 70
     1
  9
$HANDLING
 70
     1
  9
$HANDSEED
  5
99F4
  9
$SURFTAB1
 70
     6
  9
$SURFTAB2
 70
     6
  9
$SURFTYPE
 70
     6
  9
$SURFU
 70
     6
  9
$SURFV
 70
     6
  9
$UCSNAME
  2

  9
$UCSORG
 10
0.0
 20
0.0
 30
0.0
  9
$UCSXDIR
 10
1.0
 20
0.0
 30
0.0
  9
$UCSYDIR
 10
0.0
 20
1.0
 30
0.0
  9
$PUCSNAME
  2

  9
$PUCSORG
 10
0.0
 20
0.0
 30
0.0
  9
$PUCSXDIR
 10
1.0
 20
0.0
 30
0.0
  9
$PUCSYDIR
 10
0.0
 20
1.0
 30
0.0
  9
$USERI1
 70
     0
  9
$USERI2
 70
     0
  9
$USERI3
 70
     0
  9
$USERI4
 70
     0
  9
$USERI5
 70
     0
  9
$USERR1
 40
0.0
  9
$USERR2
 40
0.0
  9
$USERR3
 40
0.0
  9
$USERR4
 40
0.0
  9
$USERR5
 40
0.0
  9
$WORLDVIEW
 70
     1
  9
$SHADEDGE
 70
     3
  9
$SHADEDIF
 70
    70
  9
$TILEMODE
 70
     1
  9
$MAXACTVP
 70
    64
  9
$PLIMCHECK
 70
     0
  9
$PEXTMIN
 10
1.0000000000000000E+20
 20
1.0000000000000000E+20
 30
1.0000000000000000E+20
  9
$PEXTMAX
 10
-1.0000000000000000E+20
 20
-1.0000000000000000E+20
 30
-1.0000000000000000E+20
  9
$PLIMMIN
 10
0.0
 20
0.0
  9
$PLIMMAX
 10
12.0
 20
9.0
  9
$UNITMODE
 70
     0
  9
$VISRETAIN
 70
     1
  9
$PLINEGEN
 70
     0
  9
$PSLTSCALE
 70
     1
  0
ENDSEC
  0
SECTION
  2
TABLES
  0
TABLE
  2
VPORT
 70
     1
  0
VPORT
  2
*ACTIVE
 70
     0
 10
0.0
 20
0.0
 11
1.0
 21
1.0
 12
0.0
 22
0.0
 13
0.0
 23
0.0
 14
1.0
 24
1.0
 15
0.0
 25
0.0
 16
0.0
 26
0.0
 36
29.845499460437189
 17
4288.838134765625
 27
225.3021774291991903
 37
0.0
 40
7.1890055176048673
 41
3.314341846758349
 42
50.0
 43
0.0
 44
0.0
 50
0.0
 51
0.0
 71
     0
 72
   100
 73
     1
 74
     1
 75
     0
 76
     0
 77
     0
 78
     0
  0
ENDTAB
  0
TABLE
  2
LTYPE
 70
     2
  0
LTYPE
  2
CONTINUOUS
 70
     0
  3
Solid line
 72
    65
 73
     0
 40
0.0
  0
LTYPE
  2
PHANTOM2
 70
     0
  3
___ _ _ ___ _ _ ___ _ _ ___ _ _
 72
    65
 73
     6
 40
1.25
 49
0.625
 49
-0.125
 49
0.125
 49
-0.125
 49
0.125
 49
-0.125
  0
ENDTAB
  0
TABLE
  2
LAYER
 70
     2
  0
LAYER
  2
0
 70
     0
 62
   255
  6
CONTINUOUS
  0
LAYER
  2
DEFPOINTS
 70
     0
 62
     7
  6
CONTINUOUS
  0
ENDTAB
  0
TABLE
  2
STYLE
 70
     1
  0
STYLE
  2
STANDARD
 70
     0
 40
0.0
 41
0.8
 50
0.0
 71
     0
 42
0.2
  3
txt
  4

  0
ENDTAB
  0
TABLE
  2
VIEW
 70
     0
  0
ENDTAB
  0
TABLE
  2
UCS
 70
     0
  0
ENDTAB
  0
TABLE
  2
APPID
 70
    10
  0
APPID
  2
ACAD
 70
     0
  0
APPID
  2
ACAD_MLEADERVER
 70
     0
  0
APPID
  2
ACAD_EXEMPT_FROM_CAD_STANDARDS
 70
     0
  0
APPID
  2
ACAD_NAV_VCDISPLAY
 70
     0
  0
APPID
  2
ACAECLAYERSTANDARD
 70
     0
  0
APPID
  2
ACCMTRANSPARENCY
 70
     0
  0
APPID
  2
ACAD_DSTYLE_DIMJAG
 70
     0
  0
APPID
  2
ACAD_DSTYLE_DIMTALN
 70
     0
  0
APPID
  2
ACDBATTR
 70
     0
  0
APPID
  2
ACDBDYNAMICBLOCKTRUENAME2
 70
     0
  0
ENDTAB
  0
TABLE
  2
DIMSTYLE
 70
     1
  0
DIMSTYLE
  2
STANDARD
 70
     0
  3

  4

  5

  6

  7

 40
1.0
 41
0.1875
 42
0.0625
 43
0.38
 44
0.125
 45
0.0
 46
0.0
 47
0.01
 48
0.01
140
0.15625
141
0.09
142
0.0
143
25.3999999999999986
144
1.0
145
0.0
146
1.0
147
0.09
 71
     1
 72
     0
 73
     1
 74
     1
 75
     0
 76
     0
 77
     0
 78
     4
170
     0
171
     2
172
     0
173
     0
174
     0
175
     0
176
     0
177
     0
178
     0
  0
ENDTAB
  0
ENDSEC
  0
SECTION
  2
BLOCKS
  0
BLOCK
  8
0
  2
$MODEL_SPACE
 70
     0
 10
0.0
 20
0.0
 30
0.0
  3
$MODEL_SPACE
  1

  0
ENDBLK
  5
21
  8
0
  0
BLOCK
 67
     1
  8
0
  2
$PAPER_SPACE
 70
     0
 10
0.0
 20
0.0
 30
0.0
  3
$PAPER_SPACE
  1

  0
ENDBLK
  5
1D
 67
     1
  8
0
  0
BLOCK
  8
0
  2
_FILLED
 70
     0
 10
0.0
 20
0.0
 30
0.0
  3
_FILLED
  1

  0
SOLID
  5
6F59
  8
0
  6
BYBLOCK
 62
     0
 10
0.0
 20
0.0
 30
0.0
 11
-1.0
 21
0.1666666667
 31
0.0
 12
-1.0
 22
-0.1666666667
 32
0.0
 13
-1.0
 23
-0.1666666667
 33
0.0
  0
ENDBLK
  5
6F5A
  8
0
  6
BYBLOCK
 62
     0
  0
BLOCK
  8
0
  2
*U1
 70
     1
 10
0.0
 20
0.0
 30
0.0
  3
*U1
  1

  0
ARC
  5
967E
  8
0
 10
-0.1106143485802065
 20
0.1711284514111273
 30
0.0
 40
0.1181102362133251
 50
349.986725511029988
 51
28.851146719340349
  0
ARC
  5
967F
  8
0
 10
0.8585901998097629
 20
0.0000000000110598
 30
0.0
 40
0.8660860874428802
 50
169.986725511029988
 51
190.0132681068924967
  0
ARC
  5
9680
  8
0
 10
-0.1106146736373548
 20
-0.1711283974593143
 30
0.0
 40
0.1181105469419472
 50
331.1489064422918887
 51
10.0132681068925695
  0
ENDBLK
  5
9681
  8
0
  0
BLOCK
  8
0
  2
*U3
 70
     1
 10
0.0
 20
0.0
 30
0.0
  3
*U3
  1

  0
ARC
  5
9842
  8
0
 10
-0.1106143485802065
 20
0.1711284514111273
 30
0.0
 40
0.1181102362133251
 50
349.986725511029988
 51
28.851146719340349
  0
ARC
  5
9843
  8
0
 10
0.8585901998097629
 20
0.0000000000110598
 30
0.0
 40
0.8660860874428802
 50
169.986725511029988
 51
190.0132681068924967
  0
ARC
  5
9844
  8
0
 10
-0.1106146736373548
 20
-0.1711283974593143
 30
0.0
 40
0.1181105469419472
 50
331.1489064422918887
 51
10.0132681068925695
  0
ENDBLK
  5
9845
  8
0
  0
BLOCK
  8
0
  2
*U4
 70
     1
 10
0.0
 20
0.0
 30
0.0
  3
*U4
  1

  0
INSERT
  5
9848
  8
0
  6
BYBLOCK
 62
     0
  2
*U3
 10
7.6752830744674219
 20
1.7093919167845211
 30
0.0
  0
INSERT
  5
9849
  8
0
  6
BYBLOCK
 62
     0
  2
*U3
 10
7.043961084404704
 20
2.0738858377235241
 30
0.0
 50
120.0
  0
INSERT
  5
984A
  8
0
  6
BYBLOCK
 62
     0
  2
*U3
 10
7.043961084377889
 20
1.3448979958919609
 30
0.0
 50
239.9999999999998863
  0
ENDBLK
  5
984B
  8
0
  0
ENDSEC
  0
SECTION
  2
ENTITIES
  0
ATTDEF
  5
3930
  8
DEFPOINTS
 10
4288.8385563594347332
 20
226.4423987588764078
 30
0.0
 40
0.001
  1
K-882A
  3

  2
MODELNUMBER
 70
     0
1001
ACDBATTR
1070
     0
1070
     1
  0
ATTDEF
  5
3931
  8
DEFPOINTS
 10
4288.8385563594347332
 20
226.4407320922097995
 30
0.0
 40
0.001
  1
NATEO
  3

  2
TRADENAME
 70
     0
1001
ACDBATTR
1070
     0
1070
     1
  0
ATTDEF
  5
3932
  8
DEFPOINTS
 10
4288.8385563594347332
 20
226.4390654255431059
 30
0.0
 40
0.001
  1
BATH AND SHOWER VALVE
  3

  2
PRODUCT
 70
     0
1001
ACDBATTR
1070
     0
1070
     1
  0
LINE
  5
976A
  8
0
 10
4289.0152659970899549
 20
226.6112312687276074
 30
0.0
 11
4289.0152659970899549
 21
226.2765855993382047
 31
0.0
  0
LINE
  5
976B
  8
0
 10
4289.0349510363903391
 20
226.134853315927586
 30
0.0
 11
4289.0349510363903391
 21
226.6936052556766015
 31
0.0
  0
LINE
  5
976C
  8
0
 10
4290.0585730836892253
 20
226.9215074290275993
 30
0.0
 11
4290.0585730836892253
 21
225.5726083965815008
 31
0.0
  0
LINE
  5
976D
  8
0
 10
4290.5703841072891009
 20
226.800462134745203
 30
0.0
 11
4290.5703841072891009
 21
225.6961388040870133
 31
0.0
  0
LINE
  5
976E
  8
0
 10
4290.531014028590107
 20
226.8376092214276127
 30
0.0
 11
4290.0585730836892253
 21
226.8376092214276127
 31
0.0
  0
LINE
  5
976F
  8
0
 10
4290.531014028590107
 20
225.6565068592275907
 30
0.0
 11
4290.0585730836892253
 21
225.6565068592275907
 31
0.0
  0
LINE
  5
9770
  8
0
 10
4290.531014028590107
 20
226.8376092214276127
 30
0.0
 11
4290.531014028590107
 21
225.6565068592275907
 31
0.0
  0
LINE
  5
9771
  8
0
 10
4289.3892817450896473
 20
222.1525698513275131
 30
0.0
 11
4288.2869185943900447
 21
222.1525698513275131
 31
0.0
  0
LINE
  5
9772
  8
0
 10
4289.4286518237886412
 20
222.1919399301274893
 30
0.0
 11
4288.2475485156901414
 21
222.1919399301274893
 31
0.0
  0
LINE
  5
9773
  8
0
 10
4289.4680219025913175
 20
223.0580816624274973
 30
0.0
 11
4288.208181477690232
 21
223.0580816624274973
 31
0.0
  0
CIRCLE
  5
9774
  8
0
 10
4288.838100169739846
 20
226.4439084340274917
 30
0.0
 40
0.71850440995
  0
CIRCLE
  5
9775
  8
0
 10
4288.838100169739846
 20
226.4439084340274917
 30
0.0
 40
0.7480319690500004
  0
CIRCLE
  5
9776
  8
0
 10
4288.838100169739846
 20
226.4439084340274917
 30
0.0
 40
0.9448823627499995
  0
CIRCLE
  5
9777
  8
0
 10
4288.838100169739846
 20
226.4439084340274917
 30
0.0
 40
0.9645674021499996
  0
LINE
  5
9778
  8
0
 10
4290.531014028590107
 20
226.8376092214276127
 30
0.0
 11
4290.5703841072891009
 21
226.800462134745203
 31
0.0
  0
LINE
  5
9779
  8
0
 10
4290.531014028590107
 20
225.6565068592275907
 30
0.0
 11
4290.5703841072891009
 21
225.6961388040870133
 31
0.0
  0
ARC
  5
977A
  8
0
 10
4259.8687378998110944
 20
209.7184390625565982
 30
0.0
 40
34.0425656281845193
 50
29.5445170527994705
 51
30.4554829285338116
  0
ARC
  5
977B
  8
0
 10
4288.8381006398685713
 20
226.4439084296307101
 30
0.0
 40
0.649606304418649
 50
54.6199773503245396
 51
65.3800225997520101
  0
ARC
  5
977C
  8
0
 10
4259.8687378998110944
 20
243.1693778054984136
 30
0.0
 40
34.0425656281845193
 50
329.5445170714662027
 51
330.4554829472006077
  0
ARC
  5
977D
  8
0
 10
4288.8381006398685713
 20
226.443908438424387
 30
0.0
 40
0.649606304418649
 50
294.6199774002479899
 51
305.3800226496754249
  0
ARC
  5
977E
  8
0
 10
4288.8381006653880831
 20
226.4439084340274917
 30
0.0
 40
0.6496062766015145
 50
354.6199771409868049
 51
5.3800228590163517
  0
CIRCLE
  5
977F
  8
0
 10
4288.838100169739846
 20
226.4439084340274917
 30
0.0
 40
0.9055123407500001
  0
CIRCLE
  5
9780
  8
0
 10
4288.838100169739846
 20
226.4439084340274917
 30
0.0
 40
0.0846446083500001
  0
CIRCLE
  5
9781
  8
0
 10
4288.838100169739846
 20
226.4439084340274917
 30
0.0
 40
0.3937012603499999
  0
CIRCLE
  5
9782
  8
0
 10
4288.838100169739846
 20
226.4439084340274917
 30
0.0
 40
0.4999999997002237
  0
ARC
  5
9783
  8
0
 10
4288.838100169739846
 20
226.4439084340274917
 30
0.0
 40
0.5814159493500002
 50
101.7207313689957004
 51
258.2791734220139119
  0
ARC
  5
9784
  8
0
 10
4288.838100169739846
 20
226.4439084340274917
 30
0.0
 40
0.5814159493500002
 50
281.7208265779862018
 51
78.2791734220138409
  0
ARC
  5
9785
  8
0
 10
4288.8381006426889144
 20
226.4439084340274917
 30
0.0
 40
0.5275590550999998
 50
102.9370619774346949
 51
257.0628326059638766
  0
ARC
  5
9786
  8
0
 10
4288.8381006426889144
 20
226.4439084340274917
 30
0.0
 40
0.5275590550999998
 50
282.9370619886076952
 51
77.0629380113922196
  0
LINE
  5
9787
  8
0
 10
4288.7199904064900693
 20
226.9580762361275106
 30
0.0
 11
4288.7199904064900693
 21
227.0335589531576943
 31
0.0
  0
LINE
  5
9788
  8
0
 10
4288.9562108789887134
 20
227.0335589565524117
 30
0.0
 11
4288.9562108789887134
 21
226.9580762361107986
 31
0.0
  0
ARC
  5
9789
  8
0
 10
4289.0251085167901692
 20
226.134853315927586
 30
0.0
 40
0.0098425196999994
 50
270.0
 51
0.0000000000097707
  0
ARC
  5
978A
  8
0
 10
4289.0251085167901692
 20
226.6624123710275001
 30
0.0
 40
0.0098425197000007
 50
0.0000000000048853
 51
90.0
  0
ARC
  5
978B
  8
0
 10
4289.0059342251188355
 20
226.6902939892823099
 30
0.0
 40
0.0292051334770017
 50
6.5101717583758614
 51
89.8241632627057953
  0
ARC
  5
978C
  8
0
 10
4289.0054234774788711
 20
226.6112312687168924
 30
0.0
 40
0.0098425196106562
 50
0.000000062038831
 51
90.0000005201119961
  0
LINE
  5
978D
  8
0
 10
4288.9955809576886168
 20
226.6013887490275067
 30
0.0
 11
4288.9955809576886168
 21
226.2864281191276064
 31
0.0
  0
LINE
  5
978E
  8
0
 10
4288.9955809576886168
 20
226.6013887490275067
 30
0.0
 11
4289.012383189803586
 21
226.6181909811128889
 31
0.0
  0
ARC
  5
978F
  8
0
 10
4289.0054234774788711
 20
226.2765855993382047
 30
0.0
 40
0.0098425196106562
 50
269.9999994798880039
 51
359.9999999379610927
  0
LINE
  5
9790
  8
0
 10
4288.9955809576886168
 20
226.2864281190275051
 30
0.0
 11
4289.012383189803586
 21
226.2696258869422081
 31
0.0
  0
LINE
  5
9791
  8
0
 10
4289.4286518237886412
 20
222.1919399301274893
 30
0.0
 11
4289.4286518237886412
 21
223.0580816624274973
 31
0.0
  0
LINE
  5
9792
  8
0
 10
4289.4680188617903696
 20
223.0580816624274973
 30
0.0
 11
4289.4680219025913175
 21
223.1565068592275907
 31
0.0
  0
LINE
  5
9793
  8
0
 10
4289.4286518237886412
 20
222.1919399301274893
 30
0.0
 11
4289.3892817450896473
 21
222.1525698513275131
 31
0.0
  0
LINE
  5
9794
  8
0
 10
4289.8420376505901004
 20
223.1565068592275907
 30
0.0
 11
4287.8341626888895917
 21
223.1565068592275907
 31
0.0
  0
LINE
  5
9795
  8
0
 10
4289.8420376505901004
 20
223.5502076466275128
 30
0.0
 11
4289.5467620600902592
 21
223.5502076466275128
 31
0.0
  0
LINE
  5
9796
  8
0
 10
4289.4680219025913175
 20
223.2352470167274987
 30
0.0
 11
4289.4680219025913175
 21
224.2785541030187062
 31
0.0
  0
LINE
  5
9797
  8
0
 10
4289.2324390029798451
 20
224.5147745757276141
 30
0.0
 11
4288.4048485189887288
 21
224.5147745757276141
 31
0.0
  0
ARC
  5
9798
  8
0
 10
4289.2317999543847691
 20
224.2785534919293013
 30
0.0
 40
0.23622194820536
 50
0.0001482222623265
 51
89.8449981791361267
  0
LINE
  5
9799
  8
0
 10
4288.9562108789887134
 20
225.852765252640495
 30
0.0
 11
4288.9562108789887134
 21
225.9297406319442985
 31
0.0
  0
LINE
  5
979A
  8
0
 10
4289.3105415875897961
 20
224.8297352057275873
 30
0.0
 11
4289.9010927686904324
 21
224.8297352057275873
 31
0.0
  0
LINE
  5
979B
  8
0
 10
4289.3105415875897961
 20
225.18406591432759
 30
0.0
 11
4289.9010927686904324
 21
225.18406591432759
 31
0.0
  0
LINE
  5
979C
  8
0
 10
4289.2318014300899449
 20
225.4540818239663906
 30
0.0
 11
4289.2318014300899449
 21
225.2513228830376022
 31
0.0
  0
LINE
  5
979D
  8
0
 10
4289.2318014300899449
 20
224.7624871996364107
 30
0.0
 11
4289.2318014300899449
 21
224.5835131194187113
 31
0.0
  0
LINE
  5
979E
  8
0
 10
4290.0132084091901561
 20
225.5562474474276087
 30
0.0
 11
4289.307793595725343
 21
225.5316138193512074
 31
0.0
  0
ARC
  5
979F
  8
0
 10
4289.8420376505901004
 20
223.3533572529275091
 30
0.0
 40
0.1968503937000003
 50
270.0
 51
90.0
  0
ARC
  5
97A0
  8
0
 10
4289.5468981210487982
 20
223.6292762843389141
 30
0.0
 40
0.0790687547777802
 50
183.9992603727463916
 51
269.901405775937576
  0
ARC
  5
97A1
  8
0
 10
4289.3892795344809201
 20
223.2352479287395965
 30
0.0
 40
0.0787423681141566
 50
270.3290576890605053
 51
359.999336387227288
  0
ARC
  5
97A2
  8
0
 10
4289.3128994710441475
 20
224.5844274360790109
 30
0.0
 40
0.0811031948919946
 50
180.6459375065360859
 51
247.8497192224415073
  0
ARC
  5
97A3
  8
0
 10
4289.3112023746753039
 20
224.7492393790543872
 30
0.0
 40
0.0804985388150774
 50
90.4703282439410401
 51
170.5276171501818112
  0
ARC
  5
97A4
  8
0
 10
4289.9010927686904324
 20
225.0069005600275887
 30
0.0
 40
0.1771653543
 50
270.0
 51
90.0
  0
ARC
  5
97A5
  8
0
 10
4289.3111905664000005
 20
225.2645461518278012
 30
0.0
 40
0.0804828540845934
 50
189.4565261818987096
 51
269.5379866902484878
  0
ARC
  5
97A6
  8
0
 10
4289.3101625522403992
 20
225.4532844550815014
 30
0.0
 40
0.0783651788861872
 50
91.7322986214555556
 51
179.4170030512356959
  0
ARC
  5
97A7
  8
0
 10
4290.0104604169209779
 20
225.6349396392764959
 30
0.0
 40
0.0787401582390224
 50
272.0000002736969122
 51
307.6640783846617069
  0
CIRCLE
  5
97A8
  8
0
 10
4289.8420376505901004
 20
223.3533572529275091
 30
0.0
 40
0.0826771653999998
  0
CIRCLE
  5
97A9
  8
0
 10
4289.8420376505901004
 20
223.3533572529275091
 30
0.0
 40
0.1082677165000003
  0
CIRCLE
  5
97AA
  8
0
 10
4289.8420376505901004
 20
223.3533572529275091
 30
0.0
 40
0.1423632048999996
  0
ARC
  5
97AB
  8
0
 10
4289.8420376505901004
 20
223.3533572529275091
 30
0.0
 40
0.2657480315000002
 50
132.205446404911811
 51
227.7945535950881037
  0
ARC
  5
97AC
  8
0
 10
4289.8420376505901004
 20
223.3533572529275091
 30
0.0
 40
0.3121656519202187
 50
156.2528599622465038
 51
203.747140037753411
  0
ARC
  5
97AD
  8
0
 10
4289.683149641041382
 20
223.3024531474887056
 30
0.0
 40
0.1472617207401988
 50
210.5290585719463934
 51
262.3360830815773852
  0
ARC
  5
97AE
  8
0
 10
4289.683149641041382
 20
223.4042613583663979
 30
0.0
 40
0.1472617207401988
 50
97.6639169184225864
 51
149.4709414280534929
  0
CIRCLE
  5
97AF
  8
0
 10
4289.9010927686904324
 20
225.0069005600275887
 30
0.0
 40
0.1082677165000003
  0
ARC
  5
97B0
  8
0
 10
4289.9010927686904324
 20
225.0069005600275887
 30
0.0
 40
0.3149606298999998
 50
145.771133676305908
 51
214.2288663236940067
  0
ARC
  5
97B1
  8
0
 10
4289.9010927686904324
 20
225.0069005600275887
 30
0.0
 40
0.3604212809999998
 50
162.286369834782505
 51
197.713630165217495
  0
ARC
  5
97B2
  8
0
 10
4289.6651374400398709
 20
225.0693400760960117
 30
0.0
 40
0.1173029416717085
 50
102.0322662597307044
 51
156.2613249292996045
  0
ARC
  5
97B3
  8
0
 10
4289.6651374400398709
 20
224.9444610439589951
 30
0.0
 40
0.1173029416717085
 50
203.7386750707003955
 51
257.9677337402692956
  0
LINE
  5
97B4
  8
0
 10
4289.1900459551297899
 20
223.4353853604540063
 30
0.0
 11
4289.4033234935868677
 21
223.8047928931746924
 31
0.0
  0
LINE
  5
97B5
  8
0
 10
4289.4033234935868677
 20
223.9649137386803943
 30
0.0
 11
4289.1900459551297899
 21
224.3343212714011941
 31
0.0
  0
ARC
  5
97B6
  8
0
 10
4290.0104608203291718
 20
226.8591785315545906
 30
0.0
 40
0.0787380552581902
 50
52.3351112302515631
 51
88.0002362307449459
  0
LINE
  5
97B7
  8
0
 10
4290.0132084143888278
 20
226.9378686330460084
 30
0.0
 11
4289.8124028207830634
 21
226.9448800899612024
 31
0.0
  0
ARC
  5
97B8
  8
0
 10
4289.8151075625628437
 20
227.0223429176249965
 30
0.0
 40
0.0775100335296853
 50
184.0397774666641055
 51
268.0002362307449744
  0
LINE
  5
97B9
  8
0
 10
4289.737790111889808
 20
227.0168824122276021
 30
0.0
 11
4289.7251813044504161
 21
227.1655875900162869
 31
0.0
  0
ARC
  5
97BA
  8
0
 10
4289.803638680660697
 20
227.1722548885175001
 30
0.0
 40
0.0787401597100628
 50
90.0000007063017762
 51
184.8573184573234016
  0
LINE
  5
97BB
  8
0
 10
4289.8036386796902661
 20
227.2509950482275087
 30
0.0
 11
4289.8420376505901004
 21
227.2509950482275087
 31
0.0
  0
LINE
  5
97BC
  8
0
 10
4289.8420686010358622
 20
227.6446958331943904
 30
0.0
 11
4287.8341317384438298
 21
227.6446958331943904
 31
0.0
  0
LINE
  5
97BD
  8
0
 10
4289.4705222304273775
 20
227.7037509537275923
 30
0.0
 11
4288.2056781090523145
 21
227.7037509537275923
 31
0.0
  0
LINE
  5
97BE
  8
0
 10
4289.3892817450896473
 20
228.45178244982759
 30
0.0
 11
4288.2869185943900447
 21
228.45178244982759
 31
0.0
  0
LINE
  5
97BF
  8
0
 10
4289.4286518237886412
 20
228.4124123710276137
 30
0.0
 11
4288.2475485156901414
 21
228.4124123710276137
 31
0.0
  0
LINE
  5
97C0
  8
0
 10
4289.4286518237886412
 20
227.7037509537275923
 30
0.0
 11
4289.4286518237886412
 21
228.4124123710276137
 31
0.0
  0
ARC
  5
97C1
  8
0
 10
4289.8420376505901004
 20
227.4478454419275124
 30
0.0
 40
0.1968503936999992
 50
270.0
 51
89.9909914839364546
  0
CIRCLE
  5
97C2
  8
0
 10
4289.8420376505901004
 20
227.4478454419275124
 30
0.0
 40
0.0826771653999998
  0
CIRCLE
  5
97C3
  8
0
 10
4289.8420376505901004
 20
227.4478454419275124
 30
0.0
 40
0.1082677165000003
  0
CIRCLE
  5
97C4
  8
0
 10
4289.8420376505901004
 20
227.4478454419275124
 30
0.0
 40
0.1423632048999996
  0
ARC
  5
97C5
  8
0
 10
4289.8420376505901004
 20
227.4478454419275124
 30
0.0
 40
0.2657480314999998
 50
132.2054471857886142
 51
245.6314255774258868
  0
ARC
  5
97C6
  8
0
 10
4289.8420376505901004
 20
227.4478454419275124
 30
0.0
 40
0.3112086826
 50
157.1295899818555029
 51
234.8649916680271872
  0
ARC
  5
97C7
  8
0
 10
4289.6759219734531143
 20
227.5119036997643036
 30
0.0
 40
0.1333708930406877
 50
95.3396572951022847
 51
154.749729310184307
  0
ARC
  5
97C8
  8
0
 10
4289.6869753135533756
 20
227.2592530932523971
 30
0.0
 40
0.0701606081937581
 50
249.9622023993667881
 51
310.3366719525827762
  0
LINE
  5
97C9
  8
0
 10
4289.4286518237886412
 20
228.4124123710276137
 30
0.0
 11
4289.3892817450896473
 21
228.45178244982759
 31
0.0
  0
ARC
  5
97CA
  8
0
 10
4289.5653072410996174
 20
227.7416336328992088
 30
0.0
 40
0.1020749510379892
 50
201.7850839712874915
 51
251.7451753243423127
  0
LINE
  5
97CB
  8
0
 10
4288.6609343423897371
 20
226.6112312687276074
 30
0.0
 11
4288.6609343423897371
 21
226.2765855993382047
 31
0.0
  0
LINE
  5
97CC
  8
0
 10
4288.6412493030902624
 20
226.134853315927586
 30
0.0
 11
4288.6412493030902624
 21
226.6936052556766015
 31
0.0
  0
LINE
  5
97CD
  8
0
 10
4287.6176272557895572
 20
226.921507684173605
 30
0.0
 11
4287.6176272557895572
 21
225.5726083965815008
 31
0.0
  0
LINE
  5
97CE
  8
0
 10
4287.1058162321887721
 20
226.800462134745203
 30
0.0
 11
4287.1058162321887721
 21
225.6961388040870133
 31
0.0
  0
LINE
  5
97CF
  8
0
 10
4287.145186310889585
 20
226.8376092214276127
 30
0.0
 11
4287.6176272557895572
 21
226.8376092214276127
 31
0.0
  0
LINE
  5
97D0
  8
0
 10
4287.145186310889585
 20
225.6565068592275907
 30
0.0
 11
4287.6176272557895572
 21
225.6565068592275907
 31
0.0
  0
LINE
  5
97D1
  8
0
 10
4287.145186310889585
 20
226.8376092214276127
 30
0.0
 11
4287.145186310889585
 21
225.6565068592275907
 31
0.0
  0
LINE
  5
97D2
  8
0
 10
4287.145186310889585
 20
226.8376092214276127
 30
0.0
 11
4287.1058162321887721
 21
226.800462134745203
 31
0.0
  0
LINE
  5
97D3
  8
0
 10
4287.145186310889585
 20
225.6565068592275907
 30
0.0
 11
4287.1058162321887721
 21
225.6961388040870133
 31
0.0
  0
ARC
  5
97D4
  8
0
 10
4317.8074624396676882
 20
209.7184390625565982
 30
0.0
 40
34.0425656281845193
 50
149.5445170714662027
 51
150.455482947200494
  0
ARC
  5
97D5
  8
0
 10
4288.8380996996120302
 20
226.4439084296307101
 30
0.0
 40
0.649606304418649
 50
114.6199774002480041
 51
125.3800226496753965
  0
ARC
  5
97D6
  8
0
 10
4317.8074624396676882
 20
243.1693778054984136
 30
0.0
 40
34.0425656281845193
 50
209.544517052799506
 51
210.4554829285337973
  0
ARC
  5
97D7
  8
0
 10
4288.8380996996120302
 20
226.443908438424387
 30
0.0
 40
0.649606304418649
 50
234.6199773503244899
 51
245.3800225997520101
  0
ARC
  5
97D8
  8
0
 10
4288.8380996740906994
 20
226.4439084340274917
 30
0.0
 40
0.6496062766015145
 50
174.6199771409835932
 51
185.3800228590114898
  0
ARC
  5
97D9
  8
0
 10
4288.6510918226886133
 20
226.134853315927586
 30
0.0
 40
0.0098425196999994
 50
179.9999999999901945
 51
270.0
  0
ARC
  5
97DA
  8
0
 10
4288.6510918226886133
 20
226.6624123710275001
 30
0.0
 40
0.0098425197000007
 50
90.0
 51
179.9999999999951115
  0
ARC
  5
97DB
  8
0
 10
4288.6702661143599471
 20
226.6902939892823099
 30
0.0
 40
0.0292051334770017
 50
90.1758367372942189
 51
173.4898282416241102
  0
ARC
  5
97DC
  8
0
 10
4288.670776862000821
 20
226.6112312687168924
 30
0.0
 40
0.0098425196106562
 50
89.9999994798880181
 51
179.9999999379612063
  0
LINE
  5
97DD
  8
0
 10
4288.6806193817901658
 20
226.6013887490275067
 30
0.0
 11
4288.6806193817901658
 21
226.2864281191276064
 31
0.0
  0
LINE
  5
97DE
  8
0
 10
4288.6806193817901658
 20
226.6013887490275067
 30
0.0
 11
4288.6638171496751966
 21
226.6181909811128889
 31
0.0
  0
ARC
  5
97DF
  8
0
 10
4288.670776862000821
 20
226.2765855993382047
 30
0.0
 40
0.0098425196106562
 50
180.0000000620387937
 51
270.0000005201119961
  0
LINE
  5
97E0
  8
0
 10
4288.6806193817901658
 20
226.2864281190275051
 30
0.0
 11
4288.6638171496751966
 21
226.2696258869422081
 31
0.0
  0
LINE
  5
97E1
  8
0
 10
4288.2475485156901414
 20
222.1919399301274893
 30
0.0
 11
4288.2475485156901414
 21
223.0580816624274973
 31
0.0
  0
LINE
  5
97E2
  8
0
 10
4288.208181477690232
 20
223.0580816624274973
 30
0.0
 11
4288.2081784368901936
 21
223.1565068592275907
 31
0.0
  0
LINE
  5
97E3
  8
0
 10
4288.2475485156901414
 20
222.1919399301274893
 30
0.0
 11
4288.2869185943900447
 21
222.1525698513275131
 31
0.0
  0
LINE
  5
97E4
  8
0
 10
4287.8341626888895917
 20
223.5502076466275128
 30
0.0
 11
4288.1294382793903424
 21
223.5502076466275128
 31
0.0
  0
LINE
  5
97E5
  8
0
 10
4288.2081784368901936
 20
223.2352470167274987
 30
0.0
 11
4288.2081784368901936
 21
224.2785541030187062
 31
0.0
  0
ARC
  5
97E6
  8
0
 10
4288.444400385094923
 20
224.2785534919293013
 30
0.0
 40
0.23622194820536
 50
90.1550018208638875
 51
179.9998517777376037
  0
LINE
  5
97E7
  8
0
 10
4288.7199894604900692
 20
225.852765252640495
 30
0.0
 11
4288.7199894604900692
 21
225.929740849229205
 31
0.0
  0
LINE
  5
97E8
  8
0
 10
4288.3656587518898959
 20
224.8297352057275873
 30
0.0
 11
4287.7751075707901691
 21
224.8297352057275873
 31
0.0
  0
LINE
  5
97E9
  8
0
 10
4288.3656587518898959
 20
225.18406591432759
 30
0.0
 11
4287.7751075707901691
 21
225.18406591432759
 31
0.0
  0
LINE
  5
97EA
  8
0
 10
4288.4443989093897471
 20
225.4540818239663906
 30
0.0
 11
4288.4443989093897471
 21
225.2513228830376022
 31
0.0
  0
LINE
  5
97EB
  8
0
 10
4288.4443989093897471
 20
224.7624871996364107
 30
0.0
 11
4288.4443989093897471
 21
224.5835131194187113
 31
0.0
  0
LINE
  5
97EC
  8
0
 10
4287.6629919302886265
 20
225.5562474474276087
 30
0.0
 11
4288.368406743754349
 21
225.5316138193512074
 31
0.0
  0
ARC
  5
97ED
  8
0
 10
4287.8341626888895917
 20
223.3533572529275091
 30
0.0
 40
0.1968503937000003
 50
90.0
 51
270.0
  0
ARC
  5
97EE
  8
0
 10
4288.1293022184318033
 20
223.6292762843389141
 30
0.0
 40
0.0790687547777802
 50
270.098594224062424
 51
356.0007396272536084
  0
ARC
  5
97EF
  8
0
 10
4288.2869208049978624
 20
223.2352479287395965
 30
0.0
 40
0.0787423681141566
 50
180.000663612772712
 51
269.6709423109394947
  0
ARC
  5
97F0
  8
0
 10
4288.363300868434635
 20
224.5844274360790109
 30
0.0
 40
0.0811031948919946
 50
292.1502807775585779
 51
359.3540624934639141
  0
ARC
  5
97F1
  8
0
 10
4288.3649979648025692
 20
224.7492393790543872
 30
0.0
 40
0.0804985388150774
 50
9.472382849818171
 51
89.5296717560589741
  0
ARC
  5
97F2
  8
0
 10
4287.7751075707901691
 20
225.0069005600275887
 30
0.0
 40
0.1771653543
 50
90.0
 51
270.0
  0
ARC
  5
97F3
  8
0
 10
4288.365009773078782
 20
225.2645461518278012
 30
0.0
 40
0.0804828540845934
 50
270.4620133097515122
 51
350.5434738181011767
  0
ARC
  5
97F4
  8
0
 10
4288.3660377872392928
 20
225.4532844550815014
 30
0.0
 40
0.0783651788861872
 50
0.5829969487642521
 51
88.2677013785444444
  0
ARC
  5
97F5
  8
0
 10
4287.6657399225578047
 20
225.6349396392764959
 30
0.0
 40
0.0787401582390224
 50
232.3359216153382931
 51
267.9999997263030878
  0
CIRCLE
  5
97F6
  8
0
 10
4287.8341626888895917
 20
223.3533572529275091
 30
0.0
 40
0.0826771653999998
  0
CIRCLE
  5
97F7
  8
0
 10
4287.8341626888895917
 20
223.3533572529275091
 30
0.0
 40
0.1082677165000003
  0
CIRCLE
  5
97F8
  8
0
 10
4287.8341626888895917
 20
223.3533572529275091
 30
0.0
 40
0.1423632048999996
  0
ARC
  5
97F9
  8
0
 10
4287.8341626888895917
 20
223.3533572529275091
 30
0.0
 40
0.2657480315000002
 50
312.2054464049119247
 51
47.7945535950881393
  0
ARC
  5
97FA
  8
0
 10
4287.8341626888895917
 20
223.3533572529275091
 30
0.0
 40
0.3121656519202187
 50
336.252859962246589
 51
23.7471400377534394
  0
ARC
  5
97FB
  8
0
 10
4287.9930506984383101
 20
223.3024531474887056
 30
0.0
 40
0.1472617207401988
 50
277.6639169184226148
 51
329.4709414280536066
  0
ARC
  5
97FC
  8
0
 10
4287.9930506984383101
 20
223.4042613583663979
 30
0.0
 40
0.1472617207401988
 50
30.5290585719464289
 51
82.3360830815774278
  0
CIRCLE
  5
97FD
  8
0
 10
4287.7751075707901691
 20
225.0069005600275887
 30
0.0
 40
0.1082677165000003
  0
ARC
  5
97FE
  8
0
 10
4287.7751075707901691
 20
225.0069005600275887
 30
0.0
 40
0.3149606298999998
 50
325.7711336763060217
 51
34.2288663236940423
  0
ARC
  5
97FF
  8
0
 10
4287.7751075707901691
 20
225.0069005600275887
 30
0.0
 40
0.3604212809999998
 50
342.2863698347824766
 51
17.7136301652174701
  0
ARC
  5
9800
  8
0
 10
4288.0110628994398212
 20
225.0693400760960117
 30
0.0
 40
0.1173029416717085
 50
23.7386750707004204
 51
77.9677337402692814
  0
ARC
  5
9801
  8
0
 10
4288.0110628994398212
 20
224.9444610439589951
 30
0.0
 40
0.1173029416717085
 50
282.0322662597307044
 51
336.2613249292995761
  0
LINE
  5
9802
  8
0
 10
4288.4861551647964006
 20
223.4353840086803871
 30
0.0
 11
4288.272875592496348
 21
223.8047950641216914
 31
0.0
  0
LINE
  5
9803
  8
0
 10
4288.272875592496348
 20
223.9649115677333953
 30
0.0
 11
4288.4861551647964006
 21
224.3343226231746996
 31
0.0
  0
ARC
  5
9804
  8
0
 10
4287.6657399220775915
 20
226.8591764423291011
 30
0.0
 40
0.0787401572722901
 50
92.000003734724487
 51
127.6640784862292008
  0
LINE
  5
9805
  8
0
 10
4287.6629919250899547
 20
226.9378686330460084
 30
0.0
 11
4287.8637975186966287
 21
226.9448800899612024
 31
0.0
  0
ARC
  5
9806
  8
0
 10
4287.8610927769168484
 20
227.0223429176249965
 30
0.0
 40
0.0775100335296853
 50
271.9997637692550256
 51
355.9602225333358092
  0
LINE
  5
9807
  8
0
 10
4287.938410227589884
 20
227.0168824122276021
 30
0.0
 11
4287.9510190350301855
 21
227.1655875900162869
 31
0.0
  0
ARC
  5
9808
  8
0
 10
4287.8725616588189951
 20
227.1722548885175001
 30
0.0
 40
0.0787401597100628
 50
355.1426815426764847
 51
89.999999293698238
  0
LINE
  5
9809
  8
0
 10
4287.8725616597903354
 20
227.2509950482275087
 30
0.0
 11
4287.8341626888895917
 21
227.2509950482275087
 31
0.0
  0
LINE
  5
980A
  8
0
 10
4288.2475485156901414
 20
227.7037509537275923
 30
0.0
 11
4288.2475485156901414
 21
228.4124123710276137
 31
0.0
  0
ARC
  5
980B
  8
0
 10
4287.8341626888895917
 20
227.4478454419275124
 30
0.0
 40
0.1968503936999992
 50
90.0090085160635311
 51
270.0
  0
CIRCLE
  5
980C
  8
0
 10
4287.8341626888895917
 20
227.4478454419275124
 30
0.0
 40
0.0826771653999998
  0
CIRCLE
  5
980D
  8
0
 10
4287.8341626888895917
 20
227.4478454419275124
 30
0.0
 40
0.1082677165000003
  0
CIRCLE
  5
980E
  8
0
 10
4287.8341626888895917
 20
227.4478454419275124
 30
0.0
 40
0.1423632048999996
  0
ARC
  5
980F
  8
0
 10
4287.8341626888895917
 20
227.4478454419275124
 30
0.0
 40
0.2657480314999998
 50
294.3685744225739995
 51
47.7945528142114497
  0
ARC
  5
9810
  8
0
 10
4287.8341626888895917
 20
227.4478454419275124
 30
0.0
 40
0.3112086826
 50
305.1350083319728128
 51
22.8704100181445185
  0
ARC
  5
9811
  8
0
 10
4288.0002783660256682
 20
227.5119036997643036
 30
0.0
 40
0.1333708930406877
 50
25.2502706898157108
 51
84.6603427048977153
  0
ARC
  5
9812
  8
0
 10
4287.9892250259272259
 20
227.2592530932523971
 30
0.0
 40
0.0701606081937581
 50
229.6633280474171954
 51
290.0377976006332119
  0
LINE
  5
9813
  8
0
 10
4288.2475485156901414
 20
228.4124123710276137
 30
0.0
 11
4288.2869185943900447
 21
228.45178244982759
 31
0.0
  0
ARC
  5
9814
  8
0
 10
4288.1108930983791652
 20
227.7416336328992088
 30
0.0
 40
0.1020749510379892
 50
288.2548246756576873
 51
338.2149160287124232
  0
LINE
  5
9815
  8
0
 10
4289.0513792689753245
 20
224.41438087502749
 30
0.0
 11
4288.6248201246053213
 21
224.41438087502749
 31
0.0
  0
LINE
  5
9816
  8
0
 10
4289.0513792692208881
 20
223.3553257569276127
 30
0.0
 11
4288.6248201243579388
 21
223.3553257569276127
 31
0.0
  0
LINE
  5
9817
  8
0
 10
4289.0251085167901692
 20
226.1250107962275138
 30
0.0
 11
4288.6510918226886133
 21
226.1250107962275138
 31
0.0
  0
LINE
  5
9818
  8
0
 10
4289.0054234774788711
 20
226.266743079727604
 30
0.0
 11
4288.670776862000821
 21
226.266743079727604
 31
0.0
  0
LINE
  5
9819
  8
0
 10
4288.9955809576886168
 20
226.2864281190275051
 30
0.0
 11
4288.6806193817901658
 21
226.2864281190275051
 31
0.0
  0
LINE
  5
981A
  8
0
 10
4288.9955809576886168
 20
226.6013887490275067
 30
0.0
 11
4288.6806193817901658
 21
226.6013887490275067
 31
0.0
  0
LINE
  5
981B
  8
0
 10
4289.0054234774788711
 20
226.621073788327493
 30
0.0
 11
4288.670776862000821
 21
226.621073788327493
 31
0.0
  0
LINE
  5
981C
  8
0
 10
4289.0251085167901692
 20
226.672254890727487
 30
0.0
 11
4288.6510918226886133
 21
226.672254890727487
 31
0.0
  0
LINE
  5
981D
  8
0
 10
4289.0060238534897508
 20
226.7194989852276024
 30
0.0
 11
4288.6701764859899413
 21
226.7194989852276024
 31
0.0
  0
LINE
  5
981E
  8
0
 10
4289.0349510363903391
 20
226.5226485915275134
 30
0.0
 11
4289.2238470686233995
 21
226.5226485915275134
 31
0.0
  0
LINE
  5
981F
  8
0
 10
4289.0349510363903391
 20
226.3651682765276121
 30
0.0
 11
4289.2238470686233995
 21
226.3651682765276121
 31
0.0
  0
LINE
  5
9820
  8
0
 10
4288.6412493030902624
 20
226.5226485915275134
 30
0.0
 11
4288.4523532708562925
 21
226.5226485915275134
 31
0.0
  0
LINE
  5
9821
  8
0
 10
4288.6412493030902624
 20
226.3651682765276121
 30
0.0
 11
4288.4523532708562925
 21
226.3651682765276121
 31
0.0
  0
ARC
  5
9822
  8
0
 10
4288.838100169739846
 20
259.9475708186681118
 30
0.0
 40
32.9142237793804568
 50
269.5289013527047928
 51
270.4710986472952072
  0
ARC
  5
9823
  8
0
 10
4288.838100169739846
 20
275.9271610176884906
 30
0.0
 40
50.0745350589927014
 50
269.690346659198724
 51
270.309653340801276
  0
ARC
  5
9825
  8
0
 10
4288.8380996967889587
 20
223.884853315927586
 30
0.0
 40
0.5708656687500051
 50
171.9382606428943916
 51
188.0617393571054947
  0
ARC
  5
9826
  8
0
 10
4288.8380996967889587
 20
223.884853315927586
 30
0.0
 40
0.5708656687500051
 50
231.9382606429034013
 51
248.0617393428408093
  0
ARC
  5
9827
  8
0
 10
4288.8380996967889587
 20
223.884853315927586
 30
0.0
 40
0.5708656687500051
 50
291.9382606571592191
 51
308.0619594222732189
  0
ARC
  5
9828
  8
0
 10
4288.8380996967889587
 20
223.884853315927586
 30
0.0
 40
0.5708656687500051
 50
351.938040577732977
 51
8.0619594222669555
  0
ARC
  5
9829
  8
0
 10
4288.8380996967889587
 20
223.884853315927586
 30
0.0
 40
0.5708656687500051
 50
51.9380405777267313
 51
68.0617393697436484
  0
ARC
  5
982A
  8
0
 10
4288.8380996967889587
 20
223.884853315927586
 30
0.0
 40
0.5708656687500051
 50
111.9382606302562948
 51
128.061739357095604
  0
ARC
  5
982B
  8
0
 10
4288.8380996967889587
 20
223.884853315927586
 30
0.0
 40
0.4625986513499952
 50
337.8049605001548912
 51
22.1950338849773487
  0
ARC
  5
982C
  8
0
 10
4288.8380996967889587
 20
223.884853315927586
 30
0.0
 40
0.4625986513499952
 50
97.8049605001644125
 51
142.1950338849651985
  0
ARC
  5
982D
  8
0
 10
4288.8380996967889587
 20
223.884853315927586
 30
0.0
 40
0.4625986513499952
 50
217.8049605001727969
 51
262.1950338850028857
  0
CIRCLE
  5
982E
  8
0
 10
4288.8380996967889587
 20
223.884853315927586
 30
0.0
 40
0.4822838840499948
  0
ARC
  5
982F
  8
0
 10
4288.8380996967889587
 20
223.884853315927586
 30
0.0
 40
0.4330710449499949
 50
345.8315335456077833
 51
14.1684664539940393
  0
ARC
  5
9830
  8
0
 10
4288.8380996967889587
 20
223.884853315927586
 30
0.0
 40
0.4330710449499949
 50
105.8315335456186972
 51
134.1684664539992013
  0
ARC
  5
9831
  8
0
 10
4288.8380996967889587
 20
223.884853315927586
 30
0.0
 40
0.4330710449499949
 50
225.8315335456221078
 51
254.1684664540009919
  0
ARC
  5
9832
  8
0
 10
4288.8380996967889587
 20
223.884853315927586
 30
0.0
 40
0.4724413485435532
 50
28.872060132499719
 51
91.1279398725534264
  0
ARC
  5
9833
  8
0
 10
4288.8380996967889587
 20
223.884853315927586
 30
0.0
 40
0.4724413485435532
 50
148.8720601234078913
 51
211.1279398725635019
  0
ARC
  5
9834
  8
0
 10
4288.8380996967889587
 20
223.884853315927586
 30
0.0
 40
0.4724413485435532
 50
268.8720601231206047
 51
331.1279398682481769
  0
INSERT
  5
9835
  8
0
  2
*U4
 10
4281.5836979490395606
 20
222.175461399127613
 30
0.0
  0
ENDSEC
  0
EOF
