  0
SECTION
  2
HEADER
  9
$ACADVER
  1
AC1009
  9
$INSBASE
 10
4288.8382714485387623
 20
226.4385511460828013
 30
0.0
  9
$EXTMIN
 10
4287.8737040463884114
 20
223.3972121439327907
 30
0.0
  9
$EXTMAX
 10
4289.8028388506891133
 20
227.4031185482328112
 30
0.0
  9
$LIMMIN
 10
0.0
 20
0.0
  9
$LIMMAX
 10
11.6929133858000007
 20
8.2677165353999982
  9
$ORTHOMODE
 70
     0
  9
$REGENMODE
 70
     1
  9
$FILLMODE
 70
     1
  9
$QTEXTMODE
 70
     0
  9
$MIRRTEXT
 70
     0
  9
$DRAGMODE
 70
     2
  9
$LTSCALE
 40
0.6431102362
  9
$OSMODE
 70
  4095
  9
$ATTMODE
 70
     1
  9
$TEXTSIZE
 40
0.2
  9
$TRACEWID
 40
0.05
  9
$TEXTSTYLE
  7
STANDARD
  9
$CLAYER
  8
0
  9
$CELTYPE
  6
BYLAYER
  9
$CECOLOR
 62
   256
  9
$DIMSCALE
 40
1.0
  9
$DIMASZ
 40
0.1875
  9
$DIMEXO
 40
0.0625
  9
$DIMDLI
 40
0.4443307087
  9
$DIMRND
 40
0.0
  9
$DIMDLE
 40
0.0
  9
$DIMEXE
 40
0.125
  9
$DIMTP
 40
0.01
  9
$DIMTM
 40
0.01
  9
$DIMTXT
 40
2.0
  9
$DIMCEN
 40
0.1052362205
  9
$DIMTSZ
 40
0.0
  9
$DIMTOL
 70
     1
  9
$DIMLIM
 70
     0
  9
$DIMTIH
 70
     1
  9
$DIMTOH
 70
     1
  9
$DIMSE1
 70
     0
  9
$DIMSE2
 70
     0
  9
$DIMTAD
 70
     0
  9
$DIMZIN
 70
     0
  9
$DIMBLK
  1

  9
$DIMASO
 70
     1
  9
$DIMSHO
 70
     1
  9
$DIMPOST
  1
\X
  9
$DIMAPOST
  1

  9
$DIMALT
 70
     1
  9
$DIMALTD
 70
     2
  9
$DIMALTF
 40
25.3999999999999986
  9
$DIMLFAC
 40
1.0
  9
$DIMTOFL
 70
     0
  9
$DIMTVP
 40
0.0
  9
$DIMTIX
 70
     0
  9
$DIMSOXD
 70
     0
  9
$DIMSAH
 70
     0
  9
$DIMBLK1
  1

  9
$DIMBLK2
  1

  9
$DIMSTYLE
  2
STANDARD
  9
$DIMCLRD
 70
     0
  9
$DIMCLRE
 70
     0
  9
$DIMCLRT
 70
     0
  9
$DIMTFAC
 40
1.0
  9
$DIMGAP
 40
0.09
  9
$LUNITS
 70
     2
  9
$LUPREC
 70
     4
  9
$SKETCHINC
 40
0.1
  9
$FILLETRAD
 40
0.0
  9
$AUNITS
 70
     0
  9
$AUPREC
 70
     0
  9
$MENU
  1
.
  9
$ELEVATION
 40
0.0
  9
$PELEVATION
 40
0.0
  9
$THICKNESS
 40
0.0
  9
$LIMCHECK
 70
     0
  9
$BLIPMODE
 70
     0
  9
$CHAMFERA
 40
0.0
  9
$CHAMFERB
 40
0.0
  9
$SKPOLY
 70
     0
  9
$TDCREATE
 40
2458060.468368056230247
  9
$TDUPDATE
 40
2459534.4252777779474854
  9
$TDINDWG
 40
0.5772871528
  9
$TDUSRTIMER
 40
0.5772871528
  9
$USRTIMER
 70
     1
  9
$ANGBASE
 50
0.0
  9
$ANGDIR
 70
     0
  9
$PDMODE
 70
     0
  9
$PDSIZE
 40
0.3125
  9
$PLINEWID
 40
0.0
  9
$COORDS
 70
     1
  9
$SPLFRAME
 70
     0
  9
$SPLINETYPE
 70
     6
  9
$SPLINESEGS
 70
     8
  9
$ATTDIA
 70
     1
  9
$ATTREQ
 70
     1
  9
$HANDLING
 70
     1
  9
$HANDSEED
  5
A37B
  9
$SURFTAB1
 70
     6
  9
$SURFTAB2
 70
     6
  9
$SURFTYPE
 70
     6
  9
$SURFU
 70
     6
  9
$SURFV
 70
     6
  9
$UCSNAME
  2

  9
$UCSORG
 10
0.0
 20
0.0
 30
0.0
  9
$UCSXDIR
 10
1.0
 20
0.0
 30
0.0
  9
$UCSYDIR
 10
0.0
 20
1.0
 30
0.0
  9
$PUCSNAME
  2

  9
$PUCSORG
 10
0.0
 20
0.0
 30
0.0
  9
$PUCSXDIR
 10
1.0
 20
0.0
 30
0.0
  9
$PUCSYDIR
 10
0.0
 20
1.0
 30
0.0
  9
$USERI1
 70
     0
  9
$USERI2
 70
     0
  9
$USERI3
 70
     0
  9
$USERI4
 70
     0
  9
$USERI5
 70
     0
  9
$USERR1
 40
0.0
  9
$USERR2
 40
0.0
  9
$USERR3
 40
0.0
  9
$USERR4
 40
0.0
  9
$USERR5
 40
0.0
  9
$WORLDVIEW
 70
     1
  9
$SHADEDGE
 70
     3
  9
$SHADEDIF
 70
    70
  9
$TILEMODE
 70
     1
  9
$MAXACTVP
 70
    64
  9
$PLIMCHECK
 70
     0
  9
$PEXTMIN
 10
1.0000000000000000E+20
 20
1.0000000000000000E+20
 30
1.0000000000000000E+20
  9
$PEXTMAX
 10
-1.0000000000000000E+20
 20
-1.0000000000000000E+20
 30
-1.0000000000000000E+20
  9
$PLIMMIN
 10
0.0
 20
0.0
  9
$PLIMMAX
 10
12.0
 20
9.0
  9
$UNITMODE
 70
     0
  9
$VISRETAIN
 70
     1
  9
$PLINEGEN
 70
     0
  9
$PSLTSCALE
 70
     1
  0
ENDSEC
  0
SECTION
  2
TABLES
  0
TABLE
  2
VPORT
 70
     1
  0
VPORT
  2
*ACTIVE
 70
     0
 10
0.0
 20
0.0
 11
1.0
 21
1.0
 12
0.0001366829137628
 22
0.0979879168835962
 13
0.0
 23
0.0
 14
1.0
 24
1.0
 15
0.0
 25
0.0
 16
0.0
 26
0.0
 36
29.845499460437189
 17
4288.838134765625
 27
225.3021774291991903
 37
0.0
 40
4.0353615984492563
 41
2.344785276073619
 42
50.0
 43
0.0
 44
0.0
 50
0.0
 51
0.0
 71
     0
 72
   100
 73
     1
 74
     1
 75
     0
 76
     0
 77
     0
 78
     0
  0
ENDTAB
  0
TABLE
  2
LTYPE
 70
     2
  0
LTYPE
  2
CONTINUOUS
 70
     0
  3
Solid line
 72
    65
 73
     0
 40
0.0
  0
LTYPE
  2
PHANTOM2
 70
     0
  3
___ _ _ ___ _ _ ___ _ _ ___ _ _
 72
    65
 73
     6
 40
1.25
 49
0.625
 49
-0.125
 49
0.125
 49
-0.125
 49
0.125
 49
-0.125
  0
ENDTAB
  0
TABLE
  2
LAYER
 70
     2
  0
LAYER
  2
0
 70
     0
 62
   255
  6
CONTINUOUS
  0
LAYER
  2
DEFPOINTS
 70
     0
 62
     7
  6
CONTINUOUS
  0
ENDTAB
  0
TABLE
  2
STYLE
 70
     1
  0
STYLE
  2
STANDARD
 70
     0
 40
0.0
 41
0.8
 50
0.0
 71
     0
 42
0.2
  3
txt
  4

  0
ENDTAB
  0
TABLE
  2
VIEW
 70
     0
  0
ENDTAB
  0
TABLE
  2
UCS
 70
     0
  0
ENDTAB
  0
TABLE
  2
APPID
 70
     9
  0
APPID
  2
ACAD
 70
     0
  0
APPID
  2
ACAD_MLEADERVER
 70
     0
  0
APPID
  2
ACAD_EXEMPT_FROM_CAD_STANDARDS
 70
     0
  0
APPID
  2
ACAD_NAV_VCDISPLAY
 70
     0
  0
APPID
  2
ACAECLAYERSTANDARD
 70
     0
  0
APPID
  2
ACCMTRANSPARENCY
 70
     0
  0
APPID
  2
ACAD_DSTYLE_DIMJAG
 70
     0
  0
APPID
  2
ACAD_DSTYLE_DIMTALN
 70
     0
  0
APPID
  2
ACDBATTR
 70
     0
  0
ENDTAB
  0
TABLE
  2
DIMSTYLE
 70
     1
  0
DIMSTYLE
  2
STANDARD
 70
     0
  3

  4

  5

  6

  7

 40
1.0
 41
0.1875
 42
0.0625
 43
0.38
 44
0.125
 45
0.0
 46
0.0
 47
0.01
 48
0.01
140
0.15625
141
0.09
142
0.0
143
25.3999999999999986
144
1.0
145
0.0
146
1.0
147
0.09
 71
     1
 72
     0
 73
     1
 74
     1
 75
     0
 76
     0
 77
     0
 78
     4
170
     0
171
     2
172
     0
173
     0
174
     0
175
     0
176
     0
177
     0
178
     0
  0
ENDTAB
  0
ENDSEC
  0
SECTION
  2
BLOCKS
  0
BLOCK
  8
0
  2
$MODEL_SPACE
 70
     0
 10
0.0
 20
0.0
 30
0.0
  3
$MODEL_SPACE
  1

  0
ENDBLK
  5
21
  8
0
  0
BLOCK
 67
     1
  8
0
  2
$PAPER_SPACE
 70
     0
 10
0.0
 20
0.0
 30
0.0
  3
$PAPER_SPACE
  1

  0
ENDBLK
  5
1D
 67
     1
  8
0
  0
BLOCK
  8
0
  2
*U2
 70
     1
 10
0.0
 20
0.0
 30
0.0
  3
*U2
  1

  0
ARC
  5
9FF0
  8
0
 10
-0.1106143485802065
 20
0.1711284514111273
 30
0.0
 40
0.1181102362133251
 50
349.986725511029988
 51
28.851146719340349
  0
ARC
  5
9FF1
  8
0
 10
0.8585901998097629
 20
0.0000000000110598
 30
0.0
 40
0.8660860874428802
 50
169.986725511029988
 51
190.0132681068924967
  0
ARC
  5
9FF2
  8
0
 10
-0.1106146736373548
 20
-0.1711283974593143
 30
0.0
 40
0.1181105469419472
 50
331.1489064422918887
 51
10.0132681068925695
  0
ENDBLK
  5
9FF3
  8
0
  0
ENDSEC
  0
SECTION
  2
ENTITIES
  0
ATTDEF
  5
3930
  8
DEFPOINTS
 10
4288.8385563594347332
 20
226.4423987588764078
 30
0.0
 40
0.001
  1
K-882T
  3

  2
MODELNUMBER
 70
     0
1001
ACDBATTR
1070
     0
1070
     1
  0
ATTDEF
  5
3931
  8
DEFPOINTS
 10
4288.8385563594347332
 20
226.4407320922097995
 30
0.0
 40
0.001
  1

  3

  2
TRADENAME
 70
     0
1001
ACDBATTR
1070
     0
1070
     1
  0
ATTDEF
  5
3932
  8
DEFPOINTS
 10
4288.8385563594347332
 20
226.4390654255431059
 30
0.0
 40
0.001
  1
VALVE
  3

  2
PRODUCT
 70
     0
1001
ACDBATTR
1070
     0
1070
     1
  0
CIRCLE
  5
9FDF
  8
0
 10
4288.8382714485387623
 20
226.4385511460828013
 30
0.0
 40
0.9645674021499996
  0
CIRCLE
  5
9FE0
  8
0
 10
4288.8382714485387623
 20
226.4385511460828013
 30
0.0
 40
0.9055123407500001
  0
ARC
  5
9FE1
  8
0
 10
4288.838270975587875
 20
223.8794960279828103
 30
0.0
 40
0.4625986513499952
 50
337.8049605001459099
 51
22.1950338849743396
  0
ARC
  5
9FE2
  8
0
 10
4288.838270975587875
 20
223.8794960279828103
 30
0.0
 40
0.4625986513499952
 50
97.8049605001646256
 51
142.1950338849511013
  0
ARC
  5
9FE3
  8
0
 10
4288.838270975587875
 20
223.8794960279828103
 30
0.0
 40
0.4625986513499952
 50
217.8049605001845066
 51
262.1950338850032836
  0
CIRCLE
  5
9FE4
  8
0
 10
4288.838270975587875
 20
223.8794960279828103
 30
0.0
 40
0.4822838840499948
  0
ARC
  5
9FE5
  8
0
 10
4288.838270975587875
 20
223.8794960279828103
 30
0.0
 40
0.4330710449499949
 50
345.8315335456047137
 51
14.1684664539940393
  0
ARC
  5
9FE6
  8
0
 10
4288.838270975587875
 20
223.8794960279828103
 30
0.0
 40
0.4330710449499949
 50
105.8315335456191946
 51
134.168466454002612
  0
ARC
  5
9FE7
  8
0
 10
4288.838270975587875
 20
223.8794960279828103
 30
0.0
 40
0.4330710449499949
 50
225.8315335456300943
 51
254.1684664540015035
  0
ARC
  5
9FE8
  8
0
 10
4288.838270975587875
 20
223.8794960279828103
 30
0.0
 40
0.4724413485435532
 50
28.8720601324968698
 51
91.1279398725534264
  0
ARC
  5
9FE9
  8
0
 10
4288.838270975587875
 20
223.8794960279828103
 30
0.0
 40
0.4724413485435532
 50
148.8720601234217895
 51
211.12793987254679
  0
ARC
  5
9FEA
  8
0
 10
4288.838270975587875
 20
223.8794960279828103
 30
0.0
 40
0.4724413485435532
 50
268.8720601231206047
 51
331.127939868253975
  0
ARC
  5
A09A
  8
0
 10
4289.1485379537252811
 20
224.0506244793785129
 30
0.0
 40
0.1181102362133251
 50
349.9867255110268047
 51
28.851146719340921
  0
ARC
  5
A09B
  8
0
 10
4290.1177425021151066
 20
223.879496027978405
 30
0.0
 40
0.8660860874428802
 50
169.986725511026691
 51
190.0132681068967031
  0
ARC
  5
A09C
  8
0
 10
4289.1485376286682367
 20
223.7083676305080076
 30
0.0
 40
0.1181105469419472
 50
331.1489064422804063
 51
10.0132681068968008
  0
ARC
  5
A09D
  8
0
 10
4288.5349359003012069
 20
224.0626308873073071
 30
0.0
 40
0.1181102362133251
 50
109.9867255110063979
 51
148.8511467193322062
  0
ARC
  5
A09E
  8
0
 10
4288.1985352123292614
 20
224.9875508733763922
 30
0.0
 40
0.8660860874428802
 50
289.9867255110063979
 51
310.0132681069105729
  0
ARC
  5
A09F
  8
0
 10
4288.8313391885712917
 20
224.2337590302346939
 30
0.0
 40
0.1181105469419472
 50
91.1489064423150666
 51
130.0132681069106013
  0
ARC
  5
A0A0
  8
0
 10
4288.8313390727380465
 20
223.5252327172626963
 30
0.0
 40
0.1181102362133251
 50
229.9867255110233941
 51
268.8511467193249018
  0
ARC
  5
A0A1
  8
0
 10
4288.198535212321076
 20
222.7714411825936054
 30
0.0
 40
0.8660860874428802
 50
49.986725511023451
 51
70.0132681068859739
  0
ARC
  5
A0A2
  8
0
 10
4288.5349361095259155
 20
223.6963614232057012
 30
0.0
 40
0.1181105469419472
 50
211.1489064422885917
 51
250.0132681068859881
  0
ENDSEC
  0
EOF
