  0
SECTION
  2
HEADER
  9
$ACADVER
  1
AC1009
  9
$INSBASE
 10
22.3161757501910607
 20
26.4553423751710284
 30
0.0
  9
$EXTMIN
 10
17.8848460000418612
 20
25.9756982890215404
 30
-0.0000000349181948
  9
$EXTMAX
 10
26.7466121826588399
 20
26.4609901534054508
 30
0.0000000814935746
  9
$LIMMIN
 10
0.0
 20
0.0
  9
$LIMMAX
 10
11.6929133858000007
 20
8.2677165353999982
  9
$ORTHOMODE
 70
     0
  9
$REGENMODE
 70
     1
  9
$FILLMODE
 70
     1
  9
$QTEXTMODE
 70
     0
  9
$MIRRTEXT
 70
     0
  9
$DRAGMODE
 70
     2
  9
$LTSCALE
 40
0.6431102362
  9
$OSMODE
 70
  4095
  9
$ATTMODE
 70
     1
  9
$TEXTSIZE
 40
0.2
  9
$TRACEWID
 40
0.05
  9
$TEXTSTYLE
  7
STANDARD
  9
$CLAYER
  8
0
  9
$CELTYPE
  6
BYLAYER
  9
$CECOLOR
 62
   256
  9
$DIMSCALE
 40
1.0
  9
$DIMASZ
 40
0.1875
  9
$DIMEXO
 40
0.0625
  9
$DIMDLI
 40
0.4443307087
  9
$DIMRND
 40
0.0
  9
$DIMDLE
 40
0.0
  9
$DIMEXE
 40
0.125
  9
$DIMTP
 40
0.01
  9
$DIMTM
 40
0.01
  9
$DIMTXT
 40
0.15625
  9
$DIMCEN
 40
0.1052362205
  9
$DIMTSZ
 40
0.0
  9
$DIMTOL
 70
     1
  9
$DIMLIM
 70
     0
  9
$DIMTIH
 70
     1
  9
$DIMTOH
 70
     1
  9
$DIMSE1
 70
     0
  9
$DIMSE2
 70
     0
  9
$DIMTAD
 70
     0
  9
$DIMZIN
 70
     0
  9
$DIMBLK
  1

  9
$DIMASO
 70
     1
  9
$DIMSHO
 70
     1
  9
$DIMPOST
  1

  9
$DIMAPOST
  1

  9
$DIMALT
 70
     0
  9
$DIMALTD
 70
     2
  9
$DIMALTF
 40
25.3999999999999986
  9
$DIMLFAC
 40
1.0
  9
$DIMTOFL
 70
     0
  9
$DIMTVP
 40
0.0
  9
$DIMTIX
 70
     0
  9
$DIMSOXD
 70
     0
  9
$DIMSAH
 70
     0
  9
$DIMBLK1
  1

  9
$DIMBLK2
  1

  9
$DIMSTYLE
  2
STANDARD
  9
$DIMCLRD
 70
     0
  9
$DIMCLRE
 70
     0
  9
$DIMCLRT
 70
     0
  9
$DIMTFAC
 40
1.0
  9
$DIMGAP
 40
0.09
  9
$LUNITS
 70
     2
  9
$LUPREC
 70
     4
  9
$SKETCHINC
 40
0.1
  9
$FILLETRAD
 40
0.0
  9
$AUNITS
 70
     0
  9
$AUPREC
 70
     0
  9
$MENU
  1
.
  9
$ELEVATION
 40
0.0
  9
$PELEVATION
 40
0.0
  9
$THICKNESS
 40
0.0
  9
$LIMCHECK
 70
     0
  9
$BLIPMODE
 70
     0
  9
$CHAMFERA
 40
0.0
  9
$CHAMFERB
 40
0.0
  9
$SKPOLY
 70
     0
  9
$TDCREATE
 40
2457730.4652893519960344
  9
$TDUPDATE
 40
2460081.5806018519215286
  9
$TDINDWG
 40
0.0374622569
  9
$TDUSRTIMER
 40
0.0374622569
  9
$USRTIMER
 70
     1
  9
$ANGBASE
 50
0.0
  9
$ANGDIR
 70
     0
  9
$PDMODE
 70
     0
  9
$PDSIZE
 40
0.3125
  9
$PLINEWID
 40
0.0
  9
$COORDS
 70
     1
  9
$SPLFRAME
 70
     0
  9
$SPLINETYPE
 70
     6
  9
$SPLINESEGS
 70
     8
  9
$ATTDIA
 70
     1
  9
$ATTREQ
 70
     1
  9
$HANDLING
 70
     1
  9
$HANDSEED
  5
D31
  9
$SURFTAB1
 70
     6
  9
$SURFTAB2
 70
     6
  9
$SURFTYPE
 70
     6
  9
$SURFU
 70
     6
  9
$SURFV
 70
     6
  9
$UCSNAME
  2

  9
$UCSORG
 10
0.0
 20
0.0
 30
0.0
  9
$UCSXDIR
 10
1.0
 20
0.0
 30
0.0
  9
$UCSYDIR
 10
0.0
 20
1.0
 30
0.0
  9
$PUCSNAME
  2

  9
$PUCSORG
 10
0.0
 20
0.0
 30
0.0
  9
$PUCSXDIR
 10
1.0
 20
0.0
 30
0.0
  9
$PUCSYDIR
 10
0.0
 20
1.0
 30
0.0
  9
$USERI1
 70
     0
  9
$USERI2
 70
     0
  9
$USERI3
 70
     0
  9
$USERI4
 70
     0
  9
$USERI5
 70
     0
  9
$USERR1
 40
0.0
  9
$USERR2
 40
0.0
  9
$USERR3
 40
0.0
  9
$USERR4
 40
0.0
  9
$USERR5
 40
0.0
  9
$WORLDVIEW
 70
     1
  9
$SHADEDGE
 70
     3
  9
$SHADEDIF
 70
    70
  9
$TILEMODE
 70
     1
  9
$MAXACTVP
 70
    64
  9
$PLIMCHECK
 70
     0
  9
$PEXTMIN
 10
1.0000000000000000E+20
 20
1.0000000000000000E+20
 30
1.0000000000000000E+20
  9
$PEXTMAX
 10
-1.0000000000000000E+20
 20
-1.0000000000000000E+20
 30
-1.0000000000000000E+20
  9
$PLIMMIN
 10
0.0
 20
0.0
  9
$PLIMMAX
 10
12.0
 20
9.0
  9
$UNITMODE
 70
     0
  9
$VISRETAIN
 70
     1
  9
$PLINEGEN
 70
     0
  9
$PSLTSCALE
 70
     1
  0
ENDSEC
  0
SECTION
  2
TABLES
  0
TABLE
  2
VPORT
 70
     1
  0
VPORT
  2
*ACTIVE
 70
     0
 10
0.0
 20
0.0
 11
1.0
 21
1.0
 12
16.7470718123357614
 22
12.9592852688819509
 13
0.0
 23
0.0
 14
1.0
 24
1.0
 15
0.0
 25
0.0
 16
-0.0000000000000089
 26
0.0
 36
41.6303932232855729
 17
5.5686572790145874
 27
13.2590589523315394
 37
0.0
 40
3.5204421044544509
 41
2.5251322751322749
 42
50.0
 43
0.0
 44
0.0
 50
0.0
 51
0.0
 71
     0
 72
   100
 73
     1
 74
     1
 75
     0
 76
     0
 77
     0
 78
     0
  0
ENDTAB
  0
TABLE
  2
LTYPE
 70
     2
  0
LTYPE
  2
CONTINUOUS
 70
     0
  3
Solid line
 72
    65
 73
     0
 40
0.0
  0
LTYPE
  2
PHANTOM2
 70
     0
  3
___ _ _ ___ _ _ ___ _ _ ___ _ _
 72
    65
 73
     6
 40
1.25
 49
0.625
 49
-0.125
 49
0.125
 49
-0.125
 49
0.125
 49
-0.125
  0
ENDTAB
  0
TABLE
  2
LAYER
 70
     2
  0
LAYER
  2
0
 70
     0
 62
     7
  6
CONTINUOUS
  0
LAYER
  2
DEFPOINTS
 70
     0
 62
     7
  6
CONTINUOUS
  0
ENDTAB
  0
TABLE
  2
STYLE
 70
     1
  0
STYLE
  2
STANDARD
 70
     0
 40
0.0
 41
0.8
 50
0.0
 71
     0
 42
0.2
  3
txt
  4

  0
ENDTAB
  0
TABLE
  2
VIEW
 70
     0
  0
ENDTAB
  0
TABLE
  2
UCS
 70
     0
  0
ENDTAB
  0
TABLE
  2
APPID
 70
     5
  0
APPID
  2
ACAD
 70
     0
  0
APPID
  2
ACAD_NAV_VCDISPLAY
 70
     0
  0
APPID
  2
ACAD_MLEADERVER
 70
     0
  0
APPID
  2
ACAD_EXEMPT_FROM_CAD_STANDARDS
 70
     0
  0
APPID
  2
ACDBATTR
 70
     0
  0
ENDTAB
  0
TABLE
  2
DIMSTYLE
 70
     1
  0
DIMSTYLE
  2
STANDARD
 70
     0
  3

  4

  5

  6

  7

 40
1.0
 41
0.1875
 42
0.0625
 43
0.38
 44
0.125
 45
0.0
 46
0.0
 47
0.01
 48
0.01
140
0.15625
141
0.09
142
0.0
143
25.3999999999999986
144
1.0
145
0.0
146
1.0
147
0.09
 71
     1
 72
     0
 73
     1
 74
     1
 75
     0
 76
     0
 77
     0
 78
     4
170
     0
171
     2
172
     0
173
     0
174
     0
175
     0
176
     0
177
     0
178
     0
  0
ENDTAB
  0
ENDSEC
  0
SECTION
  2
BLOCKS
  0
BLOCK
  8
0
  2
$MODEL_SPACE
 70
     0
 10
0.0
 20
0.0
 30
0.0
  3
$MODEL_SPACE
  1

  0
ENDBLK
  5
21
  8
0
  0
BLOCK
 67
     1
  8
0
  2
$PAPER_SPACE
 70
     0
 10
0.0
 20
0.0
 30
0.0
  3
$PAPER_SPACE
  1

  0
ENDBLK
  5
1D
 67
     1
  8
0
  0
BLOCK
  8
0
  2
_FILLED
 70
     0
 10
0.0
 20
0.0
 30
0.0
  3
_FILLED
  1

  0
SOLID
  5
7FB
  8
0
  6
BYBLOCK
 62
     0
 10
0.0
 20
0.0
 30
0.0
 11
-1.0
 21
0.1666666667
 31
0.0
 12
-1.0
 22
-0.1666666667
 32
0.0
 13
-1.0
 23
-0.1666666667
 33
0.0
  0
ENDBLK
  5
7FC
  8
0
  6
BYBLOCK
 62
     0
  0
ENDSEC
  0
SECTION
  2
ENTITIES
  0
LINE
  5
C27
  8
0
 10
17.8869197465669387
 20
26.4553423751710284
 30
0.0
 11
26.7454321690151708
 21
26.4553423751710284
 31
0.0
  0
LINE
  5
C28
  8
0
 10
26.7454321690151708
 20
26.4553423751710284
 30
0.0
 11
26.7391974380655704
 21
26.2768030394710408
 31
0.0
  0
ARC
  5
C29
  8
0
 10
26.6998513273993083
 20
26.2781770359348315
 30
0.0
 40
0.0393700938637998
 50
270.0000211984657881
 51
357.9999999958930061
  0
LINE
  5
C2A
  8
0
 10
26.6998513419655801
 20
26.2388069420710401
 30
0.0
 11
17.932505301466179
 21
26.2388036983018189
 31
0.0
  0
ARC
  5
C2B
  8
0
 10
19.048183001589301
 20
-16.6920550914145416
 30
0.0
 40
42.9249565216531721
 50
85.7812454419894834
 51
87.0447244272254892
  0
ARC
  5
C2C
  8
0
 10
21.5036026321549087
 20
16.5952205968763096
 30
0.0
 40
9.5472422753113975
 50
82.9318872079153522
 51
85.7812454419894834
  0
ARC
  5
C2D
  8
0
 10
22.2435157418387206
 20
22.5626731533368883
 30
0.0
 40
3.5340932314667519
 50
78.9236045561632977
 51
82.9318872079153522
  0
ARC
  5
C2E
  8
0
 10
22.7333858927075489
 20
25.0650185830638286
 30
0.0
 40
0.9842490373271223
 50
68.3408352634623242
 51
78.9236045561632977
  0
ARC
  5
C2F
  8
0
 10
23.1111875528822601
 20
26.0163653195993483
 30
0.0
 40
0.0393694011290952
 50
248.3408352634612015
 51
270.0003601718411232
  0
LINE
  5
C30
  8
0
 10
23.1111878003655811
 20
25.9769959184710295
 30
0.0
 11
23.1550727359647084
 21
25.97699619433984
 31
0.0
  0
ARC
  5
C31
  8
0
 10
23.1550726122200992
 20
25.9966813645952506
 30
0.0
 40
0.0196851702558031
 50
270.0003601718369168
 51
358.9988226723182834
  0
LINE
  5
C32
  8
0
 10
23.1747547772655409
 20
25.9963374065691504
 30
0.0
 11
23.1778912561721917
 21
26.1758148160710284
 31
0.0
  0
LINE
  5
C33
  8
0
 10
23.2418706512018893
 20
26.1758148160710284
 30
0.0
 11
23.2439726300924185
 21
26.0553925246626896
 31
0.0
  0
ARC
  5
C34
  8
0
 10
23.2636546713615218
 20
26.0557360759669088
 30
0.0
 40
0.0196850393958756
 50
180.9999999881995905
 51
270.0000000117959758
  0
LINE
  5
C35
  8
0
 10
23.263654671365579
 20
26.0360510365710311
 30
0.0
 11
23.2686617506655793
 21
26.0360510365720614
 31
0.0
  0
ARC
  5
C36
  8
0
 10
23.2686617506574684
 20
26.0754211141577805
 30
0.0
 40
0.0393700775857138
 50
270.0000000117900072
 51
292.9234856064201153
  0
ARC
  5
C37
  8
0
 10
23.4710798821960296
 20
25.5967777178562805
 30
0.0
 40
0.4803150201403942
 50
101.0317195404138033
 51
112.9234856064202006
  0
ARC
  5
C38
  8
0
 10
24.5092040504962014
 20
20.2718324399192298
 30
0.0
 40
5.9055103163332356
 50
95.820891483936748
 51
101.0317195404136044
  0
ARC
  5
C39
  8
0
 10
25.602005433637629
 20
9.5522813716489843
 30
0.0
 40
16.6806200590806206
 50
94.7415749059870791
 51
95.820891483936748
  0
LINE
  5
C3A
  8
0
 10
17.8869197465669387
 20
26.4553423751710284
 30
0.0
 11
17.8931544775165285
 21
26.2768030394710408
 31
0.0
  0
ARC
  5
C3B
  8
0
 10
17.9325062818975915
 20
26.2781795709393506
 30
0.0
 40
0.039375872649729
 50
182.0033972993144005
 51
269.9985733755718229
  0
LINE
  5
C3C
  8
0
 10
26.5667573326486988
 20
26.1758148160710284
 30
0.0
 11
18.0655945829334108
 21
26.1758148160710284
 31
0.0
  0
ARC
  5
C3D
  8
0
 10
26.561332677584609
 20
26.3730824397591199
 30
0.0
 40
0.1973421957871895
 50
271.5751775488189992
 51
317.3449833203301864
  0
ARC
  5
C3E
  8
0
 10
18.0710192379975005
 20
26.3730824397591199
 30
0.0
 40
0.1973421957871895
 50
222.656120304756314
 51
268.4248224511811145
  0
ATTDEF
  5
C5F
  8
DEFPOINTS
 10
22.3163897084857688
 20
26.45886586633927
 30
0.0
 40
0.001
  1
K-8857IN-A
  3

  2
MODELNUMBER
 70
     0
1001
ACDBATTR
1070
     0
1070
     1
  0
ATTDEF
  5
C60
  8
DEFPOINTS
 10
22.3163897084857688
 20
26.4571991996726013
 30
0.0
 40
0.001
  1
BEVEL
  3

  2
TRADENAME
 70
     0
1001
ACDBATTR
1070
     0
1070
     1
  0
ATTDEF
  5
C61
  8
DEFPOINTS
 10
22.3163897084857688
 20
26.4555325330059397
 30
0.0
 40
0.001
  1
FLUSH ACTUATOR PLATE
  3

  2
PRODUCT
 70
     0
1001
ACDBATTR
1070
     0
1070
     1
  0
ENDSEC
  0
EOF
