  0
SECTION
  2
HEADER
  9
$ACADVER
  1
AC1009
  9
$INSBASE
 10
4579.141987909434647
 20
179.5473840375512111
 30
0.0
  9
$EXTMIN
 10
4551.6528698573338261
 20
179.5473840370013079
 30
0.0
  9
$EXTMAX
 10
4579.1485260113786353
 20
209.0752191497012973
 30
0.0
  9
$LIMMIN
 10
0.0
 20
0.0
  9
$LIMMAX
 10
11.6929133858000007
 20
8.2677165353999982
  9
$ORTHOMODE
 70
     1
  9
$REGENMODE
 70
     1
  9
$FILLMODE
 70
     1
  9
$QTEXTMODE
 70
     0
  9
$MIRRTEXT
 70
     0
  9
$DRAGMODE
 70
     2
  9
$LTSCALE
 40
0.6431102362
  9
$OSMODE
 70
  4095
  9
$ATTMODE
 70
     1
  9
$TEXTSIZE
 40
0.2
  9
$TRACEWID
 40
0.05
  9
$TEXTSTYLE
  7
STANDARD
  9
$CLAYER
  8
0
  9
$CELTYPE
  6
BYLAYER
  9
$CECOLOR
 62
   256
  9
$DIMSCALE
 40
1.0
  9
$DIMASZ
 40
0.1875
  9
$DIMEXO
 40
0.0625
  9
$DIMDLI
 40
0.4443307087
  9
$DIMRND
 40
0.0
  9
$DIMDLE
 40
0.0
  9
$DIMEXE
 40
0.125
  9
$DIMTP
 40
0.01
  9
$DIMTM
 40
0.01
  9
$DIMTXT
 40
2.0
  9
$DIMCEN
 40
0.1052362205
  9
$DIMTSZ
 40
0.0
  9
$DIMTOL
 70
     1
  9
$DIMLIM
 70
     0
  9
$DIMTIH
 70
     1
  9
$DIMTOH
 70
     1
  9
$DIMSE1
 70
     0
  9
$DIMSE2
 70
     0
  9
$DIMTAD
 70
     0
  9
$DIMZIN
 70
     0
  9
$DIMBLK
  1

  9
$DIMASO
 70
     1
  9
$DIMSHO
 70
     1
  9
$DIMPOST
  1
\X
  9
$DIMAPOST
  1

  9
$DIMALT
 70
     1
  9
$DIMALTD
 70
     2
  9
$DIMALTF
 40
25.3999999999999986
  9
$DIMLFAC
 40
1.0
  9
$DIMTOFL
 70
     0
  9
$DIMTVP
 40
0.0
  9
$DIMTIX
 70
     0
  9
$DIMSOXD
 70
     0
  9
$DIMSAH
 70
     0
  9
$DIMBLK1
  1

  9
$DIMBLK2
  1

  9
$DIMSTYLE
  2
STANDARD
  9
$DIMCLRD
 70
     0
  9
$DIMCLRE
 70
     0
  9
$DIMCLRT
 70
     0
  9
$DIMTFAC
 40
1.0
  9
$DIMGAP
 40
0.09
  9
$LUNITS
 70
     2
  9
$LUPREC
 70
     4
  9
$SKETCHINC
 40
0.1
  9
$FILLETRAD
 40
0.0
  9
$AUNITS
 70
     0
  9
$AUPREC
 70
     0
  9
$MENU
  1
.
  9
$ELEVATION
 40
0.0
  9
$PELEVATION
 40
0.0
  9
$THICKNESS
 40
0.0
  9
$LIMCHECK
 70
     0
  9
$BLIPMODE
 70
     0
  9
$CHAMFERA
 40
0.0
  9
$CHAMFERB
 40
0.0
  9
$SKPOLY
 70
     0
  9
$TDCREATE
 40
2458060.468368056230247
  9
$TDUPDATE
 40
2459783.4308796301484108
  9
$TDINDWG
 40
0.3113959491
  9
$TDUSRTIMER
 40
0.3113959491
  9
$USRTIMER
 70
     1
  9
$ANGBASE
 50
0.0
  9
$ANGDIR
 70
     0
  9
$PDMODE
 70
     0
  9
$PDSIZE
 40
0.3125
  9
$PLINEWID
 40
0.0
  9
$COORDS
 70
     1
  9
$SPLFRAME
 70
     0
  9
$SPLINETYPE
 70
     6
  9
$SPLINESEGS
 70
     8
  9
$ATTDIA
 70
     1
  9
$ATTREQ
 70
     1
  9
$HANDLING
 70
     1
  9
$HANDSEED
  5
8F78
  9
$SURFTAB1
 70
     6
  9
$SURFTAB2
 70
     6
  9
$SURFTYPE
 70
     6
  9
$SURFU
 70
     6
  9
$SURFV
 70
     6
  9
$UCSNAME
  2

  9
$UCSORG
 10
0.0
 20
0.0
 30
0.0
  9
$UCSXDIR
 10
1.0
 20
0.0
 30
0.0
  9
$UCSYDIR
 10
0.0
 20
1.0
 30
0.0
  9
$PUCSNAME
  2

  9
$PUCSORG
 10
0.0
 20
0.0
 30
0.0
  9
$PUCSXDIR
 10
1.0
 20
0.0
 30
0.0
  9
$PUCSYDIR
 10
0.0
 20
1.0
 30
0.0
  9
$USERI1
 70
     0
  9
$USERI2
 70
     0
  9
$USERI3
 70
     0
  9
$USERI4
 70
     0
  9
$USERI5
 70
     0
  9
$USERR1
 40
0.0
  9
$USERR2
 40
0.0
  9
$USERR3
 40
0.0
  9
$USERR4
 40
0.0
  9
$USERR5
 40
0.0
  9
$WORLDVIEW
 70
     1
  9
$SHADEDGE
 70
     3
  9
$SHADEDIF
 70
    70
  9
$TILEMODE
 70
     1
  9
$MAXACTVP
 70
    64
  9
$PLIMCHECK
 70
     0
  9
$PEXTMIN
 10
1.0000000000000000E+20
 20
1.0000000000000000E+20
 30
1.0000000000000000E+20
  9
$PEXTMAX
 10
-1.0000000000000000E+20
 20
-1.0000000000000000E+20
 30
-1.0000000000000000E+20
  9
$PLIMMIN
 10
0.0
 20
0.0
  9
$PLIMMAX
 10
12.0
 20
9.0
  9
$UNITMODE
 70
     0
  9
$VISRETAIN
 70
     1
  9
$PLINEGEN
 70
     0
  9
$PSLTSCALE
 70
     1
  0
ENDSEC
  0
SECTION
  2
TABLES
  0
TABLE
  2
VPORT
 70
     1
  0
VPORT
  2
*ACTIVE
 70
     0
 10
0.0
 20
0.0
 11
1.0
 21
1.0
 12
0.0
 22
0.0
 13
0.0
 23
0.0
 14
1.0
 24
1.0
 15
0.0
 25
0.0
 16
0.0
 26
0.0
 36
115.5890788406657066
 17
4565.4006790214707507
 27
194.3113021850585938
 37
0.0
 40
40.3473289456700499
 41
2.1481900452488678
 42
50.0
 43
0.0
 44
0.0
 50
0.0
 51
0.0
 71
     0
 72
   100
 73
     1
 74
     1
 75
     0
 76
     0
 77
     0
 78
     0
  0
ENDTAB
  0
TABLE
  2
LTYPE
 70
     2
  0
LTYPE
  2
CONTINUOUS
 70
     0
  3
Solid line
 72
    65
 73
     0
 40
0.0
  0
LTYPE
  2
PHANTOM2
 70
     0
  3
___ _ _ ___ _ _ ___ _ _ ___ _ _
 72
    65
 73
     6
 40
1.25
 49
0.625
 49
-0.125
 49
0.125
 49
-0.125
 49
0.125
 49
-0.125
  0
ENDTAB
  0
TABLE
  2
LAYER
 70
     2
  0
LAYER
  2
0
 70
     0
 62
   255
  6
CONTINUOUS
  0
LAYER
  2
DEFPOINTS
 70
     0
 62
     7
  6
CONTINUOUS
  0
ENDTAB
  0
TABLE
  2
STYLE
 70
     1
  0
STYLE
  2
STANDARD
 70
     0
 40
0.0
 41
0.8
 50
0.0
 71
     0
 42
0.2
  3
txt
  4

  0
ENDTAB
  0
TABLE
  2
VIEW
 70
     0
  0
ENDTAB
  0
TABLE
  2
UCS
 70
     0
  0
ENDTAB
  0
TABLE
  2
APPID
 70
     9
  0
APPID
  2
ACAD
 70
     0
  0
APPID
  2
ACAD_MLEADERVER
 70
     0
  0
APPID
  2
ACAD_EXEMPT_FROM_CAD_STANDARDS
 70
     0
  0
APPID
  2
ACAD_NAV_VCDISPLAY
 70
     0
  0
APPID
  2
ACAECLAYERSTANDARD
 70
     0
  0
APPID
  2
ACCMTRANSPARENCY
 70
     0
  0
APPID
  2
ACAD_DSTYLE_DIMJAG
 70
     0
  0
APPID
  2
ACAD_DSTYLE_DIMTALN
 70
     0
  0
APPID
  2
ACDBATTR
 70
     0
  0
ENDTAB
  0
TABLE
  2
DIMSTYLE
 70
     1
  0
DIMSTYLE
  2
STANDARD
 70
     0
  3

  4

  5

  6

  7

 40
1.0
 41
0.1875
 42
0.0625
 43
0.38
 44
0.125
 45
0.0
 46
0.0
 47
0.01
 48
0.01
140
0.15625
141
0.09
142
0.0
143
25.3999999999999986
144
1.0
145
0.0
146
1.0
147
0.09
 71
     1
 72
     0
 73
     1
 74
     1
 75
     0
 76
     0
 77
     0
 78
     4
170
     0
171
     2
172
     0
173
     0
174
     0
175
     0
176
     0
177
     0
178
     0
  0
ENDTAB
  0
ENDSEC
  0
SECTION
  2
BLOCKS
  0
BLOCK
  8
0
  2
$MODEL_SPACE
 70
     0
 10
0.0
 20
0.0
 30
0.0
  3
$MODEL_SPACE
  1

  0
ENDBLK
  5
21
  8
0
  0
BLOCK
 67
     1
  8
0
  2
$PAPER_SPACE
 70
     0
 10
0.0
 20
0.0
 30
0.0
  3
$PAPER_SPACE
  1

  0
ENDBLK
  5
1D
 67
     1
  8
0
  0
ENDSEC
  0
SECTION
  2
ENTITIES
  0
ATTDEF
  5
3930
  8
DEFPOINTS
 10
4579.1378593447097956
 20
179.5591686942640877
 30
0.0
 40
0.001
  1
K-8947T
  3

  2
MODELNUMBER
 70
     0
1001
ACDBATTR
1070
     0
1070
     1
  0
ATTDEF
  5
3931
  8
DEFPOINTS
 10
4579.1378593447097956
 20
179.5575020275973941
 30
0.0
 40
0.001
  1
ADAIR
  3

  2
TRADENAME
 70
     0
1001
ACDBATTR
1070
     0
1070
     1
  0
ATTDEF
  5
3932
  8
DEFPOINTS
 10
4579.1378593447097956
 20
179.5558353609307005
 30
0.0
 40
0.001
  1
TOILET
  3

  2
PRODUCT
 70
     0
1001
ACDBATTR
1070
     0
1070
     1
  0
LINE
  5
8E85
  8
0
 10
4552.0109208599351405
 20
195.5359849988012115
 30
0.0
 11
4551.8898563969351017
 21
195.1633814179012916
 31
0.0
  0
LINE
  5
8E86
  8
0
 10
4554.8153926428358318
 20
194.9865041713011919
 30
0.0
 11
4554.8153927101357112
 21
194.968667962001291
 31
0.0
  0
LINE
  5
8E87
  8
0
 10
4555.4887889174024167
 20
195.6632739443624871
 30
0.0
 11
4555.492677436134727
 21
195.717175002801298
 31
0.0
  0
LINE
  5
8E88
  8
0
 10
4553.4400385850358361
 20
179.5473840370013079
 30
0.0
 11
4554.6693452004710707
 21
188.6844222340963881
 31
0.0
  0
LINE
  5
8E89
  8
0
 10
4565.3289126979352659
 20
193.7993766411013041
 30
0.0
 11
4578.4087489696357807
 21
193.7993750134012885
 31
0.0
  0
LINE
  5
8E8A
  8
0
 10
4555.9295291719363377
 20
194.9217387282012055
 30
0.0
 11
4566.5832273667347181
 21
194.9217388672012135
 31
0.0
  0
LINE
  5
8E8B
  8
0
 10
4564.0120446996361352
 20
194.9617388341011974
 30
0.0
 11
4564.6158600591361392
 21
194.9617388341011974
 31
0.0
  0
LINE
  5
8E8C
  8
0
 10
4569.5080424466086697
 20
196.2050212718222042
 30
0.0
 11
4569.7859799962361649
 21
196.2286395938012902
 31
0.0
  0
LINE
  5
8E8D
  8
0
 10
4569.6707273717802309
 20
195.1369266169278092
 30
0.0
 11
4569.6707273719357545
 21
194.9647392991012111
 31
0.0
  0
LINE
  5
8E8E
  8
0
 10
4570.0747199622355765
 20
195.7469407251012967
 30
0.0
 11
4570.967333587936082
 21
194.971002195901292
 31
0.0
  0
LINE
  5
8E8F
  8
0
 10
4570.109417921736167
 20
195.7950696811012108
 30
0.0
 11
4569.9235489031398174
 21
196.6642078432728908
 31
0.0
  0
LINE
  5
8E90
  8
0
 10
4569.2935561881358808
 20
196.1581969372012964
 30
0.0
 11
4569.3029021022348388
 21
196.0941330248012946
 31
0.0
  0
LINE
  5
8E91
  8
0
 10
4570.0861289196363941
 20
195.6483155751012077
 30
0.0
 11
4570.0528099877346904
 21
195.9363423033011884
 31
0.0
  0
LINE
  5
8E92
  8
0
 10
4572.4978583680358497
 20
207.9609671812013119
 30
0.0
 11
4573.1465140805357805
 21
195.281303792601193
 31
0.0
  0
LINE
  5
8E93
  8
0
 10
4572.1853130199360749
 20
208.8782191497012946
 30
0.0
 11
4572.1853140124349011
 21
208.0199671812013094
 31
0.0
  0
LINE
  5
8E94
  8
0
 10
4577.4750012142349078
 20
186.3929695603011965
 30
0.0
 11
4577.1118560407358018
 21
191.5952016636011876
 31
0.0
  0
LINE
  5
8E95
  8
0
 10
4577.4750012142349078
 20
186.3929695603011965
 30
0.0
 11
4577.7140543259356491
 21
179.5473840440012054
 31
0.0
  0
LINE
  5
8E96
  8
0
 10
4577.2673716643357693
 20
192.3387023901013038
 30
0.0
 11
4577.2779325315359529
 21
192.0362620426012086
 31
0.0
  0
LINE
  5
8E97
  8
0
 10
4577.2160989641715787
 20
192.5815938066006083
 30
0.0
 11
4577.2159352856360783
 21
192.5408176175012045
 31
0.0
  0
LINE
  5
8E98
  8
0
 10
4577.2160989641715787
 20
192.5815938066006083
 30
0.0
 11
4577.5652924130363317
 21
193.7993758517011997
 31
0.0
  0
LINE
  5
8E99
  8
0
 10
4578.641987909434647
 20
195.3016286277986069
 30
0.0
 11
4578.641987909434647
 21
208.8782191497012946
 31
0.0
  0
LINE
  5
8E9A
  8
0
 10
4578.4087489696357807
 20
193.7993750134012885
 30
0.0
 11
4578.4087316444356475
 21
194.7046647096011895
 31
0.0
  0
LINE
  5
8E9B
  8
0
 10
4572.2443213397364161
 20
207.9609671812013119
 30
0.0
 11
4578.5830149146349868
 21
207.9609671812013119
 31
0.0
  0
LINE
  5
8E9C
  8
0
 10
4578.4450149137346671
 20
209.0752191497012973
 30
0.0
 11
4572.3823174683357138
 21
209.0752191497012973
 31
0.0
  0
ARC
  5
8E9D
  8
0
 10
4567.2274151671535947
 20
21.8130276330568904
 30
0.0
 40
174.9977748616441886
 50
89.1337372784884678
 51
94.8725061082632521
  0
ARC
  5
8E9E
  8
0
 10
4569.5800135982362917
 20
195.3580737213011957
 30
0.0
 40
0.85
 50
94.8571605861019407
 51
117.9604499233173982
  0
ARC
  5
8E9F
  8
0
 10
4567.8686674377349846
 20
198.5820143749292868
 30
0.0
 40
2.7999998656408192
 50
270.3001161595578878
 51
297.9604506240248156
  0
ARC
  5
8EA0
  8
0
 10
4569.3634053359046447
 20
195.8225624252289947
 30
0.0
 40
0.7513609620945815
 50
272.1670867823171989
 51
343.205823701155623
  0
ARC
  5
8EA1
  8
0
 10
4569.6427160641433147
 20
196.1396002809088941
 30
0.0
 40
0.2116358380051037
 50
164.470477163799103
 51
182.2611768833997132
  0
ARC
  5
8EA2
  8
0
 10
4569.7407344998146073
 20
194.9717459280244896
 30
0.0
 40
0.0703568817006161
 50
185.7153870872201082
 51
264.2843300825892925
  0
ARC
  5
8EA3
  8
0
 10
4569.7332273110359893
 20
195.7767388341011099
 30
0.0
 40
0.3800000000002322
 50
46.3142424513169075
 51
89.9999760714615178
  0
ARC
  5
8EA4
  8
0
 10
4569.88740587932989
 20
195.7588435728220873
 30
0.0
 40
0.2249481671287802
 50
349.4220016980279979
 51
9.267384222603912
  0
ARC
  5
8EA5
  8
0
 10
4569.8640558361430521
 20
195.9145049326918127
 30
0.0
 40
0.1900131587518352
 50
6.5993320703302016
 51
46.14893354611349
  0
ARC
  5
8EA6
  8
0
 10
4571.5308290921211665
 20
190.4665612948703881
 30
0.0
 40
20.0386613348516107
 50
167.6628598783385939
 51
172.7336846403196944
  0
ARC
  5
8EA7
  8
0
 10
4577.067393166693364
 20
192.331684587237504
 30
0.0
 40
0.2001015968863355
 50
2.009843825701612
 51
27.7589271618939613
  0
ARC
  5
8EA8
  8
0
 10
4578.4411789022942685
 20
208.8744106665402001
 30
0.0
 40
0.2008451191670711
 50
1.0865242401787989
 51
88.9056212498124552
  0
ARC
  5
8EA9
  8
0
 10
4578.5786505247533569
 20
208.024302574305807
 30
0.0
 40
0.0634855883791652
 50
273.9419748521443125
 51
356.0842577602346068
  0
LINE
  5
8EAA
  8
0
 10
4553.4400385851113242
 20
179.5473840375512111
 30
0.0
 11
4577.7140543261612038
 21
179.5473840375512111
 31
0.0
  0
LINE
  5
8EAB
  8
0
 10
4552.0019350930197106
 20
192.5815938066006083
 30
0.0
 11
4577.2160989641715787
 21
192.5815938066006083
 31
0.0
  0
LINE
  5
8EAC
  8
0
 10
4551.8722048608087789
 20
192.7695989904563021
 30
0.0
 11
4564.201956920772318
 21
192.7695989904563021
 31
0.0
  0
LINE
  5
8EAD
  8
0
 10
4552.1449499750042378
 20
194.9017388348013071
 30
0.0
 11
4578.2420119817252271
 21
194.9017388347016038
 31
0.0
  0
ARC
  5
8EAE
  8
0
 10
4572.3894607593592809
 20
208.8710712489258867
 30
0.0
 40
0.2042728371507783
 50
92.004005497640037
 51
177.994700737542388
  0
ARC
  5
8EAF
  8
0
 10
4572.2464893013202527
 20
208.0221427397829927
 30
0.0
 40
0.061213961031899
 50
182.0367344113174966
 51
267.9703807971287119
  0
ARC
  5
8EB0
  8
0
 10
4573.5786599428365662
 20
195.336120864843906
 30
0.0
 40
0.4356087208880001
 50
187.2292766852606007
 51
265.6991047677357756
  0
ARC
  5
8EB1
  8
0
 10
4578.2420992539327926
 20
195.3016274806826118
 30
0.0
 40
0.3998886555042242
 50
269.9874956962154897
 51
0.0001643580090744
  0
ARC
  5
8EB2
  8
0
 10
4569.6455973106758393
 20
187.9437938116695932
 30
0.0
 40
7.2747244840067822
 50
126.3973160686038
 51
138.4429057269279895
  0
ARC
  5
8EB3
  8
0
 10
4578.2096664643477197
 20
194.7053180103710872
 30
0.0
 40
0.1990662520997489
 50
359.8119648927795993
 51
80.648766704468116
  0
ARC
  5
8EB4
  8
0
 10
4577.466094474440979
 20
192.5409017164641909
 30
0.0
 40
0.2501592029423779
 50
180.0192617967877879
 51
207.6314221124345067
  0
ARC
  5
8EB5
  8
0
 10
4554.2952647926531426
 20
188.7331527226126013
 30
0.0
 40
0.3772410529415042
 50
352.5780211516897111
 51
62.3692569665037126
  0
ARC
  5
8EB6
  8
0
 10
4556.2731835247432173
 20
192.9576542239427965
 30
0.0
 40
4.2877715194469701
 50
185.0316100944473021
 51
245.1344722243667036
  0
ARC
  5
8EB7
  8
0
 10
4551.8057181380127076
 20
192.5849589798538091
 30
0.0
 40
0.1962458096961208
 50
359.0174583832362032
 51
70.196640809486766
  0
ARC
  5
8EB8
  8
0
 10
4551.8742948035469453
 20
192.99101407337659
 30
0.0
 40
0.2214249462125217
 50
177.394418476536714
 51
269.4591997044927894
  0
ARC
  5
8EB9
  8
0
 10
4552.1453852666109015
 20
194.706855628930299
 30
0.0
 40
0.1948836920045404
 50
90.1279757806475459
 51
167.7831487612573085
  0
ARC
  5
8EBA
  8
0
 10
4551.9556595141330035
 20
195.1411829086679006
 30
0.0
 40
0.0694465553139795
 50
161.3583118541804993
 51
269.5157107425138179
  0
LINE
  5
8EBB
  8
0
 10
4551.9550725281360428
 20
195.0717388341012111
 30
0.0
 11
4569.3918171356663152
 21
195.0717388341012111
 31
0.0
  0
ARC
  5
8EBC
  8
0
 10
4569.8808623337235986
 20
195.6430877701511974
 30
0.0
 40
0.205333146950303
 50
349.4431095658226241
 51
1.458914616868483
  0
ARC
  5
8EBD
  8
0
 10
4552.1857758966325491
 20
195.4494710992597106
 30
0.0
 40
0.1950870028281544
 50
88.1088222630533551
 51
153.6749456999552024
  0
ARC
  5
8EBE
  8
0
 10
4552.2397536211428815
 20
316.3042465284165132
 30
0.0
 40
120.6598040536463969
 50
269.9774256332793243
 51
270.9879977289912745
  0
ARC
  5
8EBF
  8
0
 10
4558.9715539962917319
 20
271.8527606774285914
 30
0.0
 40
77.0974695266489505
 50
264.8070135692008193
 51
266.1518288361227746
  0
ARC
  5
8EC0
  8
0
 10
4554.573249820631645
 20
231.0768229592814009
 30
0.0
 40
36.1560342809347404
 50
268.7703185720030774
 51
270.4145020669823225
  0
ARC
  5
8EC1
  8
0
 10
4554.7220887163266525
 20
194.9798021361715996
 30
0.0
 40
0.0935443209231616
 50
4.108508143769658
 51
79.3623680265703797
  0
ARC
  5
8EC2
  8
0
 10
4554.8830023894979604
 20
194.9691621844353051
 30
0.0
 40
0.0676114857060998
 50
180.4188210256646983
 51
265.7247238501979041
  0
ARC
  5
8EC3
  8
0
 10
4555.8821368311828337
 20
194.9678892301726023
 30
0.0
 40
0.0661506069079787
 50
269.8551064743542725
 51
315.7605920391367249
  0
ARC
  5
8EC4
  8
0
 10
4566.5077063716989869
 20
199.0645818372362044
 30
0.0
 40
4.1435312590904196
 50
271.0443444530707779
 51
280.3487763274154076
  0
ARC
  5
8EC5
  8
0
 10
4569.0829738401571376
 20
182.3763834875634871
 30
0.0
 40
12.7442790385995703
 50
95.0220223097166325
 51
98.2600605576021024
  0
ARC
  5
8EC6
  8
0
 10
4564.0149646069066875
 20
195.0326315124852954
 30
0.0
 40
0.0709527849841663
 50
203.8086384489106138
 51
267.6414523647669057
  0
ARC
  5
8EC7
  8
0
 10
4563.8308317988266936
 20
194.9469811001631001
 30
0.0
 40
0.1321472072497592
 50
25.5562756737631105
 51
70.7486934910502612
  0
ARC
  5
8EC8
  8
0
 10
4564.6129411973515744
 20
195.0326283547074979
 30
0.0
 40
0.0709495868626208
 50
272.3578090037352126
 51
336.201941211074427
  0
ARC
  5
8EC9
  8
0
 10
4564.7970773245870078
 20
194.9469737050627032
 30
0.0
 40
0.132155627913404
 50
109.2520358762959063
 51
154.4370528729162118
  0
ARC
  5
8ECA
  8
0
 10
4569.6746425150131472
 20
195.0491880614102911
 30
0.0
 40
1.1090991439037901
 50
86.9721069753266107
 51
109.5830761682923935
  0
ARC
  5
8ECB
  8
0
 10
4567.7603523694988326
 20
198.7668573265453915
 30
0.0
 40
3.0789877731767041
 50
268.9130691030396179
 51
298.1438931931518823
  0
ARC
  5
8ECC
  8
0
 10
4569.6564358593377619
 20
195.2210934902585961
 30
0.0
 40
0.9419045314069672
 50
112.0452832027590944
 51
118.1079406318515055
  0
ARC
  5
8ECD
  8
0
 10
4550.95692001419593
 20
5361.9166690204783663
 30
0.0
 40
5166.2553827672163607
 50
270.0373010343669762
 51
270.1857091680403187
  0
ARC
  5
8ECE
  8
0
 10
4552.2503372860392119
 20
195.9334132956973065
 30
0.0
 40
0.0781364884113313
 50
168.9279671610468085
 51
255.3833362110048881
  0
ARC
  5
8ECF
  8
0
 10
4555.1491881208949053
 20
226.36702253009949
 30
0.0
 40
30.6484968426415882
 50
264.5356068672787728
 51
268.2206612354856929
  0
ARC
  5
8ED0
  8
0
 10
4554.1760887872924286
 20
195.5175681707949877
 30
0.0
 40
0.2167996140124126
 50
41.9135810182334296
 51
84.3209925151794977
  0
ARC
  5
8ED1
  8
0
 10
4555.2363424914383359
 20
227.1412243501501109
 30
0.0
 40
31.4250948285866087
 50
268.105663130914877
 51
270.4673676696942834
  0
ARC
  5
8ED2
  8
0
 10
2147.0239351742811778
 20
461358.4031745140091516
 30
0.0
 40
461168.9751923541189171
 50
270.2992302794822876
 51
270.3007697196587742
  0
ARC
  5
8ED3
  8
0
 10
4563.3589805343390253
 20
195.7104246673860928
 30
0.0
 40
0.0479025168836567
 50
38.2931757512906117
 51
89.6395790902957401
  0
ARC
  5
8ED4
  8
0
 10
4563.4480506179043005
 20
195.7977886997504129
 30
0.0
 40
0.0773076916162924
 50
228.2539636946237067
 51
266.9539495453415157
  0
ARC
  5
8ED5
  8
0
 10
4563.8683546941347231
 20
221.1708731460740012
 30
0.0
 40
25.4538214421922717
 50
269.0446169803241787
 51
271.6373792934084008
  0
ARC
  5
8ED6
  8
0
 10
4564.5909450286726496
 20
195.8175740091905936
 30
0.0
 40
0.0902527409456284
 50
272.9986297390281038
 51
312.3290109129321195
  0
ARC
  5
8ED7
  8
0
 10
4564.6779319794050025
 20
195.7341924035210923
 30
0.0
 40
0.0310576186327329
 50
91.9613243308369448
 51
147.5625598884082876
  0
ARC
  5
8ED8
  8
0
 10
4569.6784311608225835
 20
196.3893710674790896
 30
0.0
 40
0.1933943086790375
 50
303.7873192581910189
 51
341.4078018525349876
  0
ARC
  5
8ED9
  8
0
 10
4571.1100817725300658
 20
196.393936707434591
 30
0.0
 40
1.25010461495273
 50
172.7860166079470048
 51
183.0367252197517018
  0
ARC
  5
8EDA
  8
0
 10
4557.8772971177122599
 20
202.3023393892962076
 30
0.0
 40
13.3004026032360692
 50
334.3784744146598769
 51
335.1101914988881845
  0
ARC
  5
8EDB
  8
0
 10
4569.8709628603473902
 20
196.7181645206431995
 30
0.0
 40
0.072669444333939
 50
349.1935149229365152
 51
88.2913591810664542
  0
ARC
  5
8EDC
  8
0
 10
4570.9455854089337663
 20
194.9393077542607955
 30
0.0
 40
0.0384385343219446
 50
282.2106805337697892
 51
55.5427581630425067
  0
ARC
  5
8EDD
  8
0
 10
4552.574323894187728
 20
195.8613992862620989
 30
0.0
 40
0.4100095324941219
 50
150.6549540603901107
 51
167.7464674175193977
  0
ARC
  5
8EDE
  8
0
 10
4552.4178996997179638
 20
195.9591875078778003
 30
0.0
 40
0.2258972313286213
 50
103.9836546583211003
 51
152.8321794206225945
  0
CIRCLE
  5
8EDF
  8
0
 10
4571.5226896990925525
 20
180.8168222303459913
 30
0.0
 40
0.5247523012310797
  0
ARC
  5
8EE0
  8
0
 10
4577.2596280185398427
 20
191.6056489624141932
 30
0.0
 40
0.148140823127166
 50
164.6791231726398905
 51
184.0440130162822072
  0
ARC
  5
8EE1
  8
0
 10
4576.4438745019706403
 20
192.1507527218230109
 30
0.0
 40
0.8418793929721017
 50
323.0591462905999265
 51
352.1838888497771904
  0
ARC
  5
8EE2
  8
0
 10
4575.6014940601044145
 20
192.7740898277014878
 30
0.0
 40
1.889794008855838
 50
285.6824710917671268
 51
323.3034028311984116
  0
ARC
  5
8EE3
  8
0
 10
4571.9420275541851879
 20
205.0961760440777084
 30
0.0
 40
14.7436165320924601
 50
279.6637048439642967
 51
286.4306066914160738
  0
ARC
  5
8EE4
  8
0
 10
4593.1081321851033863
 20
85.5735497806651608
 30
0.0
 40
106.639047490424403
 50
100.0946669259571991
 51
100.5459963150185985
  0
ARC
  5
8EE5
  8
0
 10
4573.6963735348754199
 20
190.2392332371873067
 30
0.0
 40
0.2019933924768225
 50
121.5970626374930958
 51
228.040307117261392
  0
ARC
  5
8EE6
  8
0
 10
4574.5412010093923527
 20
190.417875111838498
 30
0.0
 40
0.1901079441434958
 50
130.8066958660488979
 51
227.7198211013235039
  0
ARC
  5
8EE7
  8
0
 10
4570.4849572773937325
 20
186.6206460851765883
 30
0.0
 40
4.6361271305038692
 50
0.4229473964593504
 51
48.4278313018196798
  0
ARC
  5
8EE8
  8
0
 10
4570.9098034303378881
 20
186.5670926623375863
 30
0.0
 40
5.1028985684050729
 50
0.6211352048652464
 51
46.6407319722275133
  0
ARC
  5
8EE9
  8
0
 10
4575.2190864741496625
 20
186.692805777817199
 30
0.0
 40
0.1052064129561312
 50
201.1367529019958909
 51
269.6570222426083205
  0
ARC
  5
8EEA
  8
0
 10
4575.1287157985607337
 20
197.7059212372066952
 30
0.0
 40
11.1186821508765501
 50
270.4624496695589073
 51
274.5585397065103734
  0
ARC
  5
8EEB
  8
0
 10
4576.918379106957218
 20
132.4665826363352892
 30
0.0
 40
54.163406271458939
 50
89.6803358597456537
 51
90.9584160353938955
  0
ARC
  5
8EEC
  8
0
 10
4577.2195110218581249
 20
186.3728683748582
 30
0.0
 40
0.2562797222907019
 50
4.4985894544202294
 51
89.7642371177918932
  0
ENDSEC
  0
EOF
