  0
SECTION
  2
HEADER
  9
$ACADVER
  1
AC1009
  9
$INSBASE
 10
4846.2473356308337316
 20
232.5301299939006867
 30
0.0
  9
$EXTMIN
 10
4844.022926182034098
 20
229.262413458450709
 30
0.0
  9
$EXTMAX
 10
4848.4717450796351841
 20
235.7978465293506076
 30
0.0
  9
$LIMMIN
 10
0.0
 20
0.0
  9
$LIMMAX
 10
11.6929133858000007
 20
8.2677165353999982
  9
$ORTHOMODE
 70
     1
  9
$REGENMODE
 70
     1
  9
$FILLMODE
 70
     1
  9
$QTEXTMODE
 70
     0
  9
$MIRRTEXT
 70
     0
  9
$DRAGMODE
 70
     2
  9
$LTSCALE
 40
0.6431102362
  9
$OSMODE
 70
  4095
  9
$ATTMODE
 70
     1
  9
$TEXTSIZE
 40
0.2
  9
$TRACEWID
 40
0.05
  9
$TEXTSTYLE
  7
STANDARD
  9
$CLAYER
  8
0
  9
$CELTYPE
  6
BYLAYER
  9
$CECOLOR
 62
   256
  9
$DIMSCALE
 40
1.0
  9
$DIMASZ
 40
0.1875
  9
$DIMEXO
 40
0.0625
  9
$DIMDLI
 40
0.4443307087
  9
$DIMRND
 40
0.0
  9
$DIMDLE
 40
0.0
  9
$DIMEXE
 40
0.125
  9
$DIMTP
 40
0.01
  9
$DIMTM
 40
0.01
  9
$DIMTXT
 40
2.0
  9
$DIMCEN
 40
0.1052362205
  9
$DIMTSZ
 40
0.0
  9
$DIMTOL
 70
     1
  9
$DIMLIM
 70
     0
  9
$DIMTIH
 70
     1
  9
$DIMTOH
 70
     1
  9
$DIMSE1
 70
     0
  9
$DIMSE2
 70
     0
  9
$DIMTAD
 70
     0
  9
$DIMZIN
 70
     0
  9
$DIMBLK
  1

  9
$DIMASO
 70
     1
  9
$DIMSHO
 70
     1
  9
$DIMPOST
  1
\X
  9
$DIMAPOST
  1

  9
$DIMALT
 70
     1
  9
$DIMALTD
 70
     2
  9
$DIMALTF
 40
25.3999999999999986
  9
$DIMLFAC
 40
1.0
  9
$DIMTOFL
 70
     0
  9
$DIMTVP
 40
0.0
  9
$DIMTIX
 70
     0
  9
$DIMSOXD
 70
     0
  9
$DIMSAH
 70
     0
  9
$DIMBLK1
  1

  9
$DIMBLK2
  1

  9
$DIMSTYLE
  2
STANDARD
  9
$DIMCLRD
 70
     0
  9
$DIMCLRE
 70
     0
  9
$DIMCLRT
 70
     0
  9
$DIMTFAC
 40
1.0
  9
$DIMGAP
 40
0.09
  9
$LUNITS
 70
     2
  9
$LUPREC
 70
     4
  9
$SKETCHINC
 40
0.1
  9
$FILLETRAD
 40
0.0
  9
$AUNITS
 70
     0
  9
$AUPREC
 70
     0
  9
$MENU
  1
.
  9
$ELEVATION
 40
0.0
  9
$PELEVATION
 40
0.0
  9
$THICKNESS
 40
0.0
  9
$LIMCHECK
 70
     0
  9
$BLIPMODE
 70
     0
  9
$CHAMFERA
 40
0.0
  9
$CHAMFERB
 40
0.0
  9
$SKPOLY
 70
     0
  9
$TDCREATE
 40
2458060.468368056230247
  9
$TDUPDATE
 40
2459796.6495138891041279
  9
$TDINDWG
 40
0.3652269676
  9
$TDUSRTIMER
 40
0.3652269676
  9
$USRTIMER
 70
     1
  9
$ANGBASE
 50
0.0
  9
$ANGDIR
 70
     0
  9
$PDMODE
 70
     0
  9
$PDSIZE
 40
0.3125
  9
$PLINEWID
 40
0.0
  9
$COORDS
 70
     1
  9
$SPLFRAME
 70
     0
  9
$SPLINETYPE
 70
     6
  9
$SPLINESEGS
 70
     8
  9
$ATTDIA
 70
     1
  9
$ATTREQ
 70
     1
  9
$HANDLING
 70
     1
  9
$HANDSEED
  5
D897
  9
$SURFTAB1
 70
     6
  9
$SURFTAB2
 70
     6
  9
$SURFTYPE
 70
     6
  9
$SURFU
 70
     6
  9
$SURFV
 70
     6
  9
$UCSNAME
  2

  9
$UCSORG
 10
0.0
 20
0.0
 30
0.0
  9
$UCSXDIR
 10
1.0
 20
0.0
 30
0.0
  9
$UCSYDIR
 10
0.0
 20
1.0
 30
0.0
  9
$PUCSNAME
  2

  9
$PUCSORG
 10
0.0
 20
0.0
 30
0.0
  9
$PUCSXDIR
 10
1.0
 20
0.0
 30
0.0
  9
$PUCSYDIR
 10
0.0
 20
1.0
 30
0.0
  9
$USERI1
 70
     0
  9
$USERI2
 70
     0
  9
$USERI3
 70
     0
  9
$USERI4
 70
     0
  9
$USERI5
 70
     0
  9
$USERR1
 40
0.0
  9
$USERR2
 40
0.0
  9
$USERR3
 40
0.0
  9
$USERR4
 40
0.0
  9
$USERR5
 40
0.0
  9
$WORLDVIEW
 70
     1
  9
$SHADEDGE
 70
     3
  9
$SHADEDIF
 70
    70
  9
$TILEMODE
 70
     1
  9
$MAXACTVP
 70
    64
  9
$PLIMCHECK
 70
     0
  9
$PEXTMIN
 10
1.0000000000000000E+20
 20
1.0000000000000000E+20
 30
1.0000000000000000E+20
  9
$PEXTMAX
 10
-1.0000000000000000E+20
 20
-1.0000000000000000E+20
 30
-1.0000000000000000E+20
  9
$PLIMMIN
 10
0.0
 20
0.0
  9
$PLIMMAX
 10
12.0
 20
9.0
  9
$UNITMODE
 70
     0
  9
$VISRETAIN
 70
     1
  9
$PLINEGEN
 70
     0
  9
$PSLTSCALE
 70
     1
  0
ENDSEC
  0
SECTION
  2
TABLES
  0
TABLE
  2
VPORT
 70
     1
  0
VPORT
  2
*ACTIVE
 70
     0
 10
0.0
 20
0.0
 11
1.0
 21
1.0
 12
0.0
 22
0.0
 13
0.0
 23
0.0
 14
1.0
 24
1.0
 15
0.0
 25
0.0
 16
0.0
 26
0.0
 36
22.6491888737649205
 17
4846.247314453125
 27
232.5301361083984091
 37
0.0
 40
7.9092846254198523
 41
2.1481900452488678
 42
50.0
 43
0.0
 44
0.0
 50
0.0
 51
0.0
 71
     0
 72
   100
 73
     1
 74
     1
 75
     0
 76
     0
 77
     0
 78
     0
  0
ENDTAB
  0
TABLE
  2
LTYPE
 70
     2
  0
LTYPE
  2
CONTINUOUS
 70
     0
  3
Solid line
 72
    65
 73
     0
 40
0.0
  0
LTYPE
  2
PHANTOM2
 70
     0
  3
___ _ _ ___ _ _ ___ _ _ ___ _ _
 72
    65
 73
     6
 40
1.25
 49
0.625
 49
-0.125
 49
0.125
 49
-0.125
 49
0.125
 49
-0.125
  0
ENDTAB
  0
TABLE
  2
LAYER
 70
     2
  0
LAYER
  2
0
 70
     0
 62
   255
  6
CONTINUOUS
  0
LAYER
  2
DEFPOINTS
 70
     0
 62
     7
  6
CONTINUOUS
  0
ENDTAB
  0
TABLE
  2
STYLE
 70
     1
  0
STYLE
  2
STANDARD
 70
     0
 40
0.0
 41
0.8
 50
0.0
 71
     0
 42
0.2
  3
txt
  4

  0
ENDTAB
  0
TABLE
  2
VIEW
 70
     0
  0
ENDTAB
  0
TABLE
  2
UCS
 70
     0
  0
ENDTAB
  0
TABLE
  2
APPID
 70
     9
  0
APPID
  2
ACAD
 70
     0
  0
APPID
  2
ACAD_MLEADERVER
 70
     0
  0
APPID
  2
ACAD_EXEMPT_FROM_CAD_STANDARDS
 70
     0
  0
APPID
  2
ACAD_NAV_VCDISPLAY
 70
     0
  0
APPID
  2
ACAECLAYERSTANDARD
 70
     0
  0
APPID
  2
ACCMTRANSPARENCY
 70
     0
  0
APPID
  2
ACAD_DSTYLE_DIMJAG
 70
     0
  0
APPID
  2
ACAD_DSTYLE_DIMTALN
 70
     0
  0
APPID
  2
ACDBATTR
 70
     0
  0
ENDTAB
  0
TABLE
  2
DIMSTYLE
 70
     1
  0
DIMSTYLE
  2
STANDARD
 70
     0
  3

  4

  5

  6

  7

 40
1.0
 41
0.1875
 42
0.0625
 43
0.38
 44
0.125
 45
0.0
 46
0.0
 47
0.01
 48
0.01
140
0.15625
141
0.09
142
0.0
143
25.3999999999999986
144
1.0
145
0.0
146
1.0
147
0.09
 71
     1
 72
     0
 73
     1
 74
     1
 75
     0
 76
     0
 77
     0
 78
     4
170
     0
171
     2
172
     0
173
     0
174
     0
175
     0
176
     0
177
     0
178
     0
  0
ENDTAB
  0
ENDSEC
  0
SECTION
  2
BLOCKS
  0
BLOCK
  8
0
  2
$MODEL_SPACE
 70
     0
 10
0.0
 20
0.0
 30
0.0
  3
$MODEL_SPACE
  1

  0
ENDBLK
  5
21
  8
0
  0
BLOCK
 67
     1
  8
0
  2
$PAPER_SPACE
 70
     0
 10
0.0
 20
0.0
 30
0.0
  3
$PAPER_SPACE
  1

  0
ENDBLK
  5
1D
 67
     1
  8
0
  0
ENDSEC
  0
SECTION
  2
ENTITIES
  0
ATTDEF
  5
3930
  8
DEFPOINTS
 10
4846.242040805374927
 20
232.5283691034886999
 30
0.0
 40
0.001
  1
K-8966T-9
  3

  2
MODELNUMBER
 70
     0
1001
ACDBATTR
1070
     0
1070
     1
  0
ATTDEF
  5
3931
  8
DEFPOINTS
 10
4846.242040805374927
 20
232.5267024368220063
 30
0.0
 40
0.001
  1
TOOBI
  3

  2
TRADENAME
 70
     0
1001
ACDBATTR
1070
     0
1070
     1
  0
ATTDEF
  5
3932
  8
DEFPOINTS
 10
4846.242040805374927
 20
232.525035770155398
 30
0.0
 40
0.001
  1
VALVE TRIM
  3

  2
PRODUCT
 70
     0
1001
ACDBATTR
1070
     0
1070
     1
  0
LINE
  5
D79F
  8
0
 10
4846.4176185041342251
 20
229.262413458450709
 30
0.0
 11
4846.0770527575341475
 21
229.262413458450709
 31
0.0
  0
LINE
  5
D7A0
  8
0
 10
4845.6891152700327439
 20
229.262413458450709
 30
0.0
 11
4844.7288909286326088
 21
229.262413458450709
 31
0.0
  0
LINE
  5
D7A1
  8
0
 10
4846.0144092066348094
 20
229.2727467651507141
 30
0.0
 11
4845.7716006376340374
 21
229.2727467651507141
 31
0.0
  0
LINE
  5
D7A2
  8
0
 10
4846.0536294703333624
 20
229.26960253195071
 30
0.0
 11
4846.0594036388329187
 21
229.2638283633507115
 31
0.0
  0
LINE
  5
D7A3
  8
0
 10
4844.022926182034098
 20
229.9683782051507137
 30
0.0
 11
4844.022926182034098
 21
235.0918817826506881
 31
0.0
  0
LINE
  5
D7A4
  8
0
 10
4846.1303592024341924
 20
234.4415256631507134
 30
0.0
 11
4846.1296565172633564
 21
234.4334939347716897
 31
0.0
  0
LINE
  5
D7A5
  8
0
 10
4846.0998356308336952
 20
234.4415256631507134
 30
0.0
 11
4846.3948356308492293
 21
234.4415256631507134
 31
0.0
  0
LINE
  5
D7A6
  8
0
 10
4844.7288909286326088
 20
235.7978465293506076
 30
0.0
 11
4847.7657803330339448
 21
235.7978465293506076
 31
0.0
  0
ARC
  5
D7A7
  8
0
 10
4846.2473356308337316
 20
233.5734370804507023
 30
0.0
 40
0.9940944881999998
 50
90.0
 51
270.0
  0
ARC
  5
D7A8
  8
0
 10
4846.2473356308337316
 20
233.5734370804507023
 30
0.0
 40
0.9842519684999999
 50
90.0
 51
270.0
  0
ARC
  5
D7A9
  8
0
 10
4846.2473356308337316
 20
233.5734370804507023
 30
0.0
 40
0.9645669290999999
 50
90.0
 51
270.0
  0
ARC
  5
D7AA
  8
0
 10
4846.2473356308337316
 20
233.5734370804507023
 30
0.0
 40
0.9448818898
 50
90.0
 51
270.0
  0
ARC
  5
D7AB
  8
0
 10
4846.2473356308337316
 20
233.5754055844506922
 30
0.0
 40
0.8661200787
 50
90.0
 51
270.0
  0
ARC
  5
D7AC
  8
0
 10
4846.2473356308337316
 20
234.3238126349507127
 30
0.0
 40
0.1887130282
 50
90.0
 51
141.4082276555004967
  0
ARC
  5
D7AD
  8
0
 10
4846.0123433816061151
 20
229.0007949754721039
 30
0.0
 40
0.2719596358697844
 50
81.2681887819343558
 51
89.5647729369204058
  0
ARC
  5
D7AE
  8
0
 10
4846.0797740960088049
 20
229.407141135316806
 30
0.0
 40
0.1447532594941101
 50
261.9101770846042996
 51
268.9227849104181018
  0
LINE
  5
D7AF
  8
0
 10
4845.7323803739336654
 20
229.26960253195071
 30
0.0
 11
4845.7266062054350186
 21
229.2638283633507115
 31
0.0
  0
ARC
  5
D7B0
  8
0
 10
4845.7736664626618222
 20
229.0007949754721039
 30
0.0
 40
0.2719596358697844
 50
90.4352270630795942
 51
98.7318112180656442
  0
ARC
  5
D7B1
  8
0
 10
4845.6876047780142471
 20
229.7998459425986937
 30
0.0
 40
0.5374346068162068
 50
270.161033417879878
 51
274.1615913825747839
  0
ARC
  5
D7B2
  8
0
 10
4844.7522232862629608
 20
229.9917105626761042
 30
0.0
 40
0.7296702441131434
 50
181.8324353351291904
 51
268.1675646567500166
  0
ARC
  5
D7B3
  8
0
 10
4844.7499652433798474
 20
235.0708074680073025
 30
0.0
 40
0.7273444324809538
 50
91.6603389652106841
 51
178.3396610429304019
  0
LINE
  5
D7B4
  8
0
 10
4846.8055559916329003
 20
229.262413458450709
 30
0.0
 11
4847.7657803330339448
 21
229.262413458450709
 31
0.0
  0
LINE
  5
D7B5
  8
0
 10
4846.4802620550335632
 20
229.2727467651507141
 30
0.0
 11
4846.7230706240334257
 21
229.2727467651507141
 31
0.0
  0
LINE
  5
D7B6
  8
0
 10
4846.4410417913341007
 20
229.26960253195071
 30
0.0
 11
4846.4352676228327255
 21
229.2638283633507115
 31
0.0
  0
LINE
  5
D7B7
  8
0
 10
4848.4717450796333651
 20
229.9683782051507137
 30
0.0
 11
4848.4717450796333651
 21
235.0918817826506881
 31
0.0
  0
LINE
  5
D7B8
  8
0
 10
4846.3643120592341802
 20
234.4415256631507134
 30
0.0
 11
4846.3650147444041068
 21
234.4334939347716897
 31
0.0
  0
ARC
  5
D7B9
  8
0
 10
4846.2473356308337316
 20
233.5734370804507023
 30
0.0
 40
0.9940944881999998
 50
270.0
 51
90.0
  0
ARC
  5
D7BA
  8
0
 10
4846.2473356308337316
 20
233.5734370804507023
 30
0.0
 40
0.9842519684999999
 50
270.0
 51
90.0
  0
ARC
  5
D7BB
  8
0
 10
4846.2473356308337316
 20
233.5734370804507023
 30
0.0
 40
0.9645669290999999
 50
270.0
 51
90.0
  0
ARC
  5
D7BC
  8
0
 10
4846.2473356308337316
 20
233.5734370804507023
 30
0.0
 40
0.9448818898
 50
270.0
 51
90.0
  0
ARC
  5
D7BD
  8
0
 10
4846.2473356308337316
 20
233.5754055844506922
 30
0.0
 40
0.8661200787
 50
270.0
 51
90.0
  0
ARC
  5
D7BE
  8
0
 10
4846.2473356308337316
 20
234.3238126349507127
 30
0.0
 40
0.1887130282
 50
38.5917723444995602
 51
90.0
  0
ARC
  5
D7BF
  8
0
 10
4846.482327880061348
 20
229.0007949754721039
 30
0.0
 40
0.2719596358697844
 50
90.4352270630795942
 51
98.7318112180656442
  0
ARC
  5
D7C0
  8
0
 10
4846.4148971656577487
 20
229.407141135316806
 30
0.0
 40
0.1447532594941101
 50
271.0772150895817845
 51
278.0898229153955867
  0
LINE
  5
D7C1
  8
0
 10
4846.7622908877337977
 20
229.26960253195071
 30
0.0
 11
4846.7680650562342635
 21
229.2638283633507115
 31
0.0
  0
ARC
  5
D7C2
  8
0
 10
4846.721004799005641
 20
229.0007949754721039
 30
0.0
 40
0.2719596358697844
 50
81.2681887819343558
 51
89.5647729369204058
  0
ARC
  5
D7C3
  8
0
 10
4846.807066483653216
 20
229.7998459425986937
 30
0.0
 40
0.5374346068162068
 50
265.8384086174252161
 51
269.838966582120122
  0
ARC
  5
D7C4
  8
0
 10
4847.7424479754063213
 20
229.9917105626761042
 30
0.0
 40
0.7296702441131434
 50
271.832435343250097
 51
358.1675646648707811
  0
ARC
  5
D7C5
  8
0
 10
4847.7447060182867062
 20
235.0708074680073025
 30
0.0
 40
0.7273444324809538
 50
1.6603389570696341
 51
88.3396610347893443
  0
ENDSEC
  0
EOF
