  0
SECTION
  2
HEADER
  9
$ACADVER
  1
AC1009
  9
$INSBASE
 10
2896.7099084513788512
 20
150.3841082585284141
 30
0.0
  9
$EXTMIN
 10
2888.6402803137298179
 20
148.8214635331283944
 30
0.0
  9
$EXTMAX
 10
2904.7795365890301582
 20
155.1085177073283887
 30
0.0
  9
$LIMMIN
 10
0.0
 20
0.0
  9
$LIMMAX
 10
11.6929133858000007
 20
8.2677165353999982
  9
$ORTHOMODE
 70
     0
  9
$REGENMODE
 70
     1
  9
$FILLMODE
 70
     1
  9
$QTEXTMODE
 70
     0
  9
$MIRRTEXT
 70
     0
  9
$DRAGMODE
 70
     2
  9
$LTSCALE
 40
0.6431102362
  9
$OSMODE
 70
  4095
  9
$ATTMODE
 70
     1
  9
$TEXTSIZE
 40
0.2
  9
$TRACEWID
 40
0.05
  9
$TEXTSTYLE
  7
STANDARD
  9
$CLAYER
  8
0
  9
$CELTYPE
  6
BYLAYER
  9
$CECOLOR
 62
   256
  9
$DIMSCALE
 40
1.0
  9
$DIMASZ
 40
0.1875
  9
$DIMEXO
 40
0.0625
  9
$DIMDLI
 40
0.4443307087
  9
$DIMRND
 40
0.0
  9
$DIMDLE
 40
0.0
  9
$DIMEXE
 40
0.125
  9
$DIMTP
 40
0.01
  9
$DIMTM
 40
0.01
  9
$DIMTXT
 40
2.0
  9
$DIMCEN
 40
0.1052362205
  9
$DIMTSZ
 40
0.0
  9
$DIMTOL
 70
     1
  9
$DIMLIM
 70
     0
  9
$DIMTIH
 70
     1
  9
$DIMTOH
 70
     1
  9
$DIMSE1
 70
     0
  9
$DIMSE2
 70
     0
  9
$DIMTAD
 70
     0
  9
$DIMZIN
 70
     0
  9
$DIMBLK
  1

  9
$DIMASO
 70
     1
  9
$DIMSHO
 70
     1
  9
$DIMPOST
  1
\X
  9
$DIMAPOST
  1

  9
$DIMALT
 70
     1
  9
$DIMALTD
 70
     2
  9
$DIMALTF
 40
25.3999999999999986
  9
$DIMLFAC
 40
1.0
  9
$DIMTOFL
 70
     0
  9
$DIMTVP
 40
0.0
  9
$DIMTIX
 70
     0
  9
$DIMSOXD
 70
     0
  9
$DIMSAH
 70
     0
  9
$DIMBLK1
  1

  9
$DIMBLK2
  1

  9
$DIMSTYLE
  2
STANDARD
  9
$DIMCLRD
 70
     0
  9
$DIMCLRE
 70
     0
  9
$DIMCLRT
 70
     0
  9
$DIMTFAC
 40
1.0
  9
$DIMGAP
 40
0.09
  9
$LUNITS
 70
     2
  9
$LUPREC
 70
     4
  9
$SKETCHINC
 40
0.1
  9
$FILLETRAD
 40
0.0
  9
$AUNITS
 70
     0
  9
$AUPREC
 70
     0
  9
$MENU
  1
.
  9
$ELEVATION
 40
0.0
  9
$PELEVATION
 40
0.0
  9
$THICKNESS
 40
0.0
  9
$LIMCHECK
 70
     0
  9
$BLIPMODE
 70
     0
  9
$CHAMFERA
 40
0.0
  9
$CHAMFERB
 40
0.0
  9
$SKPOLY
 70
     0
  9
$TDCREATE
 40
2458060.468368056230247
  9
$TDUPDATE
 40
2459016.9593981481157243
  9
$TDINDWG
 40
0.3223450231
  9
$TDUSRTIMER
 40
0.3223450231
  9
$USRTIMER
 70
     1
  9
$ANGBASE
 50
0.0
  9
$ANGDIR
 70
     0
  9
$PDMODE
 70
     0
  9
$PDSIZE
 40
0.3125
  9
$PLINEWID
 40
0.0
  9
$COORDS
 70
     1
  9
$SPLFRAME
 70
     0
  9
$SPLINETYPE
 70
     6
  9
$SPLINESEGS
 70
     8
  9
$ATTDIA
 70
     1
  9
$ATTREQ
 70
     1
  9
$HANDLING
 70
     1
  9
$HANDSEED
  5
7620
  9
$SURFTAB1
 70
     6
  9
$SURFTAB2
 70
     6
  9
$SURFTYPE
 70
     6
  9
$SURFU
 70
     6
  9
$SURFV
 70
     6
  9
$UCSNAME
  2

  9
$UCSORG
 10
0.0
 20
0.0
 30
0.0
  9
$UCSXDIR
 10
1.0
 20
0.0
 30
0.0
  9
$UCSYDIR
 10
0.0
 20
1.0
 30
0.0
  9
$PUCSNAME
  2

  9
$PUCSORG
 10
0.0
 20
0.0
 30
0.0
  9
$PUCSXDIR
 10
1.0
 20
0.0
 30
0.0
  9
$PUCSYDIR
 10
0.0
 20
1.0
 30
0.0
  9
$USERI1
 70
     0
  9
$USERI2
 70
     0
  9
$USERI3
 70
     0
  9
$USERI4
 70
     0
  9
$USERI5
 70
     0
  9
$USERR1
 40
0.0
  9
$USERR2
 40
0.0
  9
$USERR3
 40
0.0
  9
$USERR4
 40
0.0
  9
$USERR5
 40
0.0
  9
$WORLDVIEW
 70
     1
  9
$SHADEDGE
 70
     3
  9
$SHADEDIF
 70
    70
  9
$TILEMODE
 70
     1
  9
$MAXACTVP
 70
    64
  9
$PLIMCHECK
 70
     0
  9
$PEXTMIN
 10
1.0000000000000000E+20
 20
1.0000000000000000E+20
 30
1.0000000000000000E+20
  9
$PEXTMAX
 10
-1.0000000000000000E+20
 20
-1.0000000000000000E+20
 30
-1.0000000000000000E+20
  9
$PLIMMIN
 10
0.0
 20
0.0
  9
$PLIMMAX
 10
12.0
 20
9.0
  9
$UNITMODE
 70
     0
  9
$VISRETAIN
 70
     1
  9
$PLINEGEN
 70
     0
  9
$PSLTSCALE
 70
     1
  0
ENDSEC
  0
SECTION
  2
TABLES
  0
TABLE
  2
VPORT
 70
     1
  0
VPORT
  2
*ACTIVE
 70
     0
 10
0.0
 20
0.0
 11
1.0
 21
1.0
 12
0.0
 22
0.0
 13
0.0
 23
0.0
 14
1.0
 24
1.0
 15
0.0
 25
0.0
 16
0.0
 26
0.0
 36
62.5998449641368921
 17
2896.7099609375
 27
151.9649887084960938
 37
0.0
 40
17.3204982388596811
 41
2.8355754857997
 42
50.0
 43
0.0
 44
0.0
 50
0.0
 51
0.0
 71
     0
 72
   100
 73
     1
 74
     1
 75
     0
 76
     0
 77
     0
 78
     0
  0
ENDTAB
  0
TABLE
  2
LTYPE
 70
     3
  0
LTYPE
  2
CONTINUOUS
 70
     0
  3
Solid line
 72
    65
 73
     0
 40
0.0
  0
LTYPE
  2
PHANTOM2
 70
     0
  3
___ _ _ ___ _ _ ___ _ _ ___ _ _
 72
    65
 73
     6
 40
1.25
 49
0.625
 49
-0.125
 49
0.125
 49
-0.125
 49
0.125
 49
-0.125
  0
ENDTAB
  0
TABLE
  2
LAYER
 70
     2
  0
LAYER
  2
0
 70
     0
 62
   255
  6
CONTINUOUS
  0
LAYER
  2
DEFPOINTS
 70
     0
 62
     7
  6
CONTINUOUS
  0
ENDTAB
  0
TABLE
  2
STYLE
 70
     1
  0
STYLE
  2
STANDARD
 70
     0
 40
0.0
 41
0.8
 50
0.0
 71
     0
 42
0.2
  3
txt
  4

  0
ENDTAB
  0
TABLE
  2
VIEW
 70
     0
  0
ENDTAB
  0
TABLE
  2
UCS
 70
     0
  0
ENDTAB
  0
TABLE
  2
APPID
 70
     9
  0
APPID
  2
ACAD
 70
     0
  0
APPID
  2
ACAD_MLEADERVER
 70
     0
  0
APPID
  2
ACAD_EXEMPT_FROM_CAD_STANDARDS
 70
     0
  0
APPID
  2
ACAD_NAV_VCDISPLAY
 70
     0
  0
APPID
  2
ACAECLAYERSTANDARD
 70
     0
  0
APPID
  2
ACCMTRANSPARENCY
 70
     0
  0
APPID
  2
ACAD_DSTYLE_DIMJAG
 70
     0
  0
APPID
  2
ACAD_DSTYLE_DIMTALN
 70
     0
  0
APPID
  2
ACDBATTR
 70
     0
  0
ENDTAB
  0
TABLE
  2
DIMSTYLE
 70
     2
  0
DIMSTYLE
  2
STANDARD
 70
     0
  3

  4

  5

  6

  7

 40
1.0
 41
0.1875
 42
0.0625
 43
0.38
 44
0.125
 45
0.0
 46
0.0
 47
0.01
 48
0.01
140
0.15625
141
0.09
142
0.0
143
25.3999999999999986
144
1.0
145
0.0
146
1.0
147
0.09
 71
     1
 72
     0
 73
     1
 74
     1
 75
     0
 76
     0
 77
     0
 78
     4
170
     0
171
     2
172
     0
173
     0
174
     0
175
     0
176
     0
177
     0
178
     0
  0
ENDTAB
  0
ENDSEC
  0
SECTION
  2
BLOCKS
  0
BLOCK
  8
0
  2
$MODEL_SPACE
 70
     0
 10
0.0
 20
0.0
 30
0.0
  3
$MODEL_SPACE
  1

  0
ENDBLK
  5
21
  8
0
  0
BLOCK
 67
     1
  8
0
  2
$PAPER_SPACE
 70
     0
 10
0.0
 20
0.0
 30
0.0
  3
$PAPER_SPACE
  1

  0
ENDBLK
  5
1D
 67
     1
  8
0
  0
BLOCK
  8
0
  2
*U3
 70
     1
 10
0.0
 20
0.0
 30
0.0
  3
*U3
  1

  0
TEXT
  5
7612
  8
0
 62
     0
 10
38.1799893047791201
 20
9.5090614955999921
 30
0.0
 40
0.15625
  1
6.2871±0.0100
 41
0.8
  0
ENDBLK
  5
7614
  8
0
  0
BLOCK
  8
0
  2
*U4
 70
     1
 10
0.0
 20
0.0
 30
0.0
  3
*U4
  1

  0
TEXT
  5
7616
  8
0
 62
     0
 10
38.1695726381124629
 20
9.1728114955999942
 30
0.0
 40
0.15625
  1
[159.69±0.25]
 41
0.8
  0
ENDBLK
  5
7618
  8
0
  0
BLOCK
  8
0
  2
*U5
 70
     1
 10
0.0
 20
0.0
 30
0.0
  3
*U5
  1

  0
TEXT
  5
761A
  8
0
 62
     0
 10
2905.5819706897091237
 20
151.88686562022761
 30
0.0
 40
0.15625
  1
6.2871±0.0100
 41
0.8
  0
ENDBLK
  5
761C
  8
0
  0
ENDSEC
  0
SECTION
  2
ENTITIES
  0
ATTDEF
  5
6F66
  8
DEFPOINTS
 10
2896.7161255641021853
 20
150.3815717700549044
 30
0.0
 40
0.001
  1
K-90012T
  3

  2
MODELNUMBER
 70
     0
1001
ACDBATTR
1070
     0
1070
     1
  0
ATTDEF
  5
6F67
  8
DEFPOINTS
 10
2896.7161255641021853
 20
150.3799051033882108
 30
0.0
 40
0.001
  1
MICA
  3

  2
TRADENAME
 70
     0
1001
ACDBATTR
1070
     0
1070
     1
  0
ATTDEF
  5
6F68
  8
DEFPOINTS
 10
2896.7161255641021853
 20
150.3782384367216025
 30
0.0
 40
0.001
  1
BATHROOM SINK
  3

  2
PRODUCT
 70
     0
1001
ACDBATTR
1070
     0
1070
     1
  0
LINE
  5
72D2
  8
0
 10
2888.7387055106291882
 20
155.1085177073283887
 30
0.0
 11
2904.6811113921289689
 21
155.1085177073283887
 31
0.0
  0
LINE
  5
72D3
  8
0
 10
2888.7768375852288045
 20
150.3841082585284141
 30
0.0
 11
2904.6429793175288978
 21
150.3841082585284141
 31
0.0
  0
ARC
  5
72D5
  8
0
 10
2904.6811113921289689
 20
155.0100925104283931
 30
0.0
 40
0.0984251968999976
 50
359.2838400860587171
 51
90.0
  0
LINE
  5
72D6
  8
0
 10
2904.6429793175288978
 20
150.3841082585284141
 30
0.0
 11
2904.6429793175288978
 21
150.4628485833198113
 31
0.0
  0
LINE
  5
72D7
  8
0
 10
2904.7227037269299217
 20
150.4628484159283914
 30
0.0
 11
2904.7795289004620827
 21
155.0088622915723988
 31
0.0
  0
LINE
  5
72D8
  8
0
 10
2888.7768375852288045
 20
150.3841082585284141
 30
0.0
 11
2888.7768375852288045
 21
150.4628484159283914
 31
0.0
  0
LINE
  5
72D9
  8
0
 10
2904.7227037290331282
 20
150.4628485841608949
 30
0.0
 11
2888.6971131758400588
 21
150.4628484150873078
 31
0.0
  0
ARC
  5
72DA
  8
0
 10
2888.7387055106291882
 20
155.0100925104283931
 30
0.0
 40
0.0984251968999976
 50
90.0
 51
180.7161599139413113
  0
LINE
  5
72DB
  8
0
 10
2888.6971131758291449
 20
150.4628484159283914
 30
0.0
 11
2888.6402880022969839
 21
155.0088622915723988
 31
0.0
  0
ARC
  5
72DC
  8
0
 10
2898.3508394144050726
 20
150.2419973641214028
 30
0.0
 40
0.2362204738442304
 50
143.0152250456661136
 51
174.9999998644246944
  0
LINE
  5
72DD
  8
0
 10
2898.1155178308290488
 20
150.2625853355283994
 30
0.0
 11
2898.0020129433291913
 21
148.9652185343163069
 31
0.0
  0
ARC
  5
72DE
  8
0
 10
2897.8451318884658576
 20
148.9789438481340085
 30
0.0
 40
0.1574803150055888
 50
270.0000000232412276
 51
355.0000000017487878
  0
ARC
  5
72DF
  8
0
 10
2895.0689774883530845
 20
150.2419973641214028
 30
0.0
 40
0.2362204738442304
 50
5.0000001355752337
 51
36.9847749543352435
  0
LINE
  5
72E0
  8
0
 10
2895.3042990719291083
 20
150.2625853355283141
 30
0.0
 11
2895.4178039594307847
 21
148.9652185343163069
 31
0.0
  0
ARC
  5
72E1
  8
0
 10
2895.5746850142941184
 20
148.9789438481340085
 30
0.0
 40
0.1574803150055888
 50
184.9999999982510985
 51
269.9999999767587724
  0
LINE
  5
72E2
  8
0
 10
2895.5746850142941184
 20
148.8214635331283944
 30
0.0
 11
2897.8451318884658576
 21
148.8214635331283944
 31
0.0
  0
ENDSEC
  0
EOF
