  0
SECTION
  2
HEADER
  9
$ACADVER
  1
AC1009
  9
$INSBASE
 10
3176.2440051349931309
 20
85.7276733391723411
 30
0.0
  9
$EXTMIN
 10
3175.9640051349929308
 20
85.3526733391723269
 30
0.0
  9
$EXTMAX
 10
3176.2552823898081442
 20
86.1026733391723269
 30
0.0
  9
$LIMMIN
 10
0.0
 20
0.0
  9
$LIMMAX
 10
11.6929133858000007
 20
8.2677165353999982
  9
$ORTHOMODE
 70
     0
  9
$REGENMODE
 70
     1
  9
$FILLMODE
 70
     1
  9
$QTEXTMODE
 70
     0
  9
$MIRRTEXT
 70
     0
  9
$DRAGMODE
 70
     2
  9
$LTSCALE
 40
0.6431102362
  9
$OSMODE
 70
  4095
  9
$ATTMODE
 70
     1
  9
$TEXTSIZE
 40
0.2
  9
$TRACEWID
 40
0.05
  9
$TEXTSTYLE
  7
STANDARD
  9
$CLAYER
  8
0
  9
$CELTYPE
  6
BYLAYER
  9
$CECOLOR
 62
   256
  9
$DIMSCALE
 40
1.0
  9
$DIMASZ
 40
0.1875
  9
$DIMEXO
 40
0.0625
  9
$DIMDLI
 40
0.4443307087
  9
$DIMRND
 40
0.0
  9
$DIMDLE
 40
0.0
  9
$DIMEXE
 40
0.125
  9
$DIMTP
 40
0.01
  9
$DIMTM
 40
0.01
  9
$DIMTXT
 40
2.0
  9
$DIMCEN
 40
0.1052362205
  9
$DIMTSZ
 40
0.0
  9
$DIMTOL
 70
     1
  9
$DIMLIM
 70
     0
  9
$DIMTIH
 70
     1
  9
$DIMTOH
 70
     1
  9
$DIMSE1
 70
     0
  9
$DIMSE2
 70
     0
  9
$DIMTAD
 70
     0
  9
$DIMZIN
 70
     0
  9
$DIMBLK
  1

  9
$DIMASO
 70
     1
  9
$DIMSHO
 70
     1
  9
$DIMPOST
  1
\X
  9
$DIMAPOST
  1

  9
$DIMALT
 70
     1
  9
$DIMALTD
 70
     2
  9
$DIMALTF
 40
25.3999999999999986
  9
$DIMLFAC
 40
1.0
  9
$DIMTOFL
 70
     0
  9
$DIMTVP
 40
0.0
  9
$DIMTIX
 70
     0
  9
$DIMSOXD
 70
     0
  9
$DIMSAH
 70
     0
  9
$DIMBLK1
  1

  9
$DIMBLK2
  1

  9
$DIMSTYLE
  2
STANDARD
  9
$DIMCLRD
 70
     0
  9
$DIMCLRE
 70
     0
  9
$DIMCLRT
 70
     0
  9
$DIMTFAC
 40
1.0
  9
$DIMGAP
 40
0.09
  9
$LUNITS
 70
     2
  9
$LUPREC
 70
     4
  9
$SKETCHINC
 40
0.1
  9
$FILLETRAD
 40
0.0
  9
$AUNITS
 70
     0
  9
$AUPREC
 70
     0
  9
$MENU
  1
.
  9
$ELEVATION
 40
0.0
  9
$PELEVATION
 40
0.0
  9
$THICKNESS
 40
0.0
  9
$LIMCHECK
 70
     0
  9
$BLIPMODE
 70
     0
  9
$CHAMFERA
 40
0.0
  9
$CHAMFERB
 40
0.0
  9
$SKPOLY
 70
     0
  9
$TDCREATE
 40
2458060.468368056230247
  9
$TDUPDATE
 40
2460655.5294212969020009
  9
$TDINDWG
 40
0.5092894676
  9
$TDUSRTIMER
 40
0.5092894676
  9
$USRTIMER
 70
     1
  9
$ANGBASE
 50
0.0
  9
$ANGDIR
 70
     0
  9
$PDMODE
 70
     0
  9
$PDSIZE
 40
0.3125
  9
$PLINEWID
 40
0.0
  9
$COORDS
 70
     2
  9
$SPLFRAME
 70
     0
  9
$SPLINETYPE
 70
     6
  9
$SPLINESEGS
 70
     8
  9
$ATTDIA
 70
     1
  9
$ATTREQ
 70
     1
  9
$HANDLING
 70
     1
  9
$HANDSEED
  5
34B01
  9
$SURFTAB1
 70
     6
  9
$SURFTAB2
 70
     6
  9
$SURFTYPE
 70
     6
  9
$SURFU
 70
     6
  9
$SURFV
 70
     6
  9
$UCSNAME
  2

  9
$UCSORG
 10
0.0
 20
0.0
 30
0.0
  9
$UCSXDIR
 10
1.0
 20
0.0
 30
0.0
  9
$UCSYDIR
 10
0.0
 20
1.0
 30
0.0
  9
$PUCSNAME
  2

  9
$PUCSORG
 10
0.0
 20
0.0
 30
0.0
  9
$PUCSXDIR
 10
1.0
 20
0.0
 30
0.0
  9
$PUCSYDIR
 10
0.0
 20
1.0
 30
0.0
  9
$USERI1
 70
     0
  9
$USERI2
 70
     0
  9
$USERI3
 70
     0
  9
$USERI4
 70
     0
  9
$USERI5
 70
     0
  9
$USERR1
 40
0.0
  9
$USERR2
 40
0.0
  9
$USERR3
 40
0.0
  9
$USERR4
 40
0.0
  9
$USERR5
 40
0.0
  9
$WORLDVIEW
 70
     1
  9
$SHADEDGE
 70
     3
  9
$SHADEDIF
 70
    70
  9
$TILEMODE
 70
     1
  9
$MAXACTVP
 70
    64
  9
$PLIMCHECK
 70
     0
  9
$PEXTMIN
 10
1.0000000000000000E+20
 20
1.0000000000000000E+20
 30
1.0000000000000000E+20
  9
$PEXTMAX
 10
-1.0000000000000000E+20
 20
-1.0000000000000000E+20
 30
-1.0000000000000000E+20
  9
$PLIMMIN
 10
0.0
 20
0.0
  9
$PLIMMAX
 10
12.0
 20
9.0
  9
$UNITMODE
 70
     0
  9
$VISRETAIN
 70
     1
  9
$PLINEGEN
 70
     0
  9
$PSLTSCALE
 70
     1
  0
ENDSEC
  0
SECTION
  2
TABLES
  0
TABLE
  2
VPORT
 70
     1
  0
VPORT
  2
*ACTIVE
 70
     0
 10
0.0
 20
0.0
 11
1.0
 21
1.0
 12
-627.4344236204121898
 22
-40.2675888575775787
 13
0.0
 23
0.0
 14
1.0
 24
1.0
 15
0.0
 25
0.0
 16
0.0
 26
0.0
 36
17.1152628219792007
 17
3803.5440673828129547
 27
125.9952621967499056
 37
0.0
 40
0.7553191489361808
 41
2.21775147928994
 42
50.0
 43
0.0
 44
0.0
 50
0.0
 51
0.0
 71
     0
 72
   100
 73
     1
 74
     1
 75
     0
 76
     0
 77
     0
 78
     0
  0
ENDTAB
  0
TABLE
  2
LTYPE
 70
     2
  0
LTYPE
  2
CONTINUOUS
 70
     0
  3
Solid line
 72
    65
 73
     0
 40
0.0
  0
LTYPE
  2
PHANTOM2
 70
     0
  3
___ _ _ ___ _ _ ___ _ _ ___ _ _
 72
    65
 73
     6
 40
1.25
 49
0.625
 49
-0.125
 49
0.125
 49
-0.125
 49
0.125
 49
-0.125
  0
ENDTAB
  0
TABLE
  2
LAYER
 70
     2
  0
LAYER
  2
0
 70
     0
 62
   255
  6
CONTINUOUS
  0
LAYER
  2
DEFPOINTS
 70
     0
 62
     7
  6
CONTINUOUS
  0
ENDTAB
  0
TABLE
  2
STYLE
 70
     1
  0
STYLE
  2
STANDARD
 70
     0
 40
0.0
 41
0.8
 50
0.0
 71
     0
 42
0.2
  3
txt
  4

  0
ENDTAB
  0
TABLE
  2
VIEW
 70
     0
  0
ENDTAB
  0
TABLE
  2
UCS
 70
     0
  0
ENDTAB
  0
TABLE
  2
APPID
 70
    10
  0
APPID
  2
ACAD
 70
     0
  0
APPID
  2
ACAD_MLEADERVER
 70
     0
  0
APPID
  2
ACAD_EXEMPT_FROM_CAD_STANDARDS
 70
     0
  0
APPID
  2
ACAD_NAV_VCDISPLAY
 70
     0
  0
APPID
  2
ACAECLAYERSTANDARD
 70
     0
  0
APPID
  2
ACCMTRANSPARENCY
 70
     0
  0
APPID
  2
ACAD_DSTYLE_DIMJAG
 70
     0
  0
APPID
  2
ACAD_DSTYLE_DIMTALN
 70
     0
  0
APPID
  2
ACDBATTR
 70
     0
  0
APPID
  2
DCO15
 70
     0
  0
ENDTAB
  0
TABLE
  2
DIMSTYLE
 70
     1
  0
DIMSTYLE
  2
STANDARD
 70
     0
  3

  4

  5

  6

  7

 40
1.0
 41
0.1875
 42
0.0625
 43
0.38
 44
0.125
 45
0.0
 46
0.0
 47
0.01
 48
0.01
140
0.15625
141
0.09
142
0.0
143
25.3999999999999986
144
1.0
145
0.0
146
1.0
147
0.09
 71
     1
 72
     0
 73
     1
 74
     1
 75
     0
 76
     0
 77
     0
 78
     4
170
     0
171
     2
172
     0
173
     0
174
     0
175
     0
176
     0
177
     0
178
     0
  0
ENDTAB
  0
ENDSEC
  0
SECTION
  2
BLOCKS
  0
BLOCK
  8
0
  2
$MODEL_SPACE
 70
     0
 10
0.0
 20
0.0
 30
0.0
  3
$MODEL_SPACE
  1

  0
ENDBLK
  5
21
  8
0
  0
BLOCK
 67
     1
  8
0
  2
$PAPER_SPACE
 70
     0
 10
0.0
 20
0.0
 30
0.0
  3
$PAPER_SPACE
  1

  0
ENDBLK
  5
1D
 67
     1
  8
0
  0
BLOCK
  8
0
  2
_FILLED
 70
     0
 10
0.0
 20
0.0
 30
0.0
  3
_FILLED
  1

  0
SOLID
  5
328F2
  8
0
  6
BYBLOCK
 62
     0
 10
0.0
 20
0.0
 30
0.0
 11
-1.0
 21
0.1666666667
 31
0.0
 12
-1.0
 22
-0.1666666667
 32
0.0
 13
-1.0
 23
-0.1666666667
 33
0.0
  0
ENDBLK
  5
328F3
  8
0
  6
BYBLOCK
 62
     0
  0
ENDSEC
  0
SECTION
  2
ENTITIES
  0
ATTDEF
  5
3279F
  8
DEFPOINTS
 10
3176.2446157231388497
 20
85.731796478532587
 30
0.0
 40
0.001
  1
K-90038
  3

  2
MODELNUMBER
 70
     0
1001
ACDBATTR
1070
     0
1070
     1
  0
ATTDEF
  5
327A0
  8
DEFPOINTS
 10
3176.2446157231388497
 20
85.7301298118659076
 30
0.0
 40
0.001
  1
CHOREOGRAPH
  3

  2
TRADENAME
 70
     0
1001
ACDBATTR
1070
     0
1070
     1
  0
ATTDEF
  5
327A1
  8
DEFPOINTS
 10
3176.2446157231388497
 20
85.7284631451992567
 30
0.0
 40
0.001
  1
SEAM JOINT
  3

  2
PRODUCT
 70
     0
1001
ACDBATTR
1070
     0
1070
     1
  0
ARC
  5
3484D
  8
0
 10
3175.9740051349931491
 20
85.967673339172336
 30
0.0
 40
0.0099999999999998
 50
0.0
 51
180.0
  0
LINE
  5
3484E
  8
0
 10
3175.9640051349929308
 20
85.967673339172336
 30
0.0
 11
3175.9640051349929308
 21
85.487673339172332
 31
0.0
  0
LINE
  5
3484F
  8
0
 10
3175.9840051349929126
 20
85.967673339172336
 30
0.0
 11
3175.9840051349929126
 21
85.7726733391723144
 31
0.0
  0
LINE
  5
34850
  8
0
 10
3175.9840051349929126
 20
85.6826733391723252
 30
0.0
 11
3175.9840051349929126
 21
85.487673339172332
 31
0.0
  0
LINE
  5
34851
  8
0
 10
3176.0090051349930036
 20
85.7476733391723371
 30
0.0
 11
3176.2035518001930541
 21
85.7476733391723371
 31
0.0
  0
ARC
  5
34852
  8
0
 10
3176.0090051349930036
 20
85.7726733391723144
 30
0.0
 40
0.025
 50
180.0
 51
270.0
  0
LINE
  5
34853
  8
0
 10
3176.2340051349938221
 20
86.1026733391723269
 30
0.0
 11
3176.2440051349931309
 21
86.1026733391723269
 31
0.0
  0
LINE
  5
34854
  8
0
 10
3176.2440051349931309
 20
86.0726733391723258
 30
0.0
 11
3176.2440051349931309
 21
86.1026733391723269
 31
0.0
  0
LINE
  5
34855
  8
0
 10
3176.2440051349931309
 20
85.9726733391723315
 30
0.0
 11
3176.2440051349931309
 21
85.8761733391723538
 31
0.0
  0
LINE
  5
34856
  8
0
 10
3176.2440051349931309
 20
85.7761733391723311
 30
0.0
 11
3176.2440051349931309
 21
85.6791733391723369
 31
0.0
  0
ARC
  5
34857
  8
0
 10
3176.2440051349931309
 20
86.0626733391723349
 30
0.0
 40
0.0100000000000002
 50
90.0
 51
180.0
  0
LINE
  5
34858
  8
0
 10
3176.2340051349938221
 20
86.0626733391723349
 30
0.0
 11
3176.2340051349938221
 21
85.9826733391723366
 31
0.0
  0
LINE
  5
34859
  8
0
 10
3176.2340051349938221
 20
85.8661733391723345
 30
0.0
 11
3176.2340051349938221
 21
85.7861733391723362
 31
0.0
  0
ARC
  5
3485A
  8
0
 10
3176.2440051349931309
 20
85.9826733391723366
 30
0.0
 40
0.0100000000000002
 50
180.0
 51
270.0
  0
ARC
  5
3485B
  8
0
 10
3176.2440051349931309
 20
85.8661733391723345
 30
0.0
 40
0.0100000000000002
 50
90.0
 51
180.0
  0
ARC
  5
3485C
  8
0
 10
3176.2440051349931309
 20
85.7861733391723362
 30
0.0
 40
0.0100000000000002
 50
180.0
 51
270.0
  0
LINE
  5
3485D
  8
0
 10
3176.2040051349931673
 20
86.0726733391723258
 30
0.0
 11
3176.2040051349931673
 21
85.8003136282017351
 31
0.0
  0
ARC
  5
3485E
  8
0
 10
3176.2340051349938221
 20
86.0726733391723258
 30
0.0
 40
0.03
 50
90.0
 51
180.0000000000015916
  0
ARC
  5
3485F
  8
0
 10
3176.2940051360751568
 20
85.8003136282017351
 30
0.0
 40
0.0900000011029928
 50
180.0
 51
205.2394938341269039
  0
ARC
  5
34860
  8
0
 10
3176.2035518001930541
 20
85.7576733391723423
 30
0.0
 40
0.01
 50
270.0000000000259774
 51
25.2394938502040489
  0
ARC
  5
34861
  8
0
 10
3175.9740051349931491
 20
85.487673339172332
 30
0.0
 40
0.0099999999999998
 50
180.0
 51
0.0
  0
LINE
  5
34862
  8
0
 10
3176.0090051349930036
 20
85.7076733391723309
 30
0.0
 11
3176.2035518001930541
 21
85.7076733391723309
 31
0.0
  0
ARC
  5
34863
  8
0
 10
3176.0090051349930036
 20
85.6826733391723252
 30
0.0
 40
0.025
 50
90.0
 51
180.0
  0
LINE
  5
34864
  8
0
 10
3176.2340051349938221
 20
85.3526733391723411
 30
0.0
 11
3176.2440051349931309
 21
85.3526733391723411
 31
0.0
  0
LINE
  5
34865
  8
0
 10
3176.2440051349931309
 20
85.3826733391723138
 30
0.0
 11
3176.2440051349931309
 21
85.3526733391723411
 31
0.0
  0
LINE
  5
34866
  8
0
 10
3176.2440051349931309
 20
85.4826733391723366
 30
0.0
 11
3176.2440051349931309
 21
85.5791733391723284
 31
0.0
  0
ARC
  5
34867
  8
0
 10
3176.2440051349931309
 20
85.3926733391723332
 30
0.0
 40
0.0100000000000002
 50
180.0
 51
270.0
  0
LINE
  5
34868
  8
0
 10
3176.2340051349938221
 20
85.3926733391723332
 30
0.0
 11
3176.2340051349938221
 21
85.4726733391723315
 31
0.0
  0
LINE
  5
34869
  8
0
 10
3176.2340051349938221
 20
85.5891733391723335
 30
0.0
 11
3176.2340051349938221
 21
85.6691733391723318
 31
0.0
  0
ARC
  5
3486A
  8
0
 10
3176.2440051349931309
 20
85.4726733391723315
 30
0.0
 40
0.0100000000000002
 50
90.0
 51
180.0
  0
ARC
  5
3486B
  8
0
 10
3176.2440051349931309
 20
85.5891733391723335
 30
0.0
 40
0.0100000000000002
 50
180.0
 51
270.0
  0
ARC
  5
3486C
  8
0
 10
3176.2440051349931309
 20
85.6691733391723318
 30
0.0
 40
0.0100000000000002
 50
90.0
 51
180.0
  0
LINE
  5
3486D
  8
0
 10
3176.2040051349931673
 20
85.3826733391723138
 30
0.0
 11
3176.2040051349931673
 21
85.6550330501429471
 31
0.0
  0
ARC
  5
3486E
  8
0
 10
3176.2340051349938221
 20
85.3826733391723138
 30
0.0
 40
0.03
 50
179.9999999999984084
 51
270.0
  0
ARC
  5
3486F
  8
0
 10
3176.2940051360751568
 20
85.6550330501429471
 30
0.0
 40
0.0900000011029928
 50
154.7605061658730961
 51
180.0
  0
ARC
  5
34870
  8
0
 10
3176.2035518001930541
 20
85.6976733391723258
 30
0.0
 40
0.01
 50
334.7605061497960151
 51
89.9999999999739515
  0
ENDSEC
  0
EOF
