  0
SECTION
  2
HEADER
  9
$ACADVER
  1
AC1009
  9
$INSBASE
 10
3327.891640335133161
 20
194.1828602904759009
 30
0.0
  9
$EXTMIN
 10
3320.8042870959829997
 20
190.857275913669497
 30
0.0
  9
$EXTMAX
 10
3330.3592582084638707
 20
195.4266264132853053
 30
0.0
  9
$LIMMIN
 10
0.0
 20
0.0
  9
$LIMMAX
 10
11.6929133858000007
 20
8.2677165353999982
  9
$ORTHOMODE
 70
     0
  9
$REGENMODE
 70
     1
  9
$FILLMODE
 70
     1
  9
$QTEXTMODE
 70
     0
  9
$MIRRTEXT
 70
     0
  9
$DRAGMODE
 70
     2
  9
$LTSCALE
 40
0.6431102362
  9
$OSMODE
 70
  4095
  9
$ATTMODE
 70
     1
  9
$TEXTSIZE
 40
0.2
  9
$TRACEWID
 40
0.05
  9
$TEXTSTYLE
  7
STANDARD
  9
$CLAYER
  8
0
  9
$CELTYPE
  6
BYLAYER
  9
$CECOLOR
 62
   256
  9
$DIMSCALE
 40
1.0
  9
$DIMASZ
 40
0.1875
  9
$DIMEXO
 40
0.0625
  9
$DIMDLI
 40
0.4443307087
  9
$DIMRND
 40
0.0
  9
$DIMDLE
 40
0.0
  9
$DIMEXE
 40
0.125
  9
$DIMTP
 40
0.01
  9
$DIMTM
 40
0.01
  9
$DIMTXT
 40
2.0
  9
$DIMCEN
 40
0.1052362205
  9
$DIMTSZ
 40
0.0
  9
$DIMTOL
 70
     1
  9
$DIMLIM
 70
     0
  9
$DIMTIH
 70
     1
  9
$DIMTOH
 70
     1
  9
$DIMSE1
 70
     0
  9
$DIMSE2
 70
     0
  9
$DIMTAD
 70
     0
  9
$DIMZIN
 70
     0
  9
$DIMBLK
  1

  9
$DIMASO
 70
     1
  9
$DIMSHO
 70
     1
  9
$DIMPOST
  1
\X
  9
$DIMAPOST
  1

  9
$DIMALT
 70
     1
  9
$DIMALTD
 70
     2
  9
$DIMALTF
 40
25.3999999999999986
  9
$DIMLFAC
 40
1.0
  9
$DIMTOFL
 70
     0
  9
$DIMTVP
 40
0.0
  9
$DIMTIX
 70
     0
  9
$DIMSOXD
 70
     0
  9
$DIMSAH
 70
     0
  9
$DIMBLK1
  1

  9
$DIMBLK2
  1

  9
$DIMSTYLE
  2
STANDARD
  9
$DIMCLRD
 70
     0
  9
$DIMCLRE
 70
     0
  9
$DIMCLRT
 70
     0
  9
$DIMTFAC
 40
1.0
  9
$DIMGAP
 40
0.09
  9
$LUNITS
 70
     2
  9
$LUPREC
 70
     4
  9
$SKETCHINC
 40
0.1
  9
$FILLETRAD
 40
0.0
  9
$AUNITS
 70
     0
  9
$AUPREC
 70
     0
  9
$MENU
  1
.
  9
$ELEVATION
 40
0.0
  9
$PELEVATION
 40
0.0
  9
$THICKNESS
 40
0.0
  9
$LIMCHECK
 70
     0
  9
$BLIPMODE
 70
     0
  9
$CHAMFERA
 40
0.0
  9
$CHAMFERB
 40
0.0
  9
$SKPOLY
 70
     0
  9
$TDCREATE
 40
2458060.468368056230247
  9
$TDUPDATE
 40
2459426.6698842588812113
  9
$TDINDWG
 40
0.4228542824
  9
$TDUSRTIMER
 40
0.4228542824
  9
$USRTIMER
 70
     1
  9
$ANGBASE
 50
0.0
  9
$ANGDIR
 70
     0
  9
$PDMODE
 70
     0
  9
$PDSIZE
 40
0.3125
  9
$PLINEWID
 40
0.0
  9
$COORDS
 70
     1
  9
$SPLFRAME
 70
     0
  9
$SPLINETYPE
 70
     6
  9
$SPLINESEGS
 70
     8
  9
$ATTDIA
 70
     1
  9
$ATTREQ
 70
     1
  9
$HANDLING
 70
     1
  9
$HANDSEED
  5
8701
  9
$SURFTAB1
 70
     6
  9
$SURFTAB2
 70
     6
  9
$SURFTYPE
 70
     6
  9
$SURFU
 70
     6
  9
$SURFV
 70
     6
  9
$UCSNAME
  2

  9
$UCSORG
 10
0.0
 20
0.0
 30
0.0
  9
$UCSXDIR
 10
1.0
 20
0.0
 30
0.0
  9
$UCSYDIR
 10
0.0
 20
1.0
 30
0.0
  9
$PUCSNAME
  2

  9
$PUCSORG
 10
0.0
 20
0.0
 30
0.0
  9
$PUCSXDIR
 10
1.0
 20
0.0
 30
0.0
  9
$PUCSYDIR
 10
0.0
 20
1.0
 30
0.0
  9
$USERI1
 70
     0
  9
$USERI2
 70
     0
  9
$USERI3
 70
     0
  9
$USERI4
 70
     0
  9
$USERI5
 70
     0
  9
$USERR1
 40
0.0
  9
$USERR2
 40
0.0
  9
$USERR3
 40
0.0
  9
$USERR4
 40
0.0
  9
$USERR5
 40
0.0
  9
$WORLDVIEW
 70
     1
  9
$SHADEDGE
 70
     3
  9
$SHADEDIF
 70
    70
  9
$TILEMODE
 70
     1
  9
$MAXACTVP
 70
    64
  9
$PLIMCHECK
 70
     0
  9
$PEXTMIN
 10
1.0000000000000000E+20
 20
1.0000000000000000E+20
 30
1.0000000000000000E+20
  9
$PEXTMAX
 10
-1.0000000000000000E+20
 20
-1.0000000000000000E+20
 30
-1.0000000000000000E+20
  9
$PLIMMIN
 10
0.0
 20
0.0
  9
$PLIMMAX
 10
12.0
 20
9.0
  9
$UNITMODE
 70
     0
  9
$VISRETAIN
 70
     1
  9
$PLINEGEN
 70
     0
  9
$PSLTSCALE
 70
     1
  0
ENDSEC
  0
SECTION
  2
TABLES
  0
TABLE
  2
VPORT
 70
     1
  0
VPORT
  2
*ACTIVE
 70
     0
 10
0.0
 20
0.0
 11
1.0
 21
1.0
 12
238.0885763201345924
 22
-2.0445072097148929
 13
0.0
 23
0.0
 14
1.0
 24
1.0
 15
0.0
 25
0.0
 16
0.0
 26
0.0
 36
95.5902297660485658
 17
3089.811279296875
 27
197.161570589386713
 37
0.0
 40
10.1090095105152802
 41
2.0416666666666661
 42
50.0
 43
0.0
 44
0.0
 50
0.0
 51
0.0
 71
     0
 72
   100
 73
     1
 74
     1
 75
     0
 76
     0
 77
     0
 78
     0
  0
ENDTAB
  0
TABLE
  2
LTYPE
 70
     2
  0
LTYPE
  2
CONTINUOUS
 70
     0
  3
Solid line
 72
    65
 73
     0
 40
0.0
  0
LTYPE
  2
PHANTOM2
 70
     0
  3
___ _ _ ___ _ _ ___ _ _ ___ _ _
 72
    65
 73
     6
 40
1.25
 49
0.625
 49
-0.125
 49
0.125
 49
-0.125
 49
0.125
 49
-0.125
  0
ENDTAB
  0
TABLE
  2
LAYER
 70
     2
  0
LAYER
  2
0
 70
     0
 62
   255
  6
CONTINUOUS
  0
LAYER
  2
DEFPOINTS
 70
     0
 62
     7
  6
CONTINUOUS
  0
ENDTAB
  0
TABLE
  2
STYLE
 70
     1
  0
STYLE
  2
STANDARD
 70
     0
 40
0.0
 41
0.8
 50
0.0
 71
     0
 42
0.2
  3
txt
  4

  0
ENDTAB
  0
TABLE
  2
VIEW
 70
     0
  0
ENDTAB
  0
TABLE
  2
UCS
 70
     0
  0
ENDTAB
  0
TABLE
  2
APPID
 70
     9
  0
APPID
  2
ACAD
 70
     0
  0
APPID
  2
ACAD_MLEADERVER
 70
     0
  0
APPID
  2
ACAD_EXEMPT_FROM_CAD_STANDARDS
 70
     0
  0
APPID
  2
ACAD_NAV_VCDISPLAY
 70
     0
  0
APPID
  2
ACAECLAYERSTANDARD
 70
     0
  0
APPID
  2
ACCMTRANSPARENCY
 70
     0
  0
APPID
  2
ACAD_DSTYLE_DIMJAG
 70
     0
  0
APPID
  2
ACAD_DSTYLE_DIMTALN
 70
     0
  0
APPID
  2
ACDBATTR
 70
     0
  0
ENDTAB
  0
TABLE
  2
DIMSTYLE
 70
     1
  0
DIMSTYLE
  2
STANDARD
 70
     0
  3

  4

  5

  6

  7

 40
1.0
 41
0.1875
 42
0.0625
 43
0.38
 44
0.125
 45
0.0
 46
0.0
 47
0.01
 48
0.01
140
0.15625
141
0.09
142
0.0
143
25.3999999999999986
144
1.0
145
0.0
146
1.0
147
0.09
 71
     1
 72
     0
 73
     1
 74
     1
 75
     0
 76
     0
 77
     0
 78
     4
170
     0
171
     2
172
     0
173
     0
174
     0
175
     0
176
     0
177
     0
178
     0
  0
ENDTAB
  0
ENDSEC
  0
SECTION
  2
BLOCKS
  0
BLOCK
  8
0
  2
$MODEL_SPACE
 70
     0
 10
0.0
 20
0.0
 30
0.0
  3
$MODEL_SPACE
  1

  0
ENDBLK
  5
21
  8
0
  0
BLOCK
 67
     1
  8
0
  2
$PAPER_SPACE
 70
     0
 10
0.0
 20
0.0
 30
0.0
  3
$PAPER_SPACE
  1

  0
ENDBLK
  5
1D
 67
     1
  8
0
  0
BLOCK
  8
0
  2
_FILLED
 70
     0
 10
0.0
 20
0.0
 30
0.0
  3
_FILLED
  1

  0
SOLID
  5
7FAE
  8
0
  6
BYBLOCK
 62
     0
 10
0.0
 20
0.0
 30
0.0
 11
-1.0
 21
0.1666666667
 31
0.0
 12
-1.0
 22
-0.1666666667
 32
0.0
 13
-1.0
 23
-0.1666666667
 33
0.0
  0
ENDBLK
  5
7FAF
  8
0
  6
BYBLOCK
 62
     0
  0
ENDSEC
  0
SECTION
  2
ENTITIES
  0
ATTDEF
  5
3930
  8
DEFPOINTS
 10
3327.8938669874742118
 20
194.187265685568093
 30
0.0
 40
0.001
  1
K-9038T
  3

  2
MODELNUMBER
 70
     0
1001
ACDBATTR
1070
     0
1070
     1
  0
ATTDEF
  5
3931
  8
DEFPOINTS
 10
3327.8938669874742118
 20
194.1855990189015131
 30
0.0
 40
0.001
  1
COMPLEMENTARY
  3

  2
TRADENAME
 70
     0
1001
ACDBATTR
1070
     0
1070
     1
  0
ATTDEF
  5
3932
  8
DEFPOINTS
 10
3327.8938669874742118
 20
194.1839323522347911
 30
0.0
 40
0.001
  1
HANDSHOWER HOLDER
  3

  2
PRODUCT
 70
     0
1001
ACDBATTR
1070
     0
1070
     1
  0
ARC
  5
85D6
  8
0
 10
3325.4482454249960028
 20
194.1827236638459908
 30
0.0
 40
0.807105101427124
 50
90.3878013364865467
 51
269.6121986635134249
  0
ARC
  5
85D7
  8
0
 10
3325.4491328674648685
 20
194.1827236638459908
 30
0.0
 40
0.7874271809383724
 50
90.4620677416496051
 51
269.5379322583503949
  0
CIRCLE
  5
85D8
  8
0
 10
3325.4469848143330637
 20
194.1827236638459908
 30
0.0
 40
0.7677165354
  0
ARC
  5
85D9
  8
0
 10
3325.4469848143330637
 20
194.1827236638459908
 30
0.0
 40
0.7598259278999997
 50
301.5741414136242042
 51
56.8226458705776665
  0
ARC
  5
85DA
  8
0
 10
3325.4469848143330637
 20
194.1827236638459908
 30
0.0
 40
0.7598259278999997
 50
123.1773541294179068
 51
238.4258585863757105
  0
ARC
  5
85DB
  8
0
 10
3325.4506954532330383
 20
194.1827236638459908
 30
0.0
 40
0.8169291338999993
 50
285.4516934423643875
 51
74.5483065576355557
  0
LINE
  5
85DC
  8
0
 10
3325.4427826483329227
 20
193.3756370496460022
 30
0.0
 11
3327.5766797052328911
 21
193.3756370496460022
 31
0.0
  0
LINE
  5
85DD
  8
0
 10
3325.4427826483329227
 20
193.3953220890460045
 30
0.0
 11
3325.6683464806319535
 21
193.3953220890460045
 31
0.0
  0
ARC
  5
85DE
  8
0
 10
3325.1212555966631044
 20
193.5327205609893895
 30
0.0
 40
0.0265625397515446
 50
252.8839382505481126
 51
275.5066112590221792
  0
ARC
  5
85DF
  8
0
 10
3325.1219980853247762
 20
193.526251665922814
 30
0.0
 40
0.0198676499230529
 50
320.1788714751260727
 51
0.1339759891579005
  0
ARC
  5
85E0
  8
0
 10
3325.1215880327540617
 20
193.5265034331673917
 30
0.0
 40
0.0203439374972981
 50
276.2549312025662971
 51
320.3738358191271232
  0
ARC
  5
85E1
  8
0
 10
3325.2333534508197772
 20
193.8699941090575862
 30
0.0
 40
0.3819708496659662
 50
241.1659760548114093
 51
251.7032445310190099
  0
LINE
  5
85E2
  8
0
 10
3325.1418656809319145
 20
193.5262981228459864
 30
0.0
 11
3325.1418667040329638
 21
194.8360925816459996
 31
0.0
  0
ARC
  5
85E3
  8
0
 10
3325.120679238214052
 20
194.8343259809948904
 30
0.0
 40
0.0221801903093114
 50
50.2056897350016413
 51
106.6088491832914968
  0
ARC
  5
85E4
  8
0
 10
3325.1218353922799906
 20
194.8361621760082016
 30
0.0
 40
0.0200314326482497
 50
359.8009392875301842
 51
49.3850476192177297
  0
ARC
  5
85E5
  8
0
 10
3325.2222901953718974
 20
194.5001388056180929
 30
0.0
 40
0.3714732631364483
 50
106.8939985632590037
 51
120.9611251970083003
  0
ARC
  5
85E6
  8
0
 10
3325.7727140320021135
 20
193.5327205609893895
 30
0.0
 40
0.0265625397515446
 50
264.4933887409778208
 51
287.1160617494518874
  0
ARC
  5
85E7
  8
0
 10
3325.771971543339987
 20
193.526251665922814
 30
0.0
 40
0.0198676499230526
 50
179.8660240108436881
 51
219.8211285248918898
  0
ARC
  5
85E8
  8
0
 10
3325.7723815959129752
 20
193.5265034331673917
 30
0.0
 40
0.0203439374972981
 50
219.6261641808742127
 51
263.7450687974338166
  0
ARC
  5
85E9
  8
0
 10
3325.6606161778449859
 20
193.8699941090575862
 30
0.0
 40
0.3819708496659662
 50
288.2967554689809049
 51
298.8340239451886191
  0
LINE
  5
85EA
  8
0
 10
3325.7521039477328486
 20
193.5262981228459864
 30
0.0
 11
3325.7521029246317994
 21
194.8360925816459996
 31
0.0
  0
ARC
  5
85EB
  8
0
 10
3325.7732903904511659
 20
194.8343259809948904
 30
0.0
 40
0.0221801903093114
 50
73.3911508167085316
 51
129.7943102649983018
  0
ARC
  5
85EC
  8
0
 10
3325.7721342363870463
 20
194.8361621760082016
 30
0.0
 40
0.0200314326482497
 50
130.614952380782313
 51
180.1990607124697874
  0
ARC
  5
85ED
  8
0
 10
3325.6716794332928657
 20
194.5001388056180929
 30
0.0
 40
0.3714732631364483
 50
59.0388748029917068
 51
73.1060014367409678
  0
LINE
  5
85EE
  8
0
 10
3325.6683464806319535
 20
194.9701252386460055
 30
0.0
 11
3325.4427826483329227
 21
194.9701252386460055
 31
0.0
  0
LINE
  5
85EF
  8
0
 10
3325.4427826483329227
 20
194.9898102780460079
 30
0.0
 11
3327.5766797052328911
 21
194.9898102780460079
 31
0.0
  0
ARC
  5
85F0
  8
0
 10
3327.5766741417778576
 20
193.178771201392891
 30
0.0
 40
0.1968658483316587
 50
10.8218404323532695
 51
89.9983808139284633
  0
ARC
  5
85F1
  8
0
 10
3327.8856696039279086
 20
193.2376021960278081
 30
0.0
 40
0.117680445209003
 50
190.709400764056511
 51
270.1873401262687935
  0
LINE
  5
85F2
  8
0
 10
3327.770038879033109
 20
193.2157338937458917
 30
0.0
 11
3327.7700388790199213
 21
195.1497512228270921
 31
0.0
  0
LINE
  5
85F3
  8
0
 10
3327.8860543832529402
 20
193.1199223798761864
 30
0.0
 11
3327.891640335133161
 21
193.1199223798761864
 31
0.0
  0
LINE
  5
85F4
  8
0
 10
3327.891640335133161
 20
193.1199223798761864
 30
0.0
 11
3327.891640335133161
 21
195.2457982010757007
 31
0.0
  0
ARC
  5
85F5
  8
0
 10
3327.5766741417778576
 20
195.1866761262990053
 30
0.0
 40
0.1968658483316587
 50
270.0016191860714798
 51
349.1781595676466736
  0
ARC
  5
85F6
  8
0
 10
3327.886213232866794
 20
195.1275237939611031
 30
0.0
 40
0.118274513786832
 50
90.0769516278482314
 51
169.1865825773705865
  0
LINE
  5
85F7
  8
0
 10
3327.8860543832529402
 20
195.2457982010757007
 30
0.0
 11
3327.891640335133161
 21
195.2457982010757007
 31
0.0
  0
CIRCLE
  5
85F8
  8
0
 10
3325.4469848143330637
 20
194.1827236638459908
 30
0.0
 40
0.1771653542999996
  0
CIRCLE
  5
85F9
  8
0
 10
3325.4469848143330637
 20
194.1827236638459908
 30
0.0
 40
0.2559055118
  0
ENDSEC
  0
EOF
