  0
SECTION
  2
HEADER
  9
$ACADVER
  1
AC1009
  9
$INSBASE
 10
4089.5938520172840072
 20
112.2953006737891997
 30
0.0
  9
$EXTMIN
 10
4087.1628095176811257
 20
111.3029240729392058
 30
0.0
  9
$EXTMAX
 10
4089.6058395763911903
 20
113.3543673416009057
 30
0.0
  9
$LIMMIN
 10
0.0
 20
0.0
  9
$LIMMAX
 10
11.6929133858000007
 20
8.2677165353999982
  9
$ORTHOMODE
 70
     0
  9
$REGENMODE
 70
     1
  9
$FILLMODE
 70
     1
  9
$QTEXTMODE
 70
     0
  9
$MIRRTEXT
 70
     0
  9
$DRAGMODE
 70
     2
  9
$LTSCALE
 40
0.6431102362
  9
$OSMODE
 70
  4095
  9
$ATTMODE
 70
     1
  9
$TEXTSIZE
 40
0.2
  9
$TRACEWID
 40
0.05
  9
$TEXTSTYLE
  7
STANDARD
  9
$CLAYER
  8
0
  9
$CELTYPE
  6
BYLAYER
  9
$CECOLOR
 62
   256
  9
$DIMSCALE
 40
1.0
  9
$DIMASZ
 40
0.1875
  9
$DIMEXO
 40
0.0625
  9
$DIMDLI
 40
0.4443307087
  9
$DIMRND
 40
0.0
  9
$DIMDLE
 40
0.0
  9
$DIMEXE
 40
0.125
  9
$DIMTP
 40
0.01
  9
$DIMTM
 40
0.01
  9
$DIMTXT
 40
2.0
  9
$DIMCEN
 40
0.1052362205
  9
$DIMTSZ
 40
0.0
  9
$DIMTOL
 70
     1
  9
$DIMLIM
 70
     0
  9
$DIMTIH
 70
     1
  9
$DIMTOH
 70
     1
  9
$DIMSE1
 70
     0
  9
$DIMSE2
 70
     0
  9
$DIMTAD
 70
     0
  9
$DIMZIN
 70
     0
  9
$DIMBLK
  1

  9
$DIMASO
 70
     1
  9
$DIMSHO
 70
     1
  9
$DIMPOST
  1
\X
  9
$DIMAPOST
  1

  9
$DIMALT
 70
     1
  9
$DIMALTD
 70
     2
  9
$DIMALTF
 40
25.3999999999999986
  9
$DIMLFAC
 40
1.0
  9
$DIMTOFL
 70
     0
  9
$DIMTVP
 40
0.0
  9
$DIMTIX
 70
     0
  9
$DIMSOXD
 70
     0
  9
$DIMSAH
 70
     0
  9
$DIMBLK1
  1

  9
$DIMBLK2
  1

  9
$DIMSTYLE
  2
STANDARD
  9
$DIMCLRD
 70
     0
  9
$DIMCLRE
 70
     0
  9
$DIMCLRT
 70
     0
  9
$DIMTFAC
 40
1.0
  9
$DIMGAP
 40
0.09
  9
$LUNITS
 70
     2
  9
$LUPREC
 70
     4
  9
$SKETCHINC
 40
0.1
  9
$FILLETRAD
 40
0.0
  9
$AUNITS
 70
     0
  9
$AUPREC
 70
     0
  9
$MENU
  1
.
  9
$ELEVATION
 40
0.0
  9
$PELEVATION
 40
0.0
  9
$THICKNESS
 40
0.0
  9
$LIMCHECK
 70
     0
  9
$BLIPMODE
 70
     0
  9
$CHAMFERA
 40
0.0
  9
$CHAMFERB
 40
0.0
  9
$SKPOLY
 70
     0
  9
$TDCREATE
 40
2458060.468368056230247
  9
$TDUPDATE
 40
2459489.6831249999813735
  9
$TDINDWG
 40
0.3816158565
  9
$TDUSRTIMER
 40
0.3816158565
  9
$USRTIMER
 70
     1
  9
$ANGBASE
 50
0.0
  9
$ANGDIR
 70
     0
  9
$PDMODE
 70
     0
  9
$PDSIZE
 40
0.3125
  9
$PLINEWID
 40
0.0
  9
$COORDS
 70
     1
  9
$SPLFRAME
 70
     0
  9
$SPLINETYPE
 70
     6
  9
$SPLINESEGS
 70
     8
  9
$ATTDIA
 70
     1
  9
$ATTREQ
 70
     1
  9
$HANDLING
 70
     1
  9
$HANDSEED
  5
10B29
  9
$SURFTAB1
 70
     6
  9
$SURFTAB2
 70
     6
  9
$SURFTYPE
 70
     6
  9
$SURFU
 70
     6
  9
$SURFV
 70
     6
  9
$UCSNAME
  2

  9
$UCSORG
 10
0.0
 20
0.0
 30
0.0
  9
$UCSXDIR
 10
1.0
 20
0.0
 30
0.0
  9
$UCSYDIR
 10
0.0
 20
1.0
 30
0.0
  9
$PUCSNAME
  2

  9
$PUCSORG
 10
0.0
 20
0.0
 30
0.0
  9
$PUCSXDIR
 10
1.0
 20
0.0
 30
0.0
  9
$PUCSYDIR
 10
0.0
 20
1.0
 30
0.0
  9
$USERI1
 70
     0
  9
$USERI2
 70
     0
  9
$USERI3
 70
     0
  9
$USERI4
 70
     0
  9
$USERI5
 70
     0
  9
$USERR1
 40
0.0
  9
$USERR2
 40
0.0
  9
$USERR3
 40
0.0
  9
$USERR4
 40
0.0
  9
$USERR5
 40
0.0
  9
$WORLDVIEW
 70
     1
  9
$SHADEDGE
 70
     3
  9
$SHADEDIF
 70
    70
  9
$TILEMODE
 70
     1
  9
$MAXACTVP
 70
    64
  9
$PLIMCHECK
 70
     0
  9
$PEXTMIN
 10
1.0000000000000000E+20
 20
1.0000000000000000E+20
 30
1.0000000000000000E+20
  9
$PEXTMAX
 10
-1.0000000000000000E+20
 20
-1.0000000000000000E+20
 30
-1.0000000000000000E+20
  9
$PLIMMIN
 10
0.0
 20
0.0
  9
$PLIMMAX
 10
12.0
 20
9.0
  9
$UNITMODE
 70
     0
  9
$VISRETAIN
 70
     1
  9
$PLINEGEN
 70
     0
  9
$PSLTSCALE
 70
     1
  0
ENDSEC
  0
SECTION
  2
TABLES
  0
TABLE
  2
VPORT
 70
     1
  0
VPORT
  2
*ACTIVE
 70
     0
 10
0.0
 20
0.0
 11
1.0
 21
1.0
 12
-176.6220231092138135
 22
8.0246334086860998
 13
0.0
 23
0.0
 14
1.0
 24
1.0
 15
0.0
 25
0.0
 16
0.0
 26
0.0
 36
122.0237731519760018
 17
4265.00634765625
 27
104.3040122985839986
 37
0.0
 40
2.0679207246348561
 41
2.0683646112600531
 42
50.0
 43
0.0
 44
0.0
 50
0.0
 51
0.0
 71
     0
 72
   100
 73
     1
 74
     1
 75
     0
 76
     0
 77
     0
 78
     0
  0
ENDTAB
  0
TABLE
  2
LTYPE
 70
     2
  0
LTYPE
  2
CONTINUOUS
 70
     0
  3
Solid line
 72
    65
 73
     0
 40
0.0
  0
LTYPE
  2
PHANTOM2
 70
     0
  3
___ _ _ ___ _ _ ___ _ _ ___ _ _
 72
    65
 73
     6
 40
1.25
 49
0.625
 49
-0.125
 49
0.125
 49
-0.125
 49
0.125
 49
-0.125
  0
ENDTAB
  0
TABLE
  2
LAYER
 70
     2
  0
LAYER
  2
0
 70
     0
 62
   255
  6
CONTINUOUS
  0
LAYER
  2
DEFPOINTS
 70
     0
 62
     7
  6
CONTINUOUS
  0
ENDTAB
  0
TABLE
  2
STYLE
 70
     1
  0
STYLE
  2
STANDARD
 70
     0
 40
0.0
 41
0.8
 50
0.0
 71
     0
 42
0.2
  3
txt
  4

  0
ENDTAB
  0
TABLE
  2
VIEW
 70
     0
  0
ENDTAB
  0
TABLE
  2
UCS
 70
     0
  0
ENDTAB
  0
TABLE
  2
APPID
 70
     9
  0
APPID
  2
ACAD
 70
     0
  0
APPID
  2
ACAD_MLEADERVER
 70
     0
  0
APPID
  2
ACAD_EXEMPT_FROM_CAD_STANDARDS
 70
     0
  0
APPID
  2
ACAD_NAV_VCDISPLAY
 70
     0
  0
APPID
  2
ACAECLAYERSTANDARD
 70
     0
  0
APPID
  2
ACCMTRANSPARENCY
 70
     0
  0
APPID
  2
ACAD_DSTYLE_DIMJAG
 70
     0
  0
APPID
  2
ACAD_DSTYLE_DIMTALN
 70
     0
  0
APPID
  2
ACDBATTR
 70
     0
  0
ENDTAB
  0
TABLE
  2
DIMSTYLE
 70
     1
  0
DIMSTYLE
  2
STANDARD
 70
     0
  3

  4

  5

  6

  7

 40
1.0
 41
0.1875
 42
0.0625
 43
0.38
 44
0.125
 45
0.0
 46
0.0
 47
0.01
 48
0.01
140
0.15625
141
0.09
142
0.0
143
25.3999999999999986
144
1.0
145
0.0
146
1.0
147
0.09
 71
     1
 72
     0
 73
     1
 74
     1
 75
     0
 76
     0
 77
     0
 78
     4
170
     0
171
     2
172
     0
173
     0
174
     0
175
     0
176
     0
177
     0
178
     0
  0
ENDTAB
  0
ENDSEC
  0
SECTION
  2
BLOCKS
  0
BLOCK
  8
0
  2
$MODEL_SPACE
 70
     0
 10
0.0
 20
0.0
 30
0.0
  3
$MODEL_SPACE
  1

  0
ENDBLK
  5
21
  8
0
  0
BLOCK
 67
     1
  8
0
  2
$PAPER_SPACE
 70
     0
 10
0.0
 20
0.0
 30
0.0
  3
$PAPER_SPACE
  1

  0
ENDBLK
  5
1D
 67
     1
  8
0
  0
ENDSEC
  0
SECTION
  2
ENTITIES
  0
ATTDEF
  5
FDB2
  8
DEFPOINTS
 10
4089.5951729097218958
 20
112.2953359532291984
 30
0.0
 40
0.001
  1
K-9040T
  3

  2
MODELNUMBER
 70
     0
1001
ACDBATTR
1070
     0
1070
     1
  0
ATTDEF
  5
FDB3
  8
DEFPOINTS
 10
4089.5951729097218958
 20
112.2936692865625048
 30
0.0
 40
0.001
  1

  3

  2
TRADENAME
 70
     0
1001
ACDBATTR
1070
     0
1070
     1
  0
ATTDEF
  5
FDB4
  8
DEFPOINTS
 10
4089.5951729097218958
 20
112.292002619895797
 30
0.0
 40
0.001
  1
WALL BRACKET
  3

  2
PRODUCT
 70
     0
1001
ACDBATTR
1070
     0
1070
     1
  0
LINE
  5
10A4C
  8
0
 10
4089.5938520172840072
 20
111.3029240729392058
 30
0.0
 11
4089.5938520172840072
 21
113.2876772746391936
 31
0.0
  0
LINE
  5
10A4D
  8
0
 10
4089.2006098089791521
 20
111.3063558456617983
 30
0.0
 11
4089.5938520172840072
 21
111.3029240729392058
 31
0.0
  0
ARC
  5
10A4E
  8
0
 10
4087.2441172187691336
 20
108.8181609234698044
 30
0.0
 40
3.157354041165457
 50
52.1822924415409801
 51
78.3724791481160139
  0
ARC
  5
10A4F
  8
0
 10
4089.2009657041007813
 20
111.3457579262861969
 30
0.0
 40
0.0394036878840705
 50
237.9447538396823063
 51
269.4824960104537013
  0
ARC
  5
10A50
  8
0
 10
4088.0184806208940245
 20
112.5852887409270977
 30
0.0
 40
0.6885390289484608
 50
156.1782570463014963
 51
258.4379102231039269
  0
ARC
  5
10A51
  8
0
 10
4088.0198141904979821
 20
112.5845412314555034
 30
0.0
 40
0.6900609157736703
 50
90.5627616620191986
 51
156.1662004415155138
  0
LINE
  5
10A52
  8
0
 10
4088.0130364908641241
 20
113.2745688615299002
 30
0.0
 11
4089.5938520172840072
 21
113.2876772746391936
 31
0.0
  0
ARC
  5
10A53
  8
0
 10
4088.0190490364939251
 20
112.5855906872707948
 30
0.0
 40
0.7204992764741498
 50
73.4716855422609001
 51
102.7929001707518069
  0
ARC
  5
10A54
  8
0
 10
4088.0190496590839757
 20
112.5856180704242036
 30
0.0
 40
0.7204734632504532
 50
186.553382499606613
 51
186.5540600759748884
  0
ARC
  5
10A55
  8
0
 10
4088.019047862187108
 20
112.5856178639761964
 30
0.0
 40
0.7204716545333192
 50
186.553382497917795
 51
273.7341321819956192
  0
LINE
  5
10A56
  8
0
 10
4087.768620834570811
 20
113.3498280786402006
 30
0.0
 11
4087.2500063100328589
 21
112.9195142387945054
 31
0.0
  0
LINE
  5
10A57
  8
0
 10
4087.7963613516571968
 20
113.3472463491252
 30
0.0
 11
4087.8397891502931998
 21
113.2949041713063991
 31
0.0
  0
ARC
  5
10A58
  8
0
 10
4087.7812002643049709
 20
113.3346673416009054
 30
0.0
 40
0.0197
 50
39.6821659261972925
 51
129.6837615303037978
  0
LINE
  5
10A59
  8
0
 10
4087.2856640579320811
 20
112.5446631232852042
 30
0.0
 11
4087.1718880260791593
 21
112.681786266538694
 31
0.0
  0
ARC
  5
10A5A
  8
0
 10
4087.2250980328258265
 20
112.4944093015129027
 30
0.0
 40
0.0787
 50
6.5533824996236278
 51
39.6837216192256506
  0
ARC
  5
10A5B
  8
0
 10
4087.9503281179090663
 20
112.6030169589620016
 30
0.0
 40
0.7947029190467124
 50
164.0281713697916075
 51
172.0911253221100878
  0
ARC
  5
10A5C
  8
0
 10
4087.3757367523958237
 20
112.7679838264570975
 30
0.0
 40
0.1969
 50
129.6837615303064126
 51
164.1711683206177952
  0
ARC
  5
10A5D
  8
0
 10
4087.2022095176807852
 20
112.7069451048846958
 30
0.0
 40
0.0394
 50
172.0911253220882884
 51
219.6837216192307096
  0
ARC
  5
10A5E
  8
0
 10
4087.8551041573127804
 20
113.3076108844908987
 30
0.0
 40
0.0199
 50
219.6821659261979107
 51
282.7929001706722261
  0
ARC
  5
10A5F
  8
0
 10
4088.0190480424389534
 20
112.5856185255734943
 30
0.0
 40
0.7204719091143696
 50
102.7933132882246952
 51
186.5534331319097987
  0
ENDSEC
  0
EOF
