  0
SECTION
  2
HEADER
  9
$ACADVER
  1
AC1009
  9
$INSBASE
 10
593.5426613832451039
 20
74.3405416991481189
 30
0.0
  9
$EXTMIN
 10
590.3861295115118537
 20
70.8252698377248038
 30
-0.0015258207003583
  9
$EXTMAX
 10
593.5726502791136454
 20
77.8562835320551301
 30
0.0000000349246037
  9
$LIMMIN
 10
0.0
 20
0.0
  9
$LIMMAX
 10
11.6929133858000007
 20
8.2677165353999982
  9
$ORTHOMODE
 70
     0
  9
$REGENMODE
 70
     1
  9
$FILLMODE
 70
     1
  9
$QTEXTMODE
 70
     0
  9
$MIRRTEXT
 70
     0
  9
$DRAGMODE
 70
     2
  9
$LTSCALE
 40
0.6431102362
  9
$OSMODE
 70
  4095
  9
$ATTMODE
 70
     1
  9
$TEXTSIZE
 40
0.2
  9
$TRACEWID
 40
0.05
  9
$TEXTSTYLE
  7
STANDARD
  9
$CLAYER
  8
0
  9
$CELTYPE
  6
BYLAYER
  9
$CECOLOR
 62
   256
  9
$DIMSCALE
 40
1.0
  9
$DIMASZ
 40
0.1875
  9
$DIMEXO
 40
0.0625
  9
$DIMDLI
 40
0.4443307087
  9
$DIMRND
 40
0.0
  9
$DIMDLE
 40
0.0
  9
$DIMEXE
 40
0.125
  9
$DIMTP
 40
0.01
  9
$DIMTM
 40
0.01
  9
$DIMTXT
 40
1.0
  9
$DIMCEN
 40
0.1052362205
  9
$DIMTSZ
 40
0.0
  9
$DIMTOL
 70
     1
  9
$DIMLIM
 70
     0
  9
$DIMTIH
 70
     0
  9
$DIMTOH
 70
     1
  9
$DIMSE1
 70
     0
  9
$DIMSE2
 70
     0
  9
$DIMTAD
 70
     0
  9
$DIMZIN
 70
     0
  9
$DIMBLK
  1

  9
$DIMASO
 70
     1
  9
$DIMSHO
 70
     1
  9
$DIMPOST
  1
\X
  9
$DIMAPOST
  1

  9
$DIMALT
 70
     1
  9
$DIMALTD
 70
     2
  9
$DIMALTF
 40
25.3999999999999986
  9
$DIMLFAC
 40
1.0
  9
$DIMTOFL
 70
     0
  9
$DIMTVP
 40
0.0
  9
$DIMTIX
 70
     0
  9
$DIMSOXD
 70
     0
  9
$DIMSAH
 70
     0
  9
$DIMBLK1
  1

  9
$DIMBLK2
  1

  9
$DIMSTYLE
  2
STANDARD
  9
$DIMCLRD
 70
     0
  9
$DIMCLRE
 70
     0
  9
$DIMCLRT
 70
     0
  9
$DIMTFAC
 40
1.0
  9
$DIMGAP
 40
0.09
  9
$LUNITS
 70
     2
  9
$LUPREC
 70
     4
  9
$SKETCHINC
 40
0.1
  9
$FILLETRAD
 40
0.0
  9
$AUNITS
 70
     0
  9
$AUPREC
 70
     0
  9
$MENU
  1
.
  9
$ELEVATION
 40
0.0
  9
$PELEVATION
 40
0.0
  9
$THICKNESS
 40
0.0
  9
$LIMCHECK
 70
     0
  9
$BLIPMODE
 70
     0
  9
$CHAMFERA
 40
0.0
  9
$CHAMFERB
 40
0.0
  9
$SKPOLY
 70
     0
  9
$TDCREATE
 40
2458171.8957638889551163
  9
$TDUPDATE
 40
2459051.9469097228720784
  9
$TDINDWG
 40
0.3398271065
  9
$TDUSRTIMER
 40
0.3398271065
  9
$USRTIMER
 70
     1
  9
$ANGBASE
 50
0.0
  9
$ANGDIR
 70
     0
  9
$PDMODE
 70
     0
  9
$PDSIZE
 40
0.3125
  9
$PLINEWID
 40
0.0
  9
$COORDS
 70
     1
  9
$SPLFRAME
 70
     0
  9
$SPLINETYPE
 70
     6
  9
$SPLINESEGS
 70
     8
  9
$ATTDIA
 70
     1
  9
$ATTREQ
 70
     1
  9
$HANDLING
 70
     1
  9
$HANDSEED
  5
8D0A
  9
$SURFTAB1
 70
     6
  9
$SURFTAB2
 70
     6
  9
$SURFTYPE
 70
     6
  9
$SURFU
 70
     6
  9
$SURFV
 70
     6
  9
$UCSNAME
  2

  9
$UCSORG
 10
0.0
 20
0.0
 30
0.0
  9
$UCSXDIR
 10
1.0
 20
0.0
 30
0.0
  9
$UCSYDIR
 10
0.0
 20
1.0
 30
0.0
  9
$PUCSNAME
  2

  9
$PUCSORG
 10
0.0
 20
0.0
 30
0.0
  9
$PUCSXDIR
 10
1.0
 20
0.0
 30
0.0
  9
$PUCSYDIR
 10
0.0
 20
1.0
 30
0.0
  9
$USERI1
 70
     0
  9
$USERI2
 70
     0
  9
$USERI3
 70
     0
  9
$USERI4
 70
     0
  9
$USERI5
 70
     0
  9
$USERR1
 40
0.0
  9
$USERR2
 40
0.0
  9
$USERR3
 40
0.0
  9
$USERR4
 40
0.0
  9
$USERR5
 40
0.0
  9
$WORLDVIEW
 70
     1
  9
$SHADEDGE
 70
     3
  9
$SHADEDIF
 70
    70
  9
$TILEMODE
 70
     1
  9
$MAXACTVP
 70
    64
  9
$PLIMCHECK
 70
     0
  9
$PEXTMIN
 10
1.0000000000000000E+20
 20
1.0000000000000000E+20
 30
1.0000000000000000E+20
  9
$PEXTMAX
 10
-1.0000000000000000E+20
 20
-1.0000000000000000E+20
 30
-1.0000000000000000E+20
  9
$PLIMMIN
 10
0.0
 20
0.0
  9
$PLIMMAX
 10
12.0
 20
9.0
  9
$UNITMODE
 70
     0
  9
$VISRETAIN
 70
     1
  9
$PLINEGEN
 70
     0
  9
$PSLTSCALE
 70
     1
  0
ENDSEC
  0
SECTION
  2
TABLES
  0
TABLE
  2
VPORT
 70
     1
  0
VPORT
  2
*ACTIVE
 70
     0
 10
0.0
 20
0.0
 11
1.0
 21
1.0
 12
125.2371881874827011
 22
-14.7923704350398104
 13
0.0
 23
0.0
 14
1.0
 24
1.0
 15
0.0
 25
0.0
 16
0.0
 26
0.0
 36
24.1179433675886514
 17
466.74220170783002
 27
89.133147119929788
 37
0.0
 40
7.114057163160985
 41
2.6528599605522678
 42
50.0
 43
0.0
 44
0.0
 50
0.0
 51
0.0
 71
     0
 72
   100
 73
     1
 74
     1
 75
     0
 76
     0
 77
     0
 78
     0
  0
ENDTAB
  0
TABLE
  2
LTYPE
 70
     2
  0
LTYPE
  2
CONTINUOUS
 70
     0
  3
Solid line
 72
    65
 73
     0
 40
0.0
  0
LTYPE
  2
PHANTOM2
 70
     0
  3
___ _ _ ___ _ _ ___ _ _ ___ _ _
 72
    65
 73
     6
 40
1.25
 49
0.625
 49
-0.125
 49
0.125
 49
-0.125
 49
0.125
 49
-0.125
  0
ENDTAB
  0
TABLE
  2
LAYER
 70
     2
  0
LAYER
  2
0
 70
     0
 62
   255
  6
CONTINUOUS
  0
LAYER
  2
DEFPOINTS
 70
     0
 62
     7
  6
CONTINUOUS
  0
ENDTAB
  0
TABLE
  2
STYLE
 70
     1
  0
STYLE
  2
STANDARD
 70
     0
 40
0.0
 41
0.8
 50
0.0
 71
     0
 42
0.2
  3
txt
  4

  0
ENDTAB
  0
TABLE
  2
VIEW
 70
     0
  0
ENDTAB
  0
TABLE
  2
UCS
 70
     0
  0
ENDTAB
  0
TABLE
  2
APPID
 70
    10
  0
APPID
  2
ACAD
 70
     0
  0
APPID
  2
ACAD_MLEADERVER
 70
     0
  0
APPID
  2
ACAD_EXEMPT_FROM_CAD_STANDARDS
 70
     0
  0
APPID
  2
ACAD_DSTYLE_DIMJAG
 70
     0
  0
APPID
  2
ACAD_DSTYLE_DIMTALN
 70
     0
  0
APPID
  2
ACAD_NAV_VCDISPLAY
 70
     0
  0
APPID
  2
ACAECLAYERSTANDARD
 70
     0
  0
APPID
  2
ACCMTRANSPARENCY
 70
     0
  0
APPID
  2
DCO15
 70
     0
  0
APPID
  2
ACDBATTR
 70
     0
  0
ENDTAB
  0
TABLE
  2
DIMSTYLE
 70
     1
  0
DIMSTYLE
  2
STANDARD
 70
     0
  3

  4

  5

  6

  7

 40
1.0
 41
0.1875
 42
0.0625
 43
0.38
 44
0.125
 45
0.0
 46
0.0
 47
0.01
 48
0.01
140
0.15625
141
0.09
142
0.0
143
25.3999999999999986
144
1.0
145
0.0
146
1.0
147
0.09
 71
     1
 72
     0
 73
     1
 74
     1
 75
     0
 76
     0
 77
     0
 78
     4
170
     0
171
     2
172
     0
173
     0
174
     0
175
     0
176
     0
177
     0
178
     0
  0
ENDTAB
  0
ENDSEC
  0
SECTION
  2
BLOCKS
  0
BLOCK
  8
0
  2
$MODEL_SPACE
 70
     0
 10
0.0
 20
0.0
 30
0.0
  3
$MODEL_SPACE
  1

  0
ENDBLK
  5
21
  8
0
  0
BLOCK
 67
     1
  8
0
  2
$PAPER_SPACE
 70
     0
 10
0.0
 20
0.0
 30
0.0
  3
$PAPER_SPACE
  1

  0
ENDBLK
  5
1D
 67
     1
  8
0
  0
ENDSEC
  0
SECTION
  2
ENTITIES
  0
ATTDEF
  5
829
  8
DEFPOINTS
 10
593.546586557080559
 20
74.339999705924555
 30
0.0
 40
0.001
  1
K-9105IN-4
  3

  2
MODELNUMBER
 70
     0
1001
ACDBATTR
1070
     0
1070
     1
  0
ATTDEF
  5
82A
  8
DEFPOINTS
 10
593.546586557080559
 20
74.3383330392578898
 30
0.0
 40
0.001
  1
STANCE
  3

  2
TRADENAME
 70
     0
1001
ACDBATTR
1070
     0
1070
     1
  0
ATTDEF
  5
82B
  8
DEFPOINTS
 10
593.546586557080559
 20
74.3366663725912247
 30
0.0
 40
0.001
  1
VALVE TRIM
  3

  2
PRODUCT
 70
     0
1001
ACDBATTR
1070
     0
1070
     1
  0
LINE
  5
8C48
  8
DEFPOINTS
 10
591.9331121606930992
 20
72.3546279398032937
 30
0.0
 11
591.8733700446449575
 21
72.3525416991981132
 31
0.0
  0
LINE
  5
8C49
  8
DEFPOINTS
 10
592.3221889423450648
 20
72.4386834313981183
 30
0.0
 11
591.9714016194450323
 21
72.4316676849981036
 31
0.0
  0
LINE
  5
8C4A
  8
DEFPOINTS
 10
592.3418742927450467
 20
72.342699179498112
 30
0.0
 11
592.5985929898450877
 21
72.342699179498112
 31
0.0
  0
LINE
  5
8C4B
  8
DEFPOINTS
 10
591.8366960424892795
 20
72.3538223835000451
 30
0.0
 11
591.8733700446449575
 21
72.3525416991981132
 31
0.0
  0
LINE
  5
8C4C
  8
DEFPOINTS
 10
591.8366960423854835
 20
73.2961429044925552
 30
0.0
 11
591.8733700446449575
 21
73.2974235888981127
 31
0.0
  0
LINE
  5
8C4D
  8
DEFPOINTS
 10
592.3418742927450467
 20
73.3072661085981139
 30
0.0
 11
592.5985928207450115
 21
73.3072661085981139
 31
0.0
  0
LINE
  5
8C4E
  8
DEFPOINTS
 10
592.3221889423450648
 20
73.21128185659812
 30
0.0
 11
591.9714016194450323
 21
73.2182976030981223
 31
0.0
  0
LINE
  5
8C4F
  8
DEFPOINTS
 10
591.9331121606930992
 20
73.2953373482929464
 30
0.0
 11
591.8733700446449575
 21
73.2974235888981127
 31
0.0
  0
LINE
  5
8C50
  8
DEFPOINTS
 10
592.3221889423450648
 20
72.3623845172980964
 30
0.0
 11
592.3418742927450467
 21
72.342699179498112
 31
0.0
  0
LINE
  5
8C51
  8
DEFPOINTS
 10
591.798699959545047
 20
72.3931684790981222
 30
0.0
 11
591.798699959545047
 21
73.2567968089981179
 31
0.0
  0
LINE
  5
8C52
  8
DEFPOINTS
 10
591.9521102021450361
 20
72.3743009875981187
 30
0.0
 11
591.9521102021450361
 21
73.2756643004981214
 31
0.0
  0
LINE
  5
8C53
  8
DEFPOINTS
 10
592.3221889423450648
 20
73.2875807707981437
 30
0.0
 11
592.3221889423450648
 21
72.3623845172980964
 31
0.0
  0
LINE
  5
8C54
  8
DEFPOINTS
 10
592.3418741859450165
 20
73.3072661085981139
 30
0.0
 11
592.3418741859450165
 21
72.342699179498112
 31
0.0
  0
LINE
  5
8C55
  8
DEFPOINTS
 10
592.3221889423450648
 20
73.2875807707981437
 30
0.0
 11
592.3418742927450467
 21
73.3072661085981139
 31
0.0
  0
ARC
  5
8C56
  8
DEFPOINTS
 10
574.6050066438449448
 20
72.8249826439981121
 30
0.0
 40
18.0000507039000013
 50
358.3706398999003113
 51
1.6293601000997751
  0
ARC
  5
8C57
  8
DEFPOINTS
 10
591.8380700383448811
 20
72.3931684790981222
 30
0.0
 40
0.0393700787
 50
180.0
 51
268.0000001149563786
  0
ARC
  5
8C58
  8
DEFPOINTS
 10
591.8380700383448811
 20
73.2567968089981179
 30
0.0
 40
0.0393700787
 50
92.0000000410784935
 51
180.0
  0
ARC
  5
8C59
  8
DEFPOINTS
 10
591.9324251627449485
 20
72.3743009875981187
 30
0.0
 40
0.0196850394
 50
271.999999944159697
 51
0.0
  0
ARC
  5
8C5A
  8
DEFPOINTS
 10
591.9717952415448963
 20
72.4119865813981249
 30
0.0
 40
0.0196850394
 50
91.1457628382020459
 51
179.9988870123000879
  0
ARC
  5
8C5B
  8
DEFPOINTS
 10
591.9324251627449485
 20
73.2756643004981214
 30
0.0
 40
0.0196850394
 50
0.0
 51
88.0000000558404025
  0
ARC
  5
8C5C
  8
DEFPOINTS
 10
591.9717952415448963
 20
73.2379787065981134
 30
0.0
 40
0.0196850394
 50
180.0010999906999984
 51
268.8542371617979825
  0
LINE
  5
8C5D
  8
0
 10
590.4166760703576529
 20
76.3486047105461694
 30
0.0
 11
591.384862052211929
 21
76.3486047105461694
 31
0.0
  0
LINE
  5
8C5E
  8
0
 10
591.9402991784448886
 20
76.3486047105461694
 30
0.0
 11
592.5993694338832256
 21
76.3486047105461694
 31
0.0
  0
LINE
  5
8C5F
  8
0
 10
590.4560472099450408
 20
70.8958487857481146
 30
0.0
 11
590.8379369737449451
 21
70.8958487857481146
 31
0.0
  0
LINE
  5
8C60
  8
0
 10
593.5426613832451039
 20
77.8523527227481225
 30
0.0
 11
593.5426613832451039
 21
70.8287306755481154
 31
0.0
  0
LINE
  5
8C61
  8
0
 10
592.5977794934450458
 20
77.7516492066081639
 30
0.0
 11
592.5977794934450458
 21
76.3777738100793613
 31
0.0
  0
LINE
  5
8C62
  8
0
 10
592.5977794934450458
 20
74.3899437756481205
 30
0.0
 11
592.5977794934450458
 21
70.9286971151344829
 31
0.0
  0
LINE
  5
8C63
  8
0
 10
592.8801291239254851
 20
77.637507600948112
 30
0.0
 11
592.8801291239254851
 21
71.0435757973481259
 31
0.0
  0
LINE
  5
8C64
  8
0
 10
592.6157489642799874
 20
70.909824960409793
 30
0.0
 11
593.5426613832451039
 21
70.8287306755481154
 31
0.0
  0
ARC
  5
8C65
  8
0
 10
592.6174819477754454
 20
70.9294661118738077
 30
0.0
 40
0.0197174557848547
 50
182.2351486671302041
 51
264.9577205247597931
  0
ARC
  5
8C66
  8
0
 10
592.1856958909231707
 20
71.0383376430913529
 30
0.0
 40
0.69445298858752
 50
347.5085094938850148
 51
0.4321775300296422
  0
LINE
  5
8C67
  8
0
 10
592.6157489642799874
 20
77.7712584378864449
 30
0.0
 11
593.5426613832451039
 21
77.8523527227481225
 31
0.0
  0
ARC
  5
8C68
  8
0
 10
592.6174689641004534
 20
77.7516442369084473
 30
0.0
 40
0.0196894712825661
 50
95.0115364240586899
 51
179.9855383205498924
  0
ARC
  5
8C69
  8
0
 10
592.1856958909231707
 20
77.6427457552048708
 30
0.0
 40
0.69445298858752
 50
359.5678224699703946
 51
12.4914905061149994
  0
LINE
  5
8C6A
  8
0
 10
590.3969920918450498
 20
70.9549039038481197
 30
0.0
 11
590.3969920918450498
 21
76.3289282109481206
 31
0.0
  0
LINE
  5
8C6B
  8
0
 10
590.8969920918450498
 20
70.9549039038481197
 30
0.0
 11
590.8969920918450498
 21
74.3429933642829184
 31
0.0
  0
LINE
  5
8C6C
  8
0
 10
591.9402991784448886
 20
76.3486047105461694
 30
0.0
 11
591.9402991784448886
 21
74.4194708330481234
 31
0.0
  0
LINE
  5
8C6D
  8
0
 10
591.928488154845013
 20
76.3367936676481236
 30
0.0
 11
591.928488154845013
 21
74.4312818566481127
 31
0.0
  0
LINE
  5
8C6E
  8
0
 10
591.8852086480450225
 20
76.3143294676481219
 30
0.0
 11
591.8852086480450225
 21
74.4537460566481144
 31
0.0
  0
LINE
  5
8C6F
  8
0
 10
591.8143149265450802
 20
74.4194708330481234
 30
0.0
 11
591.3025039029449772
 21
74.4194708330481234
 31
0.0
  0
LINE
  5
8C70
  8
0
 10
591.9402991784448886
 20
74.4194708330481234
 30
0.0
 11
592.5993886503439398
 21
74.4194708330481234
 31
0.0
  0
LINE
  5
8C71
  8
0
 10
591.8143149265450802
 20
74.4194708330481234
 30
0.0
 11
591.8143149265450802
 21
75.384037762148111
 31
0.0
  0
ARC
  5
8C72
  8
0
 10
591.1450235879450474
 20
73.4678630988167072
 30
0.0
 40
0.964550325002035
 50
80.603359400310481
 51
99.3966405996895332
  0
ARC
  5
8C73
  8
0
 10
590.9770567941742456
 20
74.3400409450892994
 30
0.0
 40
0.0801191196791396
 50
82.4792006110698139
 51
177.8881511849872936
  0
ARC
  5
8C74
  8
0
 10
590.4166205576958646
 20
76.3289762643739635
 30
0.0
 40
0.0196285246717885
 50
89.8379579962217747
 51
180.1402683741426927
  0
ARC
  5
8C75
  8
0
 10
580.4962432550828453
 20
75.3823999379132772
 30
0.0
 40
9.9458907746014713
 50
354.5390237663705193
 51
5.4609762336294647
  0
LINE
  5
8C76
  8
0
 10
591.384862052211929
 20
76.3486047105461694
 30
0.0
 11
591.8143149265450802
 21
75.384037762148111
 31
0.0
  0
ARC
  5
8C77
  8
0
 10
591.9402992113889468
 20
76.3367936540023067
 30
0.0
 40
0.0118110565439122
 50
90.0001598118461459
 51
179.9999338037791858
  0
ARC
  5
8C78
  8
0
 10
591.9042229379142555
 20
76.3092346128380541
 30
0.0
 40
0.0196850391100414
 50
89.9999996191785954
 51
165.0000247549251071
  0
ARC
  5
8C79
  8
0
 10
591.4347642436779324
 20
76.4002379523720521
 30
0.0
 40
0.4585634407290002
 50
340.7977440616953118
 51
349.2022559499602039
  0
ARC
  5
8C7A
  8
0
 10
591.7917576315356882
 20
76.2697941328748641
 30
0.0
 40
0.0787401575268603
 50
270.7269321706847904
 51
344.9999999665631094
  0
ARC
  5
8C7B
  8
0
 10
591.8030011914731858
 20
75.3836399759442202
 30
0.0
 40
0.8074853259058382
 50
90.7269321706848473
 51
113.2551270535533945
  0
LINE
  5
8C7C
  8
0
 10
591.9042229379142555
 20
76.3289196519481123
 30
0.0
 11
591.928488154845013
 21
76.3289196519481123
 31
0.0
  0
ARC
  5
8C7D
  8
0
 10
591.9402420334931776
 20
74.4312247116963306
 30
0.0
 40
0.0117540175609114
 50
179.721441844070398
 51
270.2785581559572279
  0
ARC
  5
8C7E
  8
0
 10
591.9042229379142555
 20
74.458840911458168
 30
0.0
 40
0.0196850391100414
 50
194.9999752450740971
 51
270.0000003808214046
  0
ARC
  5
8C7F
  8
0
 10
591.4347642436779324
 20
74.3678375719241842
 30
0.0
 40
0.4585634407290002
 50
10.7977440500397908
 51
19.2022559383046882
  0
ARC
  5
8C80
  8
0
 10
591.7917576315356882
 20
74.4982813914213722
 30
0.0
 40
0.0787401575268603
 50
15.0000000334369403
 51
73.3528051227632858
  0
LINE
  5
8C81
  8
0
 10
591.9042229379142555
 20
74.4391558723481239
 30
0.0
 11
591.928488154845013
 21
74.4391558723481239
 31
0.0
  0
ARC
  5
8C82
  8
0
 10
574.6317455210852359
 20
75.383858792863748
 30
0.0
 40
17.9935055994498185
 50
356.8335167114607884
 51
3.166483288539248
  0
ARC
  5
8C83
  8
0
 10
590.4560472099450408
 20
70.9549039038481197
 30
0.0
 40
0.0590551180999981
 50
179.9999999999959073
 51
270.0
  0
ARC
  5
8C84
  8
0
 10
590.8379369737449451
 20
70.9549039038481197
 30
0.0
 40
0.0590551180999981
 50
270.0
 51
0.0000000000040711
  0
ENDSEC
  0
EOF
