  0
SECTION
  2
HEADER
  9
$ACADVER
  1
AC1009
  9
$INSBASE
 10
924.0867062083415249
 20
394.9626504617428964
 30
0.0
  9
$EXTMIN
 10
887.0560828828414515
 20
385.8682217759176751
 30
0.0
  9
$EXTMAX
 10
928.9845636372441504
 20
417.4397619780742161
 30
0.0
  9
$LIMMIN
 10
0.0
 20
0.0
  9
$LIMMAX
 10
11.6929133858000007
 20
8.2677165353999982
  9
$ORTHOMODE
 70
     0
  9
$REGENMODE
 70
     1
  9
$FILLMODE
 70
     1
  9
$QTEXTMODE
 70
     0
  9
$MIRRTEXT
 70
     0
  9
$DRAGMODE
 70
     2
  9
$LTSCALE
 40
0.6431102362
  9
$OSMODE
 70
  4095
  9
$ATTMODE
 70
     1
  9
$TEXTSIZE
 40
0.2
  9
$TRACEWID
 40
0.05
  9
$TEXTSTYLE
  7
STANDARD
  9
$CLAYER
  8
0
  9
$CELTYPE
  6
BYLAYER
  9
$CECOLOR
 62
   256
  9
$DIMSCALE
 40
1.0
  9
$DIMASZ
 40
0.1875
  9
$DIMEXO
 40
0.0625
  9
$DIMDLI
 40
0.4443307087
  9
$DIMRND
 40
0.0
  9
$DIMDLE
 40
0.0
  9
$DIMEXE
 40
0.125
  9
$DIMTP
 40
0.01
  9
$DIMTM
 40
0.01
  9
$DIMTXT
 40
0.15625
  9
$DIMCEN
 40
0.1052362205
  9
$DIMTSZ
 40
0.0
  9
$DIMTOL
 70
     1
  9
$DIMLIM
 70
     0
  9
$DIMTIH
 70
     1
  9
$DIMTOH
 70
     1
  9
$DIMSE1
 70
     0
  9
$DIMSE2
 70
     0
  9
$DIMTAD
 70
     0
  9
$DIMZIN
 70
     0
  9
$DIMBLK
  1
_FILLED
  9
$DIMASO
 70
     1
  9
$DIMSHO
 70
     1
  9
$DIMPOST
  1

  9
$DIMAPOST
  1

  9
$DIMALT
 70
     1
  9
$DIMALTD
 70
     2
  9
$DIMALTF
 40
25.3999999999999986
  9
$DIMLFAC
 40
1.0
  9
$DIMTOFL
 70
     0
  9
$DIMTVP
 40
0.0
  9
$DIMTIX
 70
     0
  9
$DIMSOXD
 70
     0
  9
$DIMSAH
 70
     0
  9
$DIMBLK1
  1

  9
$DIMBLK2
  1

  9
$DIMSTYLE
  2
STANDARD
  9
$DIMCLRD
 70
     0
  9
$DIMCLRE
 70
     0
  9
$DIMCLRT
 70
     0
  9
$DIMTFAC
 40
1.0
  9
$DIMGAP
 40
0.09
  9
$LUNITS
 70
     2
  9
$LUPREC
 70
     4
  9
$SKETCHINC
 40
0.1
  9
$FILLETRAD
 40
0.0
  9
$AUNITS
 70
     0
  9
$AUPREC
 70
     0
  9
$MENU
  1
.
  9
$ELEVATION
 40
0.0
  9
$PELEVATION
 40
0.0
  9
$THICKNESS
 40
0.0
  9
$LIMCHECK
 70
     0
  9
$BLIPMODE
 70
     0
  9
$CHAMFERA
 40
0.0
  9
$CHAMFERB
 40
0.0
  9
$SKPOLY
 70
     0
  9
$TDCREATE
 40
2459868.5124768521636724
  9
$TDUPDATE
 40
2459951.7494212961755693
  9
$TDINDWG
 40
0.3621064815
  9
$TDUSRTIMER
 40
0.3621064815
  9
$USRTIMER
 70
     1
  9
$ANGBASE
 50
0.0
  9
$ANGDIR
 70
     0
  9
$PDMODE
 70
     0
  9
$PDSIZE
 40
0.3125
  9
$PLINEWID
 40
0.0
  9
$COORDS
 70
     1
  9
$SPLFRAME
 70
     0
  9
$SPLINETYPE
 70
     6
  9
$SPLINESEGS
 70
     8
  9
$ATTDIA
 70
     1
  9
$ATTREQ
 70
     1
  9
$HANDLING
 70
     1
  9
$HANDSEED
  5
6A58
  9
$SURFTAB1
 70
     6
  9
$SURFTAB2
 70
     6
  9
$SURFTYPE
 70
     6
  9
$SURFU
 70
     6
  9
$SURFV
 70
     6
  9
$UCSNAME
  2

  9
$UCSORG
 10
0.0
 20
0.0
 30
0.0
  9
$UCSXDIR
 10
1.0
 20
0.0
 30
0.0
  9
$UCSYDIR
 10
0.0
 20
1.0
 30
0.0
  9
$PUCSNAME
  2

  9
$PUCSORG
 10
0.0
 20
0.0
 30
0.0
  9
$PUCSXDIR
 10
1.0
 20
0.0
 30
0.0
  9
$PUCSYDIR
 10
0.0
 20
1.0
 30
0.0
  9
$USERI1
 70
     0
  9
$USERI2
 70
     0
  9
$USERI3
 70
     0
  9
$USERI4
 70
     0
  9
$USERI5
 70
     0
  9
$USERR1
 40
0.0
  9
$USERR2
 40
0.0
  9
$USERR3
 40
0.0
  9
$USERR4
 40
0.0
  9
$USERR5
 40
0.0
  9
$WORLDVIEW
 70
     1
  9
$SHADEDGE
 70
     3
  9
$SHADEDIF
 70
    70
  9
$TILEMODE
 70
     1
  9
$MAXACTVP
 70
    64
  9
$PLIMCHECK
 70
     0
  9
$PEXTMIN
 10
1.0000000000000000E+20
 20
1.0000000000000000E+20
 30
1.0000000000000000E+20
  9
$PEXTMAX
 10
-1.0000000000000000E+20
 20
-1.0000000000000000E+20
 30
-1.0000000000000000E+20
  9
$PLIMMIN
 10
0.0
 20
0.0
  9
$PLIMMAX
 10
12.0
 20
9.0
  9
$UNITMODE
 70
     0
  9
$VISRETAIN
 70
     1
  9
$PLINEGEN
 70
     0
  9
$PSLTSCALE
 70
     1
  0
ENDSEC
  0
SECTION
  2
TABLES
  0
TABLE
  2
VPORT
 70
     1
  0
VPORT
  2
*ACTIVE
 70
     0
 10
0.0
 20
0.0
 11
1.0
 21
1.0
 12
923.5343937737927718
 22
394.2549843768409801
 13
0.0
 23
0.0
 14
1.0
 24
1.0
 15
0.0
 25
0.0
 16
0.0
 26
0.0
 36
1.0
 17
0.0
 27
0.0
 37
0.0
 40
9.1200505046579678
 41
2.5801630434782599
 42
50.0
 43
0.0
 44
0.0
 50
0.0
 51
0.0
 71
     0
 72
   100
 73
     1
 74
     1
 75
     0
 76
     0
 77
     0
 78
     0
  0
ENDTAB
  0
TABLE
  2
LTYPE
 70
     1
  0
LTYPE
  2
CONTINUOUS
 70
     0
  3
Solid line
 72
    65
 73
     0
 40
0.0
  0
ENDTAB
  0
TABLE
  2
LAYER
 70
     2
  0
LAYER
  2
0
 70
     0
 62
     7
  6
CONTINUOUS
  0
LAYER
  2
DEFPOINTS
 70
     0
 62
     7
  6
CONTINUOUS
  0
ENDTAB
  0
TABLE
  2
STYLE
 70
     1
  0
STYLE
  2
STANDARD
 70
     0
 40
0.0
 41
0.8
 50
0.0
 71
     0
 42
0.2
  3
txt
  4

  0
ENDTAB
  0
TABLE
  2
VIEW
 70
     0
  0
ENDTAB
  0
TABLE
  2
UCS
 70
     0
  0
ENDTAB
  0
TABLE
  2
APPID
 70
    12
  0
APPID
  2
ACAD
 70
     0
  0
APPID
  2
ACAD_DSTYLE_DIMRADIAL_EXTENSION
 70
     0
  0
APPID
  2
ACAD_NAV_VCDISPLAY
 70
     0
  0
APPID
  2
ACAD_MLEADERVER
 70
     0
  0
APPID
  2
ACAD_EXEMPT_FROM_CAD_STANDARDS
 70
     0
  0
APPID
  2
ACAECLAYERSTANDARD
 70
     0
  0
APPID
  2
ACCMTRANSPARENCY
 70
     0
  0
APPID
  2
ACAD_DSTYLE_DIMJAG
 70
     0
  0
APPID
  2
ACAD_DSTYLE_DIMTALN
 70
     0
  0
APPID
  2
ACDBATTR
 70
     0
  0
APPID
  2
ACADANNOTATIVE
 70
     0
  0
APPID
  2
DCO15
 70
     0
  0
ENDTAB
  0
TABLE
  2
DIMSTYLE
 70
     1
  0
DIMSTYLE
  2
STANDARD
 70
     0
  3

  4

  5
_FILLED
  6
_FILLED
  7
_FILLED
 40
1.0
 41
0.1875
 42
0.0625
 43
0.38
 44
0.125
 45
0.0
 46
0.0
 47
0.01
 48
0.01
140
0.15625
141
0.09
142
0.0
143
25.3999999999999986
144
1.0
145
0.0
146
1.0
147
0.09
 71
     1
 72
     0
 73
     1
 74
     1
 75
     0
 76
     0
 77
     0
 78
     4
170
     1
171
     2
172
     0
173
     0
174
     0
175
     0
176
     0
177
     0
178
     0
  0
ENDTAB
  0
ENDSEC
  0
SECTION
  2
BLOCKS
  0
BLOCK
  8
0
  2
$MODEL_SPACE
 70
     0
 10
0.0
 20
0.0
 30
0.0
  3
$MODEL_SPACE
  1

  0
ENDBLK
  5
21
  8
0
  0
BLOCK
 67
     1
  8
0
  2
$PAPER_SPACE
 70
     0
 10
0.0
 20
0.0
 30
0.0
  3
$PAPER_SPACE
  1

  0
ENDBLK
  5
1D
 67
     1
  8
0
  0
BLOCK
  8
0
  2
_FILLED
 70
     0
 10
0.0
 20
0.0
 30
0.0
  3
_FILLED
  1

  0
SOLID
  5
212
  8
0
  6
BYBLOCK
 62
     0
 10
0.0
 20
0.0
 30
0.0
 11
-1.0
 21
0.1666666667
 31
0.0
 12
-1.0
 22
-0.1666666667
 32
0.0
 13
-1.0
 23
-0.1666666667
 33
0.0
  0
ENDBLK
  5
213
  8
0
  6
BYBLOCK
 62
     0
  0
ENDSEC
  0
SECTION
  2
ENTITIES
  0
LINE
  5
D45
  8
0
 10
-1.607698385787991
 20
273788.254113320785109
 30
0.0
 11
-1.607698385787991
 21
273788.2541133213089779
 31
0.0
  0
LINE
  5
673F
  8
0
 10
919.3308416414414523
 20
391.065012666542998
 30
0.0
 11
919.6693424288414462
 21
391.065012666542998
 31
0.0
  0
LINE
  5
6741
  8
0
 10
914.6654873107414687
 20
395.4350914066429254
 30
0.0
 11
924.0591062083415181
 21
395.4350914066429254
 31
0.0
  0
LINE
  5
674D
  8
0
 10
914.6654873107414687
 20
394.490209516842981
 30
0.0
 11
919.0123294650265962
 21
394.490209516842981
 31
0.0
  0
LINE
  5
674E
  8
0
 10
919.9669081596367732
 20
394.490209516842981
 30
0.0
 11
924.0591062083415181
 21
394.490209516842981
 31
0.0
  0
LINE
  5
6902
  8
0
 10
919.3032416414415593
 20
391.0926126665430047
 30
0.0
 11
919.3032416414415593
 21
394.1753353154820729
 31
0.0
  0
ARC
  5
6903
  8
0
 10
919.3308416414414523
 20
391.0926126665430047
 30
0.0
 40
0.0276
 50
180.0
 51
270.0
  0
LINE
  5
6904
  8
0
 10
919.696942428841453
 20
391.0926126665430047
 30
0.0
 11
919.696942428841453
 21
394.1753414741148163
 31
0.0
  0
ARC
  5
6905
  8
0
 10
919.6693424288414462
 20
391.0926126665430047
 30
0.0
 40
0.0276
 50
270.0
 51
0.0000000000032569
  0
LINE
  5
6906
  8
0
 10
914.6378873107413483
 20
395.4074914066429187
 30
0.0
 11
914.6378873107413483
 21
394.517809516842874
 31
0.0
  0
ARC
  5
6907
  8
0
 10
914.6654873107414687
 20
395.4074914066429187
 30
0.0
 40
0.0276
 50
90.0
 51
180.0
  0
ARC
  5
6908
  8
0
 10
914.6654873107414687
 20
394.517809516842874
 30
0.0
 40
0.0276
 50
180.0
 51
270.0
  0
LINE
  5
6909
  8
0
 10
924.0867062083415249
 20
395.4074914066429187
 30
0.0
 11
924.0867062083415249
 21
394.517809516842874
 31
0.0
  0
ARC
  5
690A
  8
0
 10
924.0591062083415181
 20
395.4074914066429187
 30
0.0
 40
0.0276
 50
0.0
 51
90.0
  0
ARC
  5
690B
  8
0
 10
924.0591062083415181
 20
394.517809516842874
 30
0.0
 40
0.0276
 50
270.0
 51
0.0
  0
ARC
  5
690C
  8
0
 10
920.1314614124023592
 20
394.1833116612884282
 30
0.0
 40
0.4345920742010875
 50
162.2728818478034896
 51
181.0508329911907879
  0
ARC
  5
690D
  8
0
 10
919.9483610140099472
 20
394.2403199890208043
 30
0.0
 40
0.2428319531042419
 50
128.1837249305945079
 51
161.9308258170229067
  0
ARC
  5
690E
  8
0
 10
919.9893549393304966
 20
394.1555388404668179
 30
0.0
 40
0.335422598440597
 50
93.8371524054027049
 51
124.7332112849101975
  0
ARC
  5
690F
  8
0
 10
919.0003585095306562
 20
394.1015369665627759
 30
0.0
 40
0.3888568568468126
 50
63.3460344742388415
 51
88.2358711227983576
  0
ARC
  5
6910
  8
0
 10
919.0575631100546161
 20
394.242858096521104
 30
0.0
 40
0.2372091984205344
 50
12.7949534402985492
 51
60.3807060388962
  0
ARC
  5
6911
  8
0
 10
918.8539973431628596
 20
394.1824891798646036
 30
0.0
 40
0.4493012545178756
 50
359.0876865955737003
 51
14.5534619021991993
  0
LINE
  5
693C
  8
0
 10
919.3032415933414541
 20
394.1752488869428817
 30
0.0
 11
919.6969424768668659
 21
394.1752488869428817
 31
0.0
  0
ATTDEF
  5
6941
  8
DEFPOINTS
 10
924.087550030012153
 20
394.9668987290929181
 30
0.0
 40
0.001
  1
K-9125T-DPR
  3

  2
MODELNUMBER
 70
     0
1001
ACDBATTR
1070
     0
1070
     1
  0
ATTDEF
  5
6942
  8
DEFPOINTS
 10
924.0874242203558424
 20
394.9652318887136744
 30
0.0
 40
0.001
  1
STRAYT
  3

  2
TRADENAME
 70
     0
1001
ACDBATTR
1070
     0
1070
     1
  0
ATTDEF
  5
6943
  8
DEFPOINTS
 10
924.087550030012153
 20
394.9635653957595878
 30
0.0
 40
0.001
  1
HOTELIER
  3

  2
PRODUCT
 70
     0
1001
ACDBATTR
1070
     0
1070
     1
  0
ENDSEC
  0
EOF
