  0
SECTION
  2
HEADER
  9
$ACADVER
  1
AC1009
  9
$INSBASE
 10
4149.5337546492155525
 20
118.9607364122658026
 30
0.0
  9
$EXTMIN
 10
4147.0261736636748537
 20
113.9453689478843046
 30
0.0
  9
$EXTMAX
 10
4152.0413207204674109
 20
120.3860960958455024
 30
0.0
  9
$LIMMIN
 10
0.0
 20
0.0
  9
$LIMMAX
 10
11.6929133858000007
 20
8.2677165353999982
  9
$ORTHOMODE
 70
     0
  9
$REGENMODE
 70
     1
  9
$FILLMODE
 70
     1
  9
$QTEXTMODE
 70
     0
  9
$MIRRTEXT
 70
     0
  9
$DRAGMODE
 70
     2
  9
$LTSCALE
 40
0.6431102362
  9
$OSMODE
 70
  4095
  9
$ATTMODE
 70
     1
  9
$TEXTSIZE
 40
0.2
  9
$TRACEWID
 40
0.05
  9
$TEXTSTYLE
  7
STANDARD
  9
$CLAYER
  8
0
  9
$CELTYPE
  6
BYLAYER
  9
$CECOLOR
 62
   256
  9
$DIMSCALE
 40
1.0
  9
$DIMASZ
 40
0.1875
  9
$DIMEXO
 40
0.0625
  9
$DIMDLI
 40
0.4443307087
  9
$DIMRND
 40
0.0
  9
$DIMDLE
 40
0.0
  9
$DIMEXE
 40
0.125
  9
$DIMTP
 40
0.01
  9
$DIMTM
 40
0.01
  9
$DIMTXT
 40
2.0
  9
$DIMCEN
 40
0.1052362205
  9
$DIMTSZ
 40
0.0
  9
$DIMTOL
 70
     1
  9
$DIMLIM
 70
     0
  9
$DIMTIH
 70
     1
  9
$DIMTOH
 70
     1
  9
$DIMSE1
 70
     0
  9
$DIMSE2
 70
     0
  9
$DIMTAD
 70
     0
  9
$DIMZIN
 70
     0
  9
$DIMBLK
  1

  9
$DIMASO
 70
     1
  9
$DIMSHO
 70
     1
  9
$DIMPOST
  1
\X
  9
$DIMAPOST
  1

  9
$DIMALT
 70
     1
  9
$DIMALTD
 70
     2
  9
$DIMALTF
 40
25.3999999999999986
  9
$DIMLFAC
 40
1.0
  9
$DIMTOFL
 70
     0
  9
$DIMTVP
 40
0.0
  9
$DIMTIX
 70
     0
  9
$DIMSOXD
 70
     0
  9
$DIMSAH
 70
     0
  9
$DIMBLK1
  1

  9
$DIMBLK2
  1

  9
$DIMSTYLE
  2
STANDARD
  9
$DIMCLRD
 70
     0
  9
$DIMCLRE
 70
     0
  9
$DIMCLRT
 70
     0
  9
$DIMTFAC
 40
1.0
  9
$DIMGAP
 40
0.09
  9
$LUNITS
 70
     2
  9
$LUPREC
 70
     4
  9
$SKETCHINC
 40
0.1
  9
$FILLETRAD
 40
0.0
  9
$AUNITS
 70
     0
  9
$AUPREC
 70
     0
  9
$MENU
  1
.
  9
$ELEVATION
 40
0.0
  9
$PELEVATION
 40
0.0
  9
$THICKNESS
 40
0.0
  9
$LIMCHECK
 70
     0
  9
$BLIPMODE
 70
     0
  9
$CHAMFERA
 40
0.0
  9
$CHAMFERB
 40
0.0
  9
$SKPOLY
 70
     0
  9
$TDCREATE
 40
2458060.468368056230247
  9
$TDUPDATE
 40
2459529.9104745369404554
  9
$TDINDWG
 40
0.3861991898
  9
$TDUSRTIMER
 40
0.3861991898
  9
$USRTIMER
 70
     1
  9
$ANGBASE
 50
0.0
  9
$ANGDIR
 70
     0
  9
$PDMODE
 70
     0
  9
$PDSIZE
 40
0.3125
  9
$PLINEWID
 40
0.0
  9
$COORDS
 70
     1
  9
$SPLFRAME
 70
     0
  9
$SPLINETYPE
 70
     6
  9
$SPLINESEGS
 70
     8
  9
$ATTDIA
 70
     1
  9
$ATTREQ
 70
     1
  9
$HANDLING
 70
     1
  9
$HANDSEED
  5
126DE
  9
$SURFTAB1
 70
     6
  9
$SURFTAB2
 70
     6
  9
$SURFTYPE
 70
     6
  9
$SURFU
 70
     6
  9
$SURFV
 70
     6
  9
$UCSNAME
  2

  9
$UCSORG
 10
0.0
 20
0.0
 30
0.0
  9
$UCSXDIR
 10
1.0
 20
0.0
 30
0.0
  9
$UCSYDIR
 10
0.0
 20
1.0
 30
0.0
  9
$PUCSNAME
  2

  9
$PUCSORG
 10
0.0
 20
0.0
 30
0.0
  9
$PUCSXDIR
 10
1.0
 20
0.0
 30
0.0
  9
$PUCSYDIR
 10
0.0
 20
1.0
 30
0.0
  9
$USERI1
 70
     0
  9
$USERI2
 70
     0
  9
$USERI3
 70
     0
  9
$USERI4
 70
     0
  9
$USERI5
 70
     0
  9
$USERR1
 40
0.0
  9
$USERR2
 40
0.0
  9
$USERR3
 40
0.0
  9
$USERR4
 40
0.0
  9
$USERR5
 40
0.0
  9
$WORLDVIEW
 70
     1
  9
$SHADEDGE
 70
     3
  9
$SHADEDIF
 70
    70
  9
$TILEMODE
 70
     1
  9
$MAXACTVP
 70
    64
  9
$PLIMCHECK
 70
     0
  9
$PEXTMIN
 10
1.0000000000000000E+20
 20
1.0000000000000000E+20
 30
1.0000000000000000E+20
  9
$PEXTMAX
 10
-1.0000000000000000E+20
 20
-1.0000000000000000E+20
 30
-1.0000000000000000E+20
  9
$PLIMMIN
 10
0.0
 20
0.0
  9
$PLIMMAX
 10
12.0
 20
9.0
  9
$UNITMODE
 70
     0
  9
$VISRETAIN
 70
     1
  9
$PLINEGEN
 70
     0
  9
$PSLTSCALE
 70
     1
  0
ENDSEC
  0
SECTION
  2
TABLES
  0
TABLE
  2
VPORT
 70
     1
  0
VPORT
  2
*ACTIVE
 70
     0
 10
0.0
 20
0.0
 11
1.0
 21
1.0
 12
-115.4726004641783987
 22
12.8617202232809493
 13
0.0
 23
0.0
 14
1.0
 24
1.0
 15
0.0
 25
0.0
 16
0.0
 26
0.0
 36
122.0237731519760018
 17
4265.00634765625
 27
104.3040122985839986
 37
0.0
 40
6.4917765044839788
 41
1.67063492063492
 42
50.0
 43
0.0
 44
0.0
 50
0.0
 51
0.0
 71
     0
 72
   100
 73
     1
 74
     1
 75
     0
 76
     0
 77
     0
 78
     0
  0
ENDTAB
  0
TABLE
  2
LTYPE
 70
     2
  0
LTYPE
  2
CONTINUOUS
 70
     0
  3
Solid line
 72
    65
 73
     0
 40
0.0
  0
LTYPE
  2
PHANTOM2
 70
     0
  3
___ _ _ ___ _ _ ___ _ _ ___ _ _
 72
    65
 73
     6
 40
1.25
 49
0.625
 49
-0.125
 49
0.125
 49
-0.125
 49
0.125
 49
-0.125
  0
ENDTAB
  0
TABLE
  2
LAYER
 70
     2
  0
LAYER
  2
0
 70
     0
 62
   255
  6
CONTINUOUS
  0
LAYER
  2
DEFPOINTS
 70
     0
 62
     7
  6
CONTINUOUS
  0
ENDTAB
  0
TABLE
  2
STYLE
 70
     1
  0
STYLE
  2
STANDARD
 70
     0
 40
0.0
 41
0.8
 50
0.0
 71
     0
 42
0.2
  3
txt
  4

  0
ENDTAB
  0
TABLE
  2
VIEW
 70
     0
  0
ENDTAB
  0
TABLE
  2
UCS
 70
     0
  0
ENDTAB
  0
TABLE
  2
APPID
 70
     9
  0
APPID
  2
ACAD
 70
     0
  0
APPID
  2
ACAD_MLEADERVER
 70
     0
  0
APPID
  2
ACAD_EXEMPT_FROM_CAD_STANDARDS
 70
     0
  0
APPID
  2
ACAD_NAV_VCDISPLAY
 70
     0
  0
APPID
  2
ACAECLAYERSTANDARD
 70
     0
  0
APPID
  2
ACCMTRANSPARENCY
 70
     0
  0
APPID
  2
ACAD_DSTYLE_DIMJAG
 70
     0
  0
APPID
  2
ACAD_DSTYLE_DIMTALN
 70
     0
  0
APPID
  2
ACDBATTR
 70
     0
  0
ENDTAB
  0
TABLE
  2
DIMSTYLE
 70
     1
  0
DIMSTYLE
  2
STANDARD
 70
     0
  3

  4

  5

  6

  7

 40
1.0
 41
0.1875
 42
0.0625
 43
0.38
 44
0.125
 45
0.0
 46
0.0
 47
0.01
 48
0.01
140
0.15625
141
0.09
142
0.0
143
25.3999999999999986
144
1.0
145
0.0
146
1.0
147
0.09
 71
     1
 72
     0
 73
     1
 74
     1
 75
     0
 76
     0
 77
     0
 78
     4
170
     0
171
     2
172
     0
173
     0
174
     0
175
     0
176
     0
177
     0
178
     0
  0
ENDTAB
  0
ENDSEC
  0
SECTION
  2
BLOCKS
  0
BLOCK
  8
0
  2
$MODEL_SPACE
 70
     0
 10
0.0
 20
0.0
 30
0.0
  3
$MODEL_SPACE
  1

  0
ENDBLK
  5
21
  8
0
  0
BLOCK
 67
     1
  8
0
  2
$PAPER_SPACE
 70
     0
 10
0.0
 20
0.0
 30
0.0
  3
$PAPER_SPACE
  1

  0
ENDBLK
  5
1D
 67
     1
  8
0
  0
ENDSEC
  0
SECTION
  2
ENTITIES
  0
ARC
  5
12060
  8
0
 10
4149.7452508251462859
 20
111.759687366966304
 30
0.0
 40
5.7581501284300201
 50
92.1049407037214678
 51
98.6577278350892328
  0
ARC
  5
12061
  8
0
 10
4149.4713524294111266
 20
114.3452265315661975
 30
0.0
 40
3.1630600860999278
 50
100.8034319526357052
 51
116.539507134602303
  0
ARC
  5
12062
  8
0
 10
4149.0298112197770024
 20
115.2292940856889061
 30
0.0
 40
2.174862696882145
 50
116.539507134602303
 51
140.0339096511090986
  0
ARC
  5
12063
  8
0
 10
4148.3921953622866567
 20
115.7281433419792052
 30
0.0
 40
1.366021698611894
 50
138.8916269599781117
 51
192.1072631108461053
  0
ARC
  5
12064
  8
0
 10
4148.5507002014282989
 20
115.8096869062212022
 30
0.0
 40
1.5388062795953279
 50
193.8383285261965909
 51
224.2228880710686099
  0
ARC
  5
12065
  8
0
 10
4149.256982628948208
 20
116.5433185357701973
 30
0.0
 40
2.5568381956860859
 50
224.9656778903319037
 51
256.1532064774581272
  0
ARC
  5
12066
  8
0
 10
4149.5370962406323088
 20
117.450242232685099
 30
0.0
 40
3.5048748777586449
 50
255.2553284603077941
 51
269.9453734810492165
  0
ARC
  5
12067
  8
0
 10
4149.5330491123149841
 20
114.4457443515810979
 30
0.0
 40
2.194825211222224
 50
89.981582001518575
 51
94.8876153668528559
  0
ARC
  5
12068
  8
0
 10
4149.5224787655542968
 20
114.5693560598197962
 30
0.0
 40
2.0707623777693991
 50
94.8876153668528559
 51
114.3109122542114022
  0
ARC
  5
12069
  8
0
 10
4149.2420987989216883
 20
115.1900136523925937
 30
0.0
 40
1.3897126197435621
 50
114.3109122542114022
 51
141.7326312910728916
  0
ARC
  5
1206A
  8
0
 10
4148.8204349227817147
 20
115.5226339614595048
 30
0.0
 40
0.8526495932334569
 50
141.7326312910728916
 51
185.4514364602117098
  0
ARC
  5
1206B
  8
0
 10
4148.8017936550395461
 20
115.5208549569473035
 30
0.0
 40
0.8339236294363228
 50
185.4514364602117098
 51
217.8474217031601938
  0
ARC
  5
1206C
  8
0
 10
4149.2755775583700597
 20
115.8889879001887948
 30
0.0
 40
1.433917838537375
 50
217.8474217031601938
 51
251.2607104627670935
  0
ARC
  5
1206D
  8
0
 10
4149.5699285996352046
 20
116.7552208153834954
 30
0.0
 40
2.3487959014466862
 50
251.2495029005933134
 51
269.117549281470076
  0
ARC
  5
1206E
  8
0
 10
4149.624361627145845
 20
113.5478864699171027
 30
0.0
 40
3.765130174428386
 50
91.3789426626768204
 51
105.4133805489690019
  0
ARC
  5
1206F
  8
0
 10
4149.2841506594813836
 20
115.0022503872202009
 30
0.0
 40
2.2734076833669259
 50
106.8896084009325023
 51
144.3269767967292125
  0
ARC
  5
12070
  8
0
 10
4148.2648271424632185
 20
115.733981140845799
 30
0.0
 40
1.018636657184667
 50
144.3269767967292125
 51
196.6785468138401995
  0
ARC
  5
12071
  8
0
 10
4148.8603050343654104
 20
115.9123900646552983
 30
0.0
 40
1.6402665018985889
 50
196.6785468138401995
 51
227.8465139096763892
  0
ARC
  5
12072
  8
0
 10
4149.6034921176860735
 20
117.2166389611918049
 30
0.0
 40
3.1228272349396029
 50
233.8081487624604051
 51
268.7203919733299813
  0
LINE
  5
12073
  8
0
 10
4148.815800540215605
 20
117.5951304556765962
 30
0.0
 11
4148.0580503990686339
 21
117.1749838496612028
 31
0.0
  0
ARC
  5
12074
  8
0
 10
4149.5839118589992722
 20
116.4815419853933065
 30
0.0
 40
1.352802379946678
 50
92.1248153481695056
 51
124.5964471494638985
  0
ARC
  5
12075
  8
0
 10
4149.5459894711557354
 20
117.4105791902629932
 30
0.0
 40
1.0009127830042801
 50
90.7002646151256755
 51
109.1431316411039063
  0
ARC
  5
12076
  8
0
 10
4149.4577947479319846
 20
117.6995737200120971
 30
0.0
 40
0.6990711674923795
 50
110.0817757225860021
 51
135.0822077762906872
  0
ARC
  5
12077
  8
0
 10
4149.2627864995611162
 20
117.8940299584438947
 30
0.0
 40
0.4236779112939693
 50
135.0828573257790879
 51
174.9587427460390927
  0
LINE
  5
12078
  8
0
 10
4148.8407475095118571
 20
117.9312598308070932
 30
0.0
 11
4148.815800540309283
 21
117.5951304557406019
 31
0.0
  0
ARC
  5
12079
  8
0
 10
4149.5372090606915663
 20
118.2825412342072013
 30
0.0
 40
0.6782039755858945
 50
90.2918355851826959
 51
100.4399639906065005
  0
ARC
  5
1207A
  8
0
 10
4149.5132853390887249
 20
118.4290800267964983
 30
0.0
 40
0.5297646262994141
 50
100.7672279793466004
 51
133.4685638298167021
  0
ARC
  5
1207B
  8
0
 10
4149.3155403731943807
 20
118.6315924862572047
 30
0.0
 40
0.2467865252964945
 50
132.4947994601411949
 51
180.8527901868303047
  0
ARC
  5
1207C
  8
0
 10
4149.6267305716919509
 20
118.5943243089910055
 30
0.0
 40
0.558959885726149
 50
176.5542774517325881
 51
198.3700042594134914
  0
LINE
  5
1207D
  8
0
 10
4149.0962546492155525
 20
118.7438309400974958
 30
0.0
 11
4149.0962546492155525
 21
118.2978957522324066
 31
0.0
  0
ARC
  5
1207E
  8
0
 10
4149.5295583304268803
 20
114.5548307429748007
 30
0.0
 40
1.973386789548186
 50
89.8781629943898395
 51
111.6693739462574939
  0
ARC
  5
1207F
  8
0
 10
4149.3012353170242932
 20
115.1294750480771967
 30
0.0
 40
1.3550442664789499
 50
111.6693739462574939
 51
143.0595980105794069
  0
ARC
  5
12080
  8
0
 10
4148.8576994774894047
 20
115.490682846089598
 30
0.0
 40
0.7837760434803469
 50
144.6783993408639901
 51
183.588179444881888
  0
ARC
  5
12081
  8
0
 10
4148.9071804174091085
 20
115.5176304244709939
 30
0.0
 40
0.83518561017851
 50
185.2210019999774886
 51
221.5648277595242917
  0
ARC
  5
12082
  8
0
 10
4149.3670092123111317
 20
115.9595519195967057
 30
0.0
 40
1.4726543454783561
 50
222.5595936624872024
 51
257.4779847626182914
  0
ARC
  5
12083
  8
0
 10
4149.5315822644888613
 20
116.4805072235919994
 30
0.0
 40
2.0174635834185422
 50
256.122968937214921
 51
270.0616955830843722
  0
ARC
  5
12084
  8
0
 10
4149.3886598228964431
 20
112.4650013464046054
 30
0.0
 40
5.0510351330070078
 50
80.882573998160737
 51
88.3539087138901351
  0
ARC
  5
12085
  8
0
 10
4149.5961321578333809
 20
114.3452260895809047
 30
0.0
 40
3.1630600860999269
 50
63.460086967879981
 51
79.1961621498042945
  0
ARC
  5
12086
  8
0
 10
4150.0376796304099116
 20
115.2292905156938048
 30
0.0
 40
2.1748626968821441
 50
39.9656844513418008
 51
63.460086967879981
  0
ARC
  5
12087
  8
0
 10
4150.6752990218546984
 20
115.7281352549425009
 30
0.0
 40
1.366021698611894
 50
347.8923309916264088
 51
41.1079671424925976
  0
ARC
  5
12088
  8
0
 10
4150.516794760393168
 20
115.8096799420702041
 30
0.0
 40
1.5388062795953279
 50
315.7767060313950083
 51
346.161265576269102
  0
ARC
  5
12089
  8
0
 10
4149.8105175301188865
 20
116.5433165750807945
 30
0.0
 40
2.5568381956860859
 50
283.8463876250024214
 51
315.0339162121302934
  0
ARC
  5
1208A
  8
0
 10
4149.5303462726551516
 20
117.4507348110300029
 30
0.0
 40
3.505367520180676
 50
270.0557104559150048
 51
284.743229411575328
  0
ARC
  5
1208B
  8
0
 10
4149.5344362801042735
 20
114.4457458012179956
 30
0.0
 40
2.1948237540307831
 50
85.111977921164879
 51
90.0177939452037918
  0
ARC
  5
1208C
  8
0
 10
4149.5450074094796946
 20
114.5693559800205037
 30
0.0
 40
2.0707623777693982
 50
65.6886818482423962
 51
85.1119787355870301
  0
ARC
  5
1208D
  8
0
 10
4149.8253917729980458
 20
115.1900115862963929
 30
0.0
 40
1.3897126197435621
 50
38.266962811375528
 51
65.6886818482423962
  0
ARC
  5
1208E
  8
0
 10
4150.247058005492363
 20
115.5226289081834068
 30
0.0
 40
0.8526495932334567
 50
354.5481576422562853
 51
38.266962811375528
  0
ARC
  5
1208F
  8
0
 10
4150.265699260630754
 20
115.5208497716117932
 30
0.0
 40
0.8339236294363226
 50
322.1521723993107003
 51
354.5481576422562853
  0
ARC
  5
12090
  8
0
 10
4149.7919179652581079
 20
115.8889860712470039
 30
0.0
 40
1.433917838537375
 50
288.7388836396846727
 51
322.1521723993107003
  0
ARC
  5
12091
  8
0
 10
4149.4886968968912697
 20
116.8065140035431995
 30
0.0
 40
2.4002334691419192
 50
271.0756331521586162
 51
288.5571529956977201
  0
ARC
  5
12092
  8
0
 10
4149.2788009738233086
 20
112.434684590387306
 30
0.0
 40
4.8839008757475231
 50
76.1991624663540961
 51
87.0076353315758269
  0
ARC
  5
12093
  8
0
 10
4149.7833385822777927
 20
115.0022486190346029
 30
0.0
 40
2.2734076833669259
 50
35.6726173057364306
 51
73.1099857015244226
  0
ARC
  5
12094
  8
0
 10
4150.8026672830328607
 20
115.7339721515008932
 30
0.0
 40
1.018636657184667
 50
343.3210472886324851
 51
35.6726173057364306
  0
ARC
  5
12095
  8
0
 10
4150.207190655039085
 20
115.9123852938191988
 30
0.0
 40
1.6402665018985889
 50
312.1530801928050209
 51
343.3210472886324851
  0
ARC
  5
12096
  8
0
 10
4149.4425061135898432
 20
117.2800454852569061
 30
0.0
 40
3.1867616462041801
 50
271.6408100875801779
 51
305.8303577364001171
  0
LINE
  5
12097
  8
0
 10
4150.2517070701378543
 20
117.5951253695174046
 30
0.0
 11
4151.0094542348424511
 21
117.1749733954223984
 31
0.0
  0
ARC
  5
12098
  8
0
 10
4149.4835878624362522
 20
116.481542340753407
 30
0.0
 40
1.352802379946678
 50
55.4031469529817286
 51
87.874778754287405
  0
ARC
  5
12099
  8
0
 10
4149.5329172158144502
 20
117.4757520716068058
 30
0.0
 40
0.935665523306268
 50
70.2071978302220145
 51
89.9485941184969846
  0
ARC
  5
1209A
  8
0
 10
4149.6097136023399798
 20
117.6995731818965965
 30
0.0
 40
0.6990711674923793
 50
44.9173863261735988
 51
69.9178183798902353
  0
ARC
  5
1209B
  8
0
 10
4149.8047232282815457
 20
117.8940280388367938
 30
0.0
 40
0.4236779112939513
 50
5.0408513564276562
 51
44.9167367767026704
  0
LINE
  5
1209C
  8
0
 10
4150.2267624820660785
 20
117.9312549213699981
 30
0.0
 11
4150.2517070700450859
 21
117.5951253695813961
 31
0.0
  0
ARC
  5
1209D
  8
0
 10
4149.5303041333372676
 20
118.2825464010449963
 30
0.0
 40
0.6781987889840611
 50
79.5596106969608314
 51
89.7084912960691412
  0
ARC
  5
1209E
  8
0
 10
4149.5542281791877031
 20
118.4290798817717985
 30
0.0
 40
0.5297646262994139
 50
46.5310302726432425
 51
79.2323661230953746
  0
ARC
  5
1209F
  8
0
 10
4149.7519745797262658
 20
118.6315909403531066
 30
0.0
 40
0.2467865252964944
 50
359.1468039156400209
 51
47.5047946423092426
  0
ARC
  5
120A0
  8
0
 10
4149.440784117219664
 20
118.5943249676363962
 30
0.0
 40
0.5589598857261489
 50
341.6295898430598754
 51
3.4453166507388771
  0
LINE
  5
120A1
  8
0
 10
4149.9712610988226515
 20
118.7438278407159942
 30
0.0
 11
4149.9712579397082663
 21
118.2978926528621031
 31
0.0
  0
ARC
  5
120A2
  8
0
 10
4149.537927894330096
 20
114.5548312379111024
 30
0.0
 40
1.973386245682814
 50
68.3302186502641433
 51
90.1211671109144845
  0
ARC
  5
120A3
  8
0
 10
4149.7662548260250333
 20
115.1294734009204035
 30
0.0
 40
1.355044266478949
 50
36.9399960919026569
 51
68.3302201562179334
  0
ARC
  5
120A4
  8
0
 10
4150.2097932244359981
 20
115.4906780568057059
 30
0.0
 40
0.7837760434803468
 50
356.4114146575871018
 51
35.3211947616111672
  0
ARC
  5
120A5
  8
0
 10
4150.1603124754210512
 20
115.5176259857216934
 30
0.0
 40
0.8351856101785099
 50
318.434766342945295
 51
354.7785921024944855
  0
ARC
  5
120A6
  8
0
 10
4149.7004868112117038
 20
115.959550738377601
 30
0.0
 40
1.4726543454783549
 50
282.5216093398814223
 51
317.4400004399794284
  0
ARC
  5
120A7
  8
0
 10
4149.5359177634145453
 20
116.480505497119097
 30
0.0
 40
2.017461846982096
 50
269.9385677372434884
 51
283.8766281682039221
  0
LINE
  5
120A8
  8
0
 10
4149.4587546492157344
 20
114.7475740805572002
 30
0.0
 11
4149.4587317690165946
 21
114.7026493762765966
 31
0.0
  0
ARC
  5
120A9
  8
0
 10
4149.5322348409317783
 20
114.6515334734804981
 30
0.0
 40
0.098302451921191
 50
89.1141414265403995
 51
119.5286248163172047
  0
ARC
  5
120AA
  8
0
 10
4149.5058333062515885
 20
114.6946905002581047
 30
0.0
 40
0.0477692214445592
 50
117.4868511186884064
 51
170.4091685769039088
  0
ARC
  5
120AB
  8
0
 10
4149.5061901732342449
 20
114.7007568734984062
 30
0.0
 40
0.0474961229745559
 50
177.7164213016876033
 51
208.5884821574992998
  0
ARC
  5
120AC
  8
0
 10
4149.518721639834439
 20
114.7096992240309987
 30
0.0
 40
0.0628062124662828
 50
210.2815169826913859
 51
245.1510652738126055
  0
ARC
  5
120AD
  8
0
 10
4149.5335815335856751
 20
114.7424204505855982
 30
0.0
 40
0.0987429629618198
 50
245.3055297016180987
 51
270.1004507034101039
  0
ARC
  5
120AE
  8
0
 10
4149.5213035038477756
 20
114.6905687789199959
 30
0.0
 40
0.0846283855025293
 50
100.1930033533977991
 51
137.6548206965989039
  0
ARC
  5
120AF
  8
0
 10
4149.5341074165107784
 20
114.6428066018648053
 30
0.0
 40
0.1339668641504461
 50
90.1508701151691128
 51
101.9680220708762022
  0
ARC
  5
120B0
  8
0
 10
4149.4852225604090563
 20
114.7253596418657935
 30
0.0
 40
0.0345547624808392
 50
139.9933642840433947
 51
219.9482741173536908
  0
LINE
  5
120B1
  8
0
 10
4149.6089073981065667
 20
114.7479694607244056
 30
0.0
 11
4149.6091668665849284
 21
114.7030454999204068
 31
0.0
  0
ARC
  5
120B2
  8
0
 10
4149.5359199389904461
 20
114.6515077232270983
 30
0.0
 40
0.0983402938798927
 50
60.7760586231541211
 51
91.2616597636564109
  0
ARC
  5
120B3
  8
0
 10
4149.5621078966341884
 20
114.6948386817407055
 30
0.0
 40
0.0477692214445592
 50
9.8925716534756667
 51
62.8148891116646908
  0
ARC
  5
120B4
  8
0
 10
4149.561719087039819
 20
114.7009030914756949
 30
0.0
 40
0.0474961229745558
 50
331.7132580728812741
 51
2.585318928697649
  0
ARC
  5
120B5
  8
0
 10
4149.549140700793032
 20
114.7097793230867069
 30
0.0
 40
0.0628062124662828
 50
295.1506749565619998
 51
330.0202232476970039
  0
ARC
  5
120B6
  8
0
 10
4149.5340962952077462
 20
114.7424582596550948
 30
0.0
 40
0.0987812110908333
 50
269.8018356707752901
 51
294.9938009747547198
  0
ARC
  5
120B7
  8
0
 10
4149.5466596199366904
 20
114.6906355462984948
 30
0.0
 40
0.0846283855025293
 50
42.6469195337914826
 51
80.1087368769367458
  0
ARC
  5
120B8
  8
0
 10
4149.5341074165107784
 20
114.6428066018648053
 30
0.0
 40
0.1339668641504461
 50
78.3337181595136229
 51
90.1508701151691128
  0
ARC
  5
120B9
  8
0
 10
4149.5825568426525933
 20
114.7256159411681011
 30
0.0
 40
0.0345547624808392
 50
320.3534661130175891
 51
40.3083759463326885
  0
ARC
  5
120BA
  8
0
 10
4149.5335335499876237
 20
114.9192168453480036
 30
0.0
 40
0.0588390670417243
 50
89.784699467946254
 51
115.4130056914956981
  0
ARC
  5
120BB
  8
0
 10
4149.5218133835123808
 20
114.9438850057590003
 30
0.0
 40
0.0315282552578743
 50
115.4130056914956981
 51
143.0321106762700083
  0
ARC
  5
120BC
  8
0
 10
4149.5091383157077871
 20
114.9534252218396944
 30
0.0
 40
0.0156640481642594
 50
143.0321106762692978
 51
180.1814773346164031
  0
ARC
  5
120BD
  8
0
 10
4149.5122824966911139
 20
114.9534351806795058
 30
0.0
 40
0.0188082449188287
 50
180.1814773346171989
 51
216.8544833864139889
  0
ARC
  5
120BE
  8
0
 10
4149.5249649359384421
 20
114.9629416800165984
 30
0.0
 40
0.0346580964927306
 50
216.8544833864127099
 51
254.0966836845369983
  0
ARC
  5
120BF
  8
0
 10
4149.5367353157471371
 20
115.0042528440218064
 30
0.0
 40
0.0776133535901025
 50
254.0966836845369983
 51
267.799069133270109
  0
ARC
  5
120C0
  8
0
 10
4149.5339757482161076
 20
114.9192168453471936
 30
0.0
 40
0.0588390670417243
 50
64.5869940853560536
 51
90.2153003089683523
  0
ARC
  5
120C1
  8
0
 10
4149.5456959147868474
 20
114.9438850057125023
 30
0.0
 40
0.0315282552578743
 50
36.9678891006074508
 51
64.5869940853557125
  0
ARC
  5
120C2
  8
0
 10
4149.5583709826296399
 20
114.9534252217437995
 30
0.0
 40
0.0156640481642594
 50
359.8185224422651913
 51
36.9678891006074508
  0
ARC
  5
120C3
  8
0
 10
4149.5552268016481321
 20
114.9534351805959034
 30
0.0
 40
0.0188082449188287
 50
323.1455163904702772
 51
359.8185224422643955
  0
ARC
  5
120C4
  8
0
 10
4149.5425443624362742
 20
114.9629416799824071
 30
0.0
 40
0.0346580964927306
 50
285.9033160923838182
 51
323.1455163904715846
  0
ARC
  5
120C5
  8
0
 10
4149.5307739827876503
 20
115.0042528440333029
 30
0.0
 40
0.0776133535901025
 50
272.2009306436377756
 51
285.9033160923838182
  0
ARC
  5
120C6
  8
0
 10
4149.5335335499903522
 20
115.0847054650435979
 30
0.0
 40
0.0588390670417243
 50
89.784699467946254
 51
115.4130056914956981
  0
ARC
  5
120C7
  8
0
 10
4149.5218133835141998
 20
115.109373625454495
 30
0.0
 40
0.0315282552578743
 50
115.4130056914956981
 51
143.0321106762700083
  0
ARC
  5
120C8
  8
0
 10
4149.5091383157096061
 20
115.1189138415352033
 30
0.0
 40
0.0156640481642594
 50
143.0321106762692978
 51
180.1814773346164031
  0
ARC
  5
120C9
  8
0
 10
4149.5122824966929329
 20
115.1189238003750006
 30
0.0
 40
0.0188082449188287
 50
180.1814773346171989
 51
216.8544833864139889
  0
ARC
  5
120CA
  8
0
 10
4149.5249649359402611
 20
115.1284302997122069
 30
0.0
 40
0.0346580964927306
 50
216.8544833864127099
 51
254.0966836845369983
  0
ARC
  5
120CB
  8
0
 10
4149.5367353157489561
 20
115.1697414637173011
 30
0.0
 40
0.0776133535901025
 50
254.0966836845369983
 51
267.799069133270109
  0
ARC
  5
120CC
  8
0
 10
4149.5339757482179266
 20
115.0847054650427026
 30
0.0
 40
0.0588390670417243
 50
64.5869940853560536
 51
90.2153003089683523
  0
ARC
  5
120CD
  8
0
 10
4149.5456959147913949
 20
115.1093736254079971
 30
0.0
 40
0.0315282552578743
 50
36.9678891006074508
 51
64.5869940853557125
  0
ARC
  5
120CE
  8
0
 10
4149.5583709826305494
 20
115.1189138414392943
 30
0.0
 40
0.0156640481642594
 50
359.8185224422651913
 51
36.9678891006074508
  0
ARC
  5
120CF
  8
0
 10
4149.5552268016481321
 20
115.1189238002913982
 30
0.0
 40
0.0188082449188287
 50
323.1455163904702772
 51
359.8185224422643955
  0
ARC
  5
120D0
  8
0
 10
4149.5425443624380932
 20
115.1284302996779019
 30
0.0
 40
0.0346580964927306
 50
285.9033160923838182
 51
323.1455163904715846
  0
ARC
  5
120D1
  8
0
 10
4149.5307739827912883
 20
115.1697414637288972
 30
0.0
 40
0.0776133535901025
 50
272.2009306436377756
 51
285.9033160923838182
  0
ARC
  5
120D2
  8
0
 10
4149.4641777927763542
 20
115.002739671009806
 30
0.0
 40
0.0588390670417243
 50
89.784699467946254
 51
115.4130056914956981
  0
ARC
  5
120D3
  8
0
 10
4149.4524576263002018
 20
115.0274078314208026
 30
0.0
 40
0.0315282552578743
 50
115.4130056914956981
 51
143.0321106762700083
  0
ARC
  5
120D4
  8
0
 10
4149.4397825584946986
 20
115.0369480475014967
 30
0.0
 40
0.0156640481642594
 50
143.0321106762692978
 51
180.1814773346164031
  0
ARC
  5
120D5
  8
0
 10
4149.4429267394789349
 20
115.036958006341294
 30
0.0
 40
0.0188082449188287
 50
180.1814773346171989
 51
216.8544833864139889
  0
ARC
  5
120D6
  8
0
 10
4149.4556091787262631
 20
115.0464645056784008
 30
0.0
 40
0.0346580964927306
 50
216.8544833864127099
 51
254.0966836845369983
  0
ARC
  5
120D7
  8
0
 10
4149.4673795585349581
 20
115.0877756696835945
 30
0.0
 40
0.0776133535901025
 50
254.0966836845369983
 51
267.799069133270109
  0
ARC
  5
120D8
  8
0
 10
4149.4646199910030191
 20
115.002739671008996
 30
0.0
 40
0.0588390670417243
 50
64.5869940853560536
 51
90.2153003089683523
  0
ARC
  5
120D9
  8
0
 10
4149.4763401575746684
 20
115.0274078313743047
 30
0.0
 40
0.0315282552578743
 50
36.9678891006074508
 51
64.5869940853557125
  0
ARC
  5
120DA
  8
0
 10
4149.4890152254183704
 20
115.0369480474056019
 30
0.0
 40
0.0156640481642594
 50
359.8185224422651913
 51
36.9678891006074508
  0
ARC
  5
120DB
  8
0
 10
4149.4858710444341341
 20
115.0369580062577057
 30
0.0
 40
0.0188082449188287
 50
323.1455163904702772
 51
359.8185224422643955
  0
ARC
  5
120DC
  8
0
 10
4149.4731886052240952
 20
115.0464645056441952
 30
0.0
 40
0.0346580964927306
 50
285.9033160923838182
 51
323.1455163904715846
  0
ARC
  5
120DD
  8
0
 10
4149.4614182255745618
 20
115.0877756696952048
 30
0.0
 40
0.0776133535901025
 50
272.2009306436377756
 51
285.9033160923838182
  0
ARC
  5
120DE
  8
0
 10
4149.39482412547477
 20
114.919719744116307
 30
0.0
 40
0.0588390670417243
 50
89.784699467946254
 51
115.4130056914956981
  0
ARC
  5
120DF
  8
0
 10
4149.3831039589986176
 20
114.9443879045273036
 30
0.0
 40
0.0315282552578743
 50
115.4130056914956981
 51
143.0321106762700083
  0
ARC
  5
120E0
  8
0
 10
4149.3704288911940239
 20
114.9539281206078982
 30
0.0
 40
0.0156640481642594
 50
143.0321106762692978
 51
180.1814773346164031
  0
ARC
  5
120E1
  8
0
 10
4149.3735730721773507
 20
114.953938079447795
 30
0.0
 40
0.0188082449188287
 50
180.1814773346171989
 51
216.8544833864139889
  0
ARC
  5
120E2
  8
0
 10
4149.3862555114246788
 20
114.9634445787849018
 30
0.0
 40
0.0346580964927306
 50
216.8544833864127099
 51
254.0966836845369983
  0
ARC
  5
120E3
  8
0
 10
4149.3980258912333738
 20
115.004755742789996
 30
0.0
 40
0.0776133535901025
 50
254.0966836845369983
 51
267.799069133270109
  0
ARC
  5
120E4
  8
0
 10
4149.3952663237023444
 20
114.9197197441153975
 30
0.0
 40
0.0588390670417243
 50
64.5869940853560536
 51
90.2153003089683523
  0
ARC
  5
120E5
  8
0
 10
4149.4069864902749032
 20
114.9443879044808057
 30
0.0
 40
0.0315282552578743
 50
36.9678891006074508
 51
64.5869940853557125
  0
ARC
  5
120E6
  8
0
 10
4149.4196615581149672
 20
114.9539281205121029
 30
0.0
 40
0.0156640481642594
 50
359.8185224422651913
 51
36.9678891006074508
  0
ARC
  5
120E7
  8
0
 10
4149.4165173771325499
 20
114.9539380793642067
 30
0.0
 40
0.0188082449188287
 50
323.1455163904702772
 51
359.8185224422643955
  0
ARC
  5
120E8
  8
0
 10
4149.4038349379216015
 20
114.9634445787506962
 30
0.0
 40
0.0346580964927306
 50
285.9033160923838182
 51
323.1455163904715846
  0
ARC
  5
120E9
  8
0
 10
4149.3920645582738871
 20
115.0047557428016063
 30
0.0
 40
0.0776133535901025
 50
272.2009306436377756
 51
285.9033160923838182
  0
ARC
  5
120EA
  8
0
 10
4149.3254690713956734
 20
115.0037465533558958
 30
0.0
 40
0.0588390670417243
 50
89.784699467946254
 51
115.4130056914956981
  0
ARC
  5
120EB
  8
0
 10
4149.3137489049204305
 20
115.0284147137669066
 30
0.0
 40
0.0315282552578743
 50
115.4130056914956981
 51
143.0321106762700083
  0
ARC
  5
120EC
  8
0
 10
4149.3010738371158368
 20
115.0379549298475013
 30
0.0
 40
0.0156640481642594
 50
143.0321106762692978
 51
180.1814773346164031
  0
ARC
  5
120ED
  8
0
 10
4149.3042180180991636
 20
115.037964888687398
 30
0.0
 40
0.0188082449188287
 50
180.1814773346171989
 51
216.8544833864139889
  0
ARC
  5
120EE
  8
0
 10
4149.3169004573455823
 20
115.0474713880245048
 30
0.0
 40
0.0346580964927306
 50
216.8544833864127099
 51
254.0966836845369983
  0
ARC
  5
120EF
  8
0
 10
4149.3286708371551867
 20
115.0887825520295991
 30
0.0
 40
0.0776133535901025
 50
254.0966836845369983
 51
267.799069133270109
  0
ARC
  5
120F0
  8
0
 10
4149.3259112696241573
 20
115.0037465533550005
 30
0.0
 40
0.0588390670417243
 50
64.5869940853560536
 51
90.2153003089683523
  0
ARC
  5
120F1
  8
0
 10
4149.3376314361948971
 20
115.0284147137203945
 30
0.0
 40
0.0315282552578743
 50
36.9678891006074508
 51
64.5869940853557125
  0
ARC
  5
120F2
  8
0
 10
4149.3503065040376896
 20
115.0379549297516064
 30
0.0
 40
0.0156640481642594
 50
359.8185224422651913
 51
36.9678891006074508
  0
ARC
  5
120F3
  8
0
 10
4149.3471623230561818
 20
115.0379648886036961
 30
0.0
 40
0.0188082449188287
 50
323.1455163904702772
 51
359.8185224422643955
  0
ARC
  5
120F4
  8
0
 10
4149.3344798838443239
 20
115.0474713879901998
 30
0.0
 40
0.0346580964927306
 50
285.9033160923838182
 51
323.1455163904715846
  0
ARC
  5
120F5
  8
0
 10
4149.3227095041957
 20
115.0887825520411951
 30
0.0
 40
0.0776133535901025
 50
272.2009306436377756
 51
285.9033160923838182
  0
ARC
  5
120F6
  8
0
 10
4149.3948164507819456
 20
115.0864163009515977
 30
0.0
 40
0.0588390670417243
 50
89.784699467946254
 51
115.4130056914956981
  0
ARC
  5
120F7
  8
0
 10
4149.3830962843067027
 20
115.1110844613625943
 30
0.0
 40
0.0315282552578743
 50
115.4130056914956981
 51
143.0321106762700083
  0
ARC
  5
120F8
  8
0
 10
4149.370421216502109
 20
115.1206246774432032
 30
0.0
 40
0.0156640481642594
 50
143.0321106762692978
 51
180.1814773346164031
  0
ARC
  5
120F9
  8
0
 10
4149.3735653974854358
 20
115.1206346362830999
 30
0.0
 40
0.0188082449188287
 50
180.1814773346171989
 51
216.8544833864139889
  0
ARC
  5
120FA
  8
0
 10
4149.386247836732764
 20
115.1301411356202067
 30
0.0
 40
0.0346580964927306
 50
216.8544833864127099
 51
254.0966836845369983
  0
ARC
  5
120FB
  8
0
 10
4149.3980182165423685
 20
115.171452299625301
 30
0.0
 40
0.0776133535901025
 50
254.0966836845369983
 51
267.799069133270109
  0
ARC
  5
120FC
  8
0
 10
4149.3952586490104295
 20
115.0864163009508019
 30
0.0
 40
0.0588390670417243
 50
64.5869940853560536
 51
90.2153003089683523
  0
ARC
  5
120FD
  8
0
 10
4149.4069788155829883
 20
115.1110844613160964
 30
0.0
 40
0.0315282552578743
 50
36.9678891006074508
 51
64.5869940853557125
  0
ARC
  5
120FE
  8
0
 10
4149.4196538834230523
 20
115.1206246773473936
 30
0.0
 40
0.0156640481642594
 50
359.8185224422651913
 51
36.9678891006074508
  0
ARC
  5
120FF
  8
0
 10
4149.416509702440635
 20
115.1206346361994974
 30
0.0
 40
0.0188082449188287
 50
323.1455163904702772
 51
359.8185224422643955
  0
ARC
  5
12100
  8
0
 10
4149.4038272632296867
 20
115.1301411355860012
 30
0.0
 40
0.0346580964927306
 50
285.9033160923838182
 51
323.1455163904715846
  0
ARC
  5
12101
  8
0
 10
4149.3920568835828817
 20
115.171452299636897
 30
0.0
 40
0.0776133535901025
 50
272.2009306436377756
 51
285.9033160923838182
  0
ARC
  5
12102
  8
0
 10
4149.2568774899737036
 20
115.0879135227448984
 30
0.0
 40
0.0588390670417243
 50
89.784699467946254
 51
115.4130056914956981
  0
ARC
  5
12103
  8
0
 10
4149.2451573234975513
 20
115.112581683155895
 30
0.0
 40
0.0315282552578743
 50
115.4130056914956981
 51
143.0321106762700083
  0
ARC
  5
12104
  8
0
 10
4149.2324822556929576
 20
115.1221218992365039
 30
0.0
 40
0.0156640481642594
 50
143.0321106762692978
 51
180.1814773346164031
  0
ARC
  5
12105
  8
0
 10
4149.2356264366762844
 20
115.1221318580764006
 30
0.0
 40
0.0188082449188287
 50
180.1814773346171989
 51
216.8544833864139889
  0
ARC
  5
12106
  8
0
 10
4149.2483088759236125
 20
115.1316383574134932
 30
0.0
 40
0.0346580964927306
 50
216.8544833864127099
 51
254.0966836845369983
  0
ARC
  5
12107
  8
0
 10
4149.260079255733217
 20
115.1729495214186016
 30
0.0
 40
0.0776133535901025
 50
254.0966836845369983
 51
267.799069133270109
  0
ARC
  5
12108
  8
0
 10
4149.257319688201278
 20
115.0879135227440031
 30
0.0
 40
0.0588390670417243
 50
64.5869940853560536
 51
90.2153003089683523
  0
ARC
  5
12109
  8
0
 10
4149.2690398547738369
 20
115.1125816831092976
 30
0.0
 40
0.0315282552578743
 50
36.9678891006074508
 51
64.5869940853557125
  0
ARC
  5
1210A
  8
0
 10
4149.2817149226139009
 20
115.1221218991405948
 30
0.0
 40
0.0156640481642594
 50
359.8185224422651913
 51
36.9678891006074508
  0
ARC
  5
1210B
  8
0
 10
4149.278570741632393
 20
115.1221318579926987
 30
0.0
 40
0.0188082449188287
 50
323.1455163904702772
 51
359.8185224422643955
  0
ARC
  5
1210C
  8
0
 10
4149.2658883024214447
 20
115.1316383573792024
 30
0.0
 40
0.0346580964927306
 50
285.9033160923838182
 51
323.1455163904715846
  0
ARC
  5
1210D
  8
0
 10
4149.2541179227728207
 20
115.1729495214301977
 30
0.0
 40
0.0776133535901025
 50
272.2009306436377756
 51
285.9033160923838182
  0
ARC
  5
1210E
  8
0
 10
4149.3254297256844438
 20
115.1718456362514047
 30
0.0
 40
0.0588390670417243
 50
89.784699467946254
 51
115.4130056914956981
  0
ARC
  5
1210F
  8
0
 10
4149.3137095592082915
 20
115.1965137966624013
 30
0.0
 40
0.0315282552578743
 50
115.4130056914956981
 51
143.0321106762700083
  0
ARC
  5
12110
  8
0
 10
4149.3010344914027883
 20
115.206054012742996
 30
0.0
 40
0.0156640481642594
 50
143.0321106762692978
 51
180.1814773346164031
  0
ARC
  5
12111
  8
0
 10
4149.3041786723861151
 20
115.2060639715829069
 30
0.0
 40
0.0188082449188287
 50
180.1814773346171989
 51
216.8544833864139889
  0
ARC
  5
12112
  8
0
 10
4149.3168611116352622
 20
115.2155704709199995
 30
0.0
 40
0.0346580964927306
 50
216.8544833864127099
 51
254.0966836845369983
  0
ARC
  5
12113
  8
0
 10
4149.3286314914421382
 20
115.2568816349250937
 30
0.0
 40
0.0776133535901025
 50
254.0966836845369983
 51
267.799069133270109
  0
ARC
  5
12114
  8
0
 10
4149.3258719239120182
 20
115.1718456362504952
 30
0.0
 40
0.0588390670417243
 50
64.5869940853560536
 51
90.2153003089683523
  0
ARC
  5
12115
  8
0
 10
4149.3375920904836676
 20
115.1965137966159034
 30
0.0
 40
0.0315282552578743
 50
36.9678891006074508
 51
64.5869940853557125
  0
ARC
  5
12116
  8
0
 10
4149.3502671583246411
 20
115.2060540126472006
 30
0.0
 40
0.0156640481642594
 50
359.8185224422651913
 51
36.9678891006074508
  0
ARC
  5
12117
  8
0
 10
4149.3471229773422237
 20
115.2060639714993044
 30
0.0
 40
0.0188082449188287
 50
323.1455163904702772
 51
359.8185224422643955
  0
ARC
  5
12118
  8
0
 10
4149.3344405381321849
 20
115.2155704708856945
 30
0.0
 40
0.0346580964927306
 50
285.9033160923838182
 51
323.1455163904715846
  0
ARC
  5
12119
  8
0
 10
4149.322670158483561
 20
115.256881634936704
 30
0.0
 40
0.0776133535901025
 50
272.2009306436377756
 51
285.9033160923838182
  0
ARC
  5
1211A
  8
0
 10
4149.186760689320181
 20
115.005760350219802
 30
0.0
 40
0.0588390670417243
 50
89.784699467946254
 51
115.4130056914956981
  0
ARC
  5
1211B
  8
0
 10
4149.1750405228440286
 20
115.0304285106307987
 30
0.0
 40
0.0315282552578743
 50
115.4130056914956981
 51
143.0321106762700083
  0
ARC
  5
1211C
  8
0
 10
4149.1623654550403444
 20
115.0399687267113933
 30
0.0
 40
0.0156640481642594
 50
143.0321106762692978
 51
180.1814773346164031
  0
ARC
  5
1211D
  8
0
 10
4149.1655096360218522
 20
115.0399786855513042
 30
0.0
 40
0.0188082449188287
 50
180.1814773346171989
 51
216.8544833864139889
  0
ARC
  5
1211E
  8
0
 10
4149.1781920752700898
 20
115.0494851848883968
 30
0.0
 40
0.0346580964927306
 50
216.8544833864127099
 51
254.0966836845369983
  0
ARC
  5
1211F
  8
0
 10
4149.1899624550778753
 20
115.0907963488935053
 30
0.0
 40
0.0776133535901025
 50
254.0966836845369983
 51
267.799069133270109
  0
ARC
  5
12120
  8
0
 10
4149.1872028875468459
 20
115.0057603502189068
 30
0.0
 40
0.0588390670417243
 50
64.5869940853560536
 51
90.2153003089683523
  0
ARC
  5
12121
  8
0
 10
4149.1989230541194047
 20
115.0304285105843007
 30
0.0
 40
0.0315282552578743
 50
36.9678891006074508
 51
64.5869940853557125
  0
ARC
  5
12122
  8
0
 10
4149.2115981219612877
 20
115.0399687266155979
 30
0.0
 40
0.0156640481642594
 50
359.8185224422651913
 51
36.9678891006074508
  0
ARC
  5
12123
  8
0
 10
4149.2084539409770514
 20
115.0399786854677018
 30
0.0
 40
0.0188082449188287
 50
323.1455163904702772
 51
359.8185224422643955
  0
ARC
  5
12124
  8
0
 10
4149.195771501767922
 20
115.0494851848542055
 30
0.0
 40
0.0346580964927306
 50
285.9033160923838182
 51
323.1455163904715846
  0
ARC
  5
12125
  8
0
 10
4149.1840011221192981
 20
115.0907963489051014
 30
0.0
 40
0.0776133535901025
 50
272.2009306436377756
 51
285.9033160923838182
  0
ARC
  5
12126
  8
0
 10
4149.11904843746197
 20
115.0875217613804011
 30
0.0
 40
0.0588390670417243
 50
89.784699467946254
 51
115.4130056914956981
  0
ARC
  5
12127
  8
0
 10
4149.1073282709867271
 20
115.1121899217913978
 30
0.0
 40
0.0315282552578743
 50
115.4130056914956981
 51
143.0321106762700083
  0
ARC
  5
12128
  8
0
 10
4149.0946532031821334
 20
115.1217301378720066
 30
0.0
 40
0.0156640481642594
 50
143.0321106762692978
 51
180.1814773346164031
  0
ARC
  5
12129
  8
0
 10
4149.0977973841663697
 20
115.1217400967119033
 30
0.0
 40
0.0188082449188287
 50
180.1814773346171989
 51
216.8544833864139889
  0
ARC
  5
1212A
  8
0
 10
4149.1104798234118789
 20
115.1312465960489959
 30
0.0
 40
0.0346580964927306
 50
216.8544833864127099
 51
254.0966836845369983
  0
ARC
  5
1212B
  8
0
 10
4149.1222502032205739
 20
115.1725577600541044
 30
0.0
 40
0.0776133535901025
 50
254.0966836845369983
 51
267.799069133270109
  0
ARC
  5
1212C
  8
0
 10
4149.1194906356904539
 20
115.0875217613795058
 30
0.0
 40
0.0588390670417243
 50
64.5869940853560536
 51
90.2153003089683523
  0
ARC
  5
1212D
  8
0
 10
4149.1312108022621032
 20
115.1121899217448998
 30
0.0
 40
0.0315282552578743
 50
36.9678891006074508
 51
64.5869940853557125
  0
ARC
  5
1212E
  8
0
 10
4149.1438858701030767
 20
115.121730137776197
 30
0.0
 40
0.0156640481642594
 50
359.8185224422651913
 51
36.9678891006074508
  0
ARC
  5
1212F
  8
0
 10
4149.1407416891197499
 20
115.1217400966283009
 30
0.0
 40
0.0188082449188287
 50
323.1455163904702772
 51
359.8185224422643955
  0
ARC
  5
12130
  8
0
 10
4149.1280592499097111
 20
115.1312465960148046
 30
0.0
 40
0.0346580964927306
 50
285.9033160923838182
 51
323.1455163904715846
  0
ARC
  5
12131
  8
0
 10
4149.1162888702629061
 20
115.1725577600657004
 30
0.0
 40
0.0776133535901025
 50
272.2009306436377756
 51
285.9033160923838182
  0
ARC
  5
12132
  8
0
 10
4149.1867276778712039
 20
115.1709961987245947
 30
0.0
 40
0.0588390670417243
 50
89.784699467946254
 51
115.4130056914956981
  0
ARC
  5
12133
  8
0
 10
4149.1750075113941421
 20
115.1956643591356055
 30
0.0
 40
0.0315282552578743
 50
115.4130056914956981
 51
143.0321106762700083
  0
ARC
  5
12134
  8
0
 10
4149.1623324435895483
 20
115.2052045752162996
 30
0.0
 40
0.0156640481642594
 50
143.0321106762692978
 51
180.1814773346164031
  0
ARC
  5
12135
  8
0
 10
4149.1654766245728752
 20
115.2052145340560969
 30
0.0
 40
0.0188082449188287
 50
180.1814773346171989
 51
216.8544833864139889
  0
ARC
  5
12136
  8
0
 10
4149.1781590638211128
 20
115.2147210333932037
 30
0.0
 40
0.0346580964927306
 50
216.8544833864127099
 51
254.0966836845369983
  0
ARC
  5
12137
  8
0
 10
4149.1899294436298078
 20
115.2560321973983974
 30
0.0
 40
0.0776133535901025
 50
254.0966836845369983
 51
267.799069133270109
  0
ARC
  5
12138
  8
0
 10
4149.1871698760987783
 20
115.1709961987237989
 30
0.0
 40
0.0588390670417243
 50
64.5869940853560536
 51
90.2153003089683523
  0
ARC
  5
12139
  8
0
 10
4149.1988900426704276
 20
115.1956643590890934
 30
0.0
 40
0.0315282552578743
 50
36.9678891006074508
 51
64.5869940853557125
  0
ARC
  5
1213A
  8
0
 10
4149.2115651105123106
 20
115.2052045751204048
 30
0.0
 40
0.0156640481642594
 50
359.8185224422651913
 51
36.9678891006074508
  0
ARC
  5
1213B
  8
0
 10
4149.2084209295289838
 20
115.2052145339724945
 30
0.0
 40
0.0188082449188287
 50
323.1455163904702772
 51
359.8185224422643955
  0
ARC
  5
1213C
  8
0
 10
4149.195738490318945
 20
115.2147210333589982
 30
0.0
 40
0.0346580964927306
 50
285.9033160923838182
 51
323.1455163904715846
  0
ARC
  5
1213D
  8
0
 10
4149.1839681106712305
 20
115.2560321974099935
 30
0.0
 40
0.0776133535901025
 50
272.2009306436377756
 51
285.9033160923838182
  0
ARC
  5
1213E
  8
0
 10
4149.2560662468376904
 20
115.2545743247167991
 30
0.0
 40
0.0588390670417243
 50
89.784699467946254
 51
115.4130056914956981
  0
ARC
  5
1213F
  8
0
 10
4149.2443460803624475
 20
115.2792424851277957
 30
0.0
 40
0.0315282552578743
 50
115.4130056914956981
 51
143.0321106762700083
  0
ARC
  5
12140
  8
0
 10
4149.2316710125569443
 20
115.288782701208504
 30
0.0
 40
0.0156640481642594
 50
143.0321106762692978
 51
180.1814773346164031
  0
ARC
  5
12141
  8
0
 10
4149.2348151935402711
 20
115.2887926600483013
 30
0.0
 40
0.0188082449188287
 50
180.1814773346171989
 51
216.8544833864139889
  0
ARC
  5
12142
  8
0
 10
4149.2474976327875993
 20
115.2982991593853939
 30
0.0
 40
0.0346580964927306
 50
216.8544833864127099
 51
254.0966836845369983
  0
ARC
  5
12143
  8
0
 10
4149.2592680125972038
 20
115.3396103233906018
 30
0.0
 40
0.0776133535901025
 50
254.0966836845369983
 51
267.799069133270109
  0
ARC
  5
12144
  8
0
 10
4149.2565084450652648
 20
115.2545743247160033
 30
0.0
 40
0.0588390670417243
 50
64.5869940853560536
 51
90.2153003089683523
  0
ARC
  5
12145
  8
0
 10
4149.2682286116378236
 20
115.2792424850812978
 30
0.0
 40
0.0315282552578743
 50
36.9678891006074508
 51
64.5869940853557125
  0
ARC
  5
12146
  8
0
 10
4149.2809036794787971
 20
115.288782701112595
 30
0.0
 40
0.0156640481642594
 50
359.8185224422651913
 51
36.9678891006074508
  0
ARC
  5
12147
  8
0
 10
4149.2777594984972893
 20
115.2887926599646988
 30
0.0
 40
0.0188082449188287
 50
323.1455163904702772
 51
359.8185224422643955
  0
ARC
  5
12148
  8
0
 10
4149.265077059286341
 20
115.2982991593512025
 30
0.0
 40
0.0346580964927306
 50
285.9033160923838182
 51
323.1455163904715846
  0
ARC
  5
12149
  8
0
 10
4149.253306679637717
 20
115.3396103234021979
 30
0.0
 40
0.0776133535901025
 50
272.2009306436377756
 51
285.9033160923838182
  0
ARC
  5
1214A
  8
0
 10
4149.3947915064181871
 20
115.2559028334571991
 30
0.0
 40
0.0588390670417243
 50
89.784699467946254
 51
115.4130056914956981
  0
ARC
  5
1214B
  8
0
 10
4149.3830713399420347
 20
115.2805709938681957
 30
0.0
 40
0.0315282552578743
 50
115.4130056914956981
 51
143.0321106762700083
  0
ARC
  5
1214C
  8
0
 10
4149.3703962721383505
 20
115.2901112099488046
 30
0.0
 40
0.0156640481642594
 50
143.0321106762692978
 51
180.1814773346164031
  0
ARC
  5
1214D
  8
0
 10
4149.3735404531207678
 20
115.2901211687887013
 30
0.0
 40
0.0188082449188287
 50
180.1814773346171989
 51
216.8544833864139889
  0
ARC
  5
1214E
  8
0
 10
4149.3862228923680959
 20
115.2996276681257939
 30
0.0
 40
0.0346580964927306
 50
216.8544833864127099
 51
254.0966836845369983
  0
ARC
  5
1214F
  8
0
 10
4149.3979932721767909
 20
115.3409388321309024
 30
0.0
 40
0.0776133535901025
 50
254.0966836845369983
 51
267.799069133270109
  0
ARC
  5
12150
  8
0
 10
4149.3952337046457615
 20
115.2559028334563038
 30
0.0
 40
0.0588390670417243
 50
64.5869940853560536
 51
90.2153003089683523
  0
ARC
  5
12151
  8
0
 10
4149.4069538712183203
 20
115.2805709938216978
 30
0.0
 40
0.0315282552578743
 50
36.9678891006074508
 51
64.5869940853557125
  0
ARC
  5
12152
  8
0
 10
4149.4196289390592938
 20
115.290111209852995
 30
0.0
 40
0.0156640481642594
 50
359.8185224422651913
 51
36.9678891006074508
  0
ARC
  5
12153
  8
0
 10
4149.416484758075967
 20
115.2901211687050989
 30
0.0
 40
0.0188082449188287
 50
323.1455163904702772
 51
359.8185224422643955
  0
ARC
  5
12154
  8
0
 10
4149.4038023188650186
 20
115.2996276680916026
 30
0.0
 40
0.0346580964927306
 50
285.9033160923838182
 51
323.1455163904715846
  0
ARC
  5
12155
  8
0
 10
4149.3920319392182137
 20
115.3409388321424984
 30
0.0
 40
0.0776133535901025
 50
272.2009306436377756
 51
285.9033160923838182
  0
ARC
  5
12156
  8
0
 10
4149.533533551058099
 20
115.255398266593005
 30
0.0
 40
0.0588390670417243
 50
89.784699467946254
 51
115.4130056914956981
  0
ARC
  5
12157
  8
0
 10
4149.5218133845810371
 20
115.2800664270040016
 30
0.0
 40
0.0315282552578743
 50
115.4130056914956981
 51
143.0321106762700083
  0
ARC
  5
12158
  8
0
 10
4149.5091383167773529
 20
115.2896066430846957
 30
0.0
 40
0.0156640481642594
 50
143.0321106762692978
 51
180.1814773346164031
  0
ARC
  5
12159
  8
0
 10
4149.5122824977597702
 20
115.289616601924493
 30
0.0
 40
0.0188082449188287
 50
180.1814773346171989
 51
216.8544833864139889
  0
ARC
  5
1215A
  8
0
 10
4149.5249649370080078
 20
115.2991231012615998
 30
0.0
 40
0.0346580964927306
 50
216.8544833864127099
 51
254.0966836845369983
  0
ARC
  5
1215B
  8
0
 10
4149.5367353168167028
 20
115.3404342652667935
 30
0.0
 40
0.0776133535901025
 50
254.0966836845369983
 51
267.799069133270109
  0
ARC
  5
1215C
  8
0
 10
4149.5339757492847639
 20
115.255398266592195
 30
0.0
 40
0.0588390670417243
 50
64.5869940853560536
 51
90.2153003089683523
  0
ARC
  5
1215D
  8
0
 10
4149.5456959158573227
 20
115.2800664269575037
 30
0.0
 40
0.0315282552578743
 50
36.9678891006074508
 51
64.5869940853557125
  0
ARC
  5
1215E
  8
0
 10
4149.5583709836992057
 20
115.2896066429888009
 30
0.0
 40
0.0156640481642594
 50
359.8185224422651913
 51
36.9678891006074508
  0
ARC
  5
1215F
  8
0
 10
4149.5552268027158789
 20
115.2896166018409048
 30
0.0
 40
0.0188082449188287
 50
323.1455163904702772
 51
359.8185224422643955
  0
ARC
  5
12160
  8
0
 10
4149.5425443635049305
 20
115.2991231012273943
 30
0.0
 40
0.0346580964927306
 50
285.9033160923838182
 51
323.1455163904715846
  0
ARC
  5
12161
  8
0
 10
4149.5307739838572161
 20
115.3404342652784038
 30
0.0
 40
0.0776133535901025
 50
272.2009306436377756
 51
285.9033160923838182
  0
ARC
  5
12162
  8
0
 10
4149.464157201487069
 20
115.3417266919351931
 30
0.0
 40
0.0588390670417243
 50
89.784699467946254
 51
115.4130056914956981
  0
ARC
  5
12163
  8
0
 10
4149.4524370350109166
 20
115.3663948523461045
 30
0.0
 40
0.0315282552578743
 50
115.4130056914956981
 51
143.0321106762700083
  0
ARC
  5
12164
  8
0
 10
4149.4397619672063229
 20
115.3759350684267986
 30
0.0
 40
0.0156640481642594
 50
143.0321106762692978
 51
180.1814773346164031
  0
ARC
  5
12165
  8
0
 10
4149.4429061481887402
 20
115.3759450272665958
 30
0.0
 40
0.0188082449188287
 50
180.1814773346171989
 51
216.8544833864139889
  0
ARC
  5
12166
  8
0
 10
4149.4555885874369778
 20
115.3854515266037026
 30
0.0
 40
0.0346580964927306
 50
216.8544833864127099
 51
254.0966836845369983
  0
ARC
  5
12167
  8
0
 10
4149.4673589672447633
 20
115.4267626906088964
 30
0.0
 40
0.0776133535901025
 50
254.0966836845369983
 51
267.799069133270109
  0
ARC
  5
12168
  8
0
 10
4149.4645993997137339
 20
115.3417266919342978
 30
0.0
 40
0.0588390670417243
 50
64.5869940853560536
 51
90.2153003089683523
  0
ARC
  5
12169
  8
0
 10
4149.4763195662872022
 20
115.3663948522996066
 30
0.0
 40
0.0315282552578743
 50
36.9678891006074508
 51
64.5869940853557125
  0
ARC
  5
1216A
  8
0
 10
4149.4889946341281757
 20
115.3759350683309037
 30
0.0
 40
0.0156640481642594
 50
359.8185224422651913
 51
36.9678891006074508
  0
ARC
  5
1216B
  8
0
 10
4149.4858504531448489
 20
115.3759450271829934
 30
0.0
 40
0.0188082449188287
 50
323.1455163904702772
 51
359.8185224422643955
  0
ARC
  5
1216C
  8
0
 10
4149.4731680139339005
 20
115.3854515265694971
 30
0.0
 40
0.0346580964927306
 50
285.9033160923838182
 51
323.1455163904715846
  0
ARC
  5
1216D
  8
0
 10
4149.4613976342861861
 20
115.4267626906205066
 30
0.0
 40
0.0776133535901025
 50
272.2009306436377756
 51
285.9033160923838182
  0
ARC
  5
1216E
  8
0
 10
4149.3254154638407272
 20
115.3399186217148014
 30
0.0
 40
0.0588390670417243
 50
89.784699467946254
 51
115.4130056914956981
  0
ARC
  5
1216F
  8
0
 10
4149.3136952973636653
 20
115.364586782125798
 30
0.0
 40
0.0315282552578743
 50
115.4130056914956981
 51
143.0321106762700083
  0
ARC
  5
12170
  8
0
 10
4149.3010202295599811
 20
115.3741269982065063
 30
0.0
 40
0.0156640481642594
 50
143.0321106762692978
 51
180.1814773346164031
  0
ARC
  5
12171
  8
0
 10
4149.3041644105433079
 20
115.3741369570463036
 30
0.0
 40
0.0188082449188287
 50
180.1814773346171989
 51
216.8544833864139889
  0
ARC
  5
12172
  8
0
 10
4149.3168468497897265
 20
115.3836434563834956
 30
0.0
 40
0.0346580964927306
 50
216.8544833864127099
 51
254.0966836845369983
  0
ARC
  5
12173
  8
0
 10
4149.328617229599331
 20
115.4249546203886041
 30
0.0
 40
0.0776133535901025
 50
254.0966836845369983
 51
267.799069133270109
  0
ARC
  5
12174
  8
0
 10
4149.3258576620683016
 20
115.3399186217140056
 30
0.0
 40
0.0588390670417243
 50
64.5869940853560536
 51
90.2153003089683523
  0
ARC
  5
12175
  8
0
 10
4149.3375778286399509
 20
115.3645867820793001
 30
0.0
 40
0.0315282552578743
 50
36.9678891006074508
 51
64.5869940853557125
  0
ARC
  5
12176
  8
0
 10
4149.3502528964809244
 20
115.3741269981105972
 30
0.0
 40
0.0156640481642594
 50
359.8185224422651913
 51
36.9678891006074508
  0
ARC
  5
12177
  8
0
 10
4149.3471087154975976
 20
115.3741369569627011
 30
0.0
 40
0.0188082449188287
 50
323.1455163904702772
 51
359.8185224422643955
  0
ARC
  5
12178
  8
0
 10
4149.3344262762875587
 20
115.3836434563492048
 30
0.0
 40
0.0346580964927306
 50
285.9033160923838182
 51
323.1455163904715846
  0
ARC
  5
12179
  8
0
 10
4149.3226558966398443
 20
115.4249546204002002
 30
0.0
 40
0.0776133535901025
 50
272.2009306436377756
 51
285.9033160923838182
  0
ARC
  5
1217A
  8
0
 10
4149.1866971977624416
 20
115.3391187862048071
 30
0.0
 40
0.0588390670417243
 50
89.784699467946254
 51
115.4130056914956981
  0
ARC
  5
1217B
  8
0
 10
4149.1749770312853798
 20
115.3637869466158037
 30
0.0
 40
0.0315282552578743
 50
115.4130056914956981
 51
143.0321106762700083
  0
ARC
  5
1217C
  8
0
 10
4149.1623019634807861
 20
115.3733271626964978
 30
0.0
 40
0.0156640481642594
 50
143.0321106762692978
 51
180.1814773346164031
  0
ARC
  5
1217D
  8
0
 10
4149.1654461444641129
 20
115.3733371215362951
 30
0.0
 40
0.0188082449188287
 50
180.1814773346171989
 51
216.8544833864139889
  0
ARC
  5
1217E
  8
0
 10
4149.178128583711441
 20
115.3828436208734018
 30
0.0
 40
0.0346580964927306
 50
216.8544833864127099
 51
254.0966836845369983
  0
ARC
  5
1217F
  8
0
 10
4149.189898963520136
 20
115.4241547848785956
 30
0.0
 40
0.0776133535901025
 50
254.0966836845369983
 51
267.799069133270109
  0
ARC
  5
12180
  8
0
 10
4149.1871393959891066
 20
115.339118786203997
 30
0.0
 40
0.0588390670417243
 50
64.5869940853560536
 51
90.2153003089683523
  0
ARC
  5
12181
  8
0
 10
4149.1988595625616654
 20
115.3637869465693058
 30
0.0
 40
0.0315282552578743
 50
36.9678891006074508
 51
64.5869940853557125
  0
ARC
  5
12182
  8
0
 10
4149.2115346304017294
 20
115.3733271626006029
 30
0.0
 40
0.0156640481642594
 50
359.8185224422651913
 51
36.9678891006074508
  0
ARC
  5
12183
  8
0
 10
4149.2083904494202216
 20
115.3733371214527068
 30
0.0
 40
0.0188082449188287
 50
323.1455163904702772
 51
359.8185224422643955
  0
ARC
  5
12184
  8
0
 10
4149.1957080102101827
 20
115.3828436208391963
 30
0.0
 40
0.0346580964927306
 50
285.9033160923838182
 51
323.1455163904715846
  0
ARC
  5
12185
  8
0
 10
4149.1839376305606493
 20
115.4241547848902059
 30
0.0
 40
0.0776133535901025
 50
272.2009306436377756
 51
285.9033160923838182
  0
ARC
  5
12186
  8
0
 10
4149.0480179519981903
 20
115.339324553282907
 30
0.0
 40
0.0588390670417243
 50
89.784699467946254
 51
115.4130056914956981
  0
ARC
  5
12187
  8
0
 10
4149.0362977855220379
 20
115.3639927136938041
 30
0.0
 40
0.0315282552578743
 50
115.4130056914956981
 51
143.0321106762700083
  0
ARC
  5
12188
  8
0
 10
4149.0236227177174442
 20
115.3735329297744983
 30
0.0
 40
0.0156640481642594
 50
143.0321106762692978
 51
180.1814773346164031
  0
ARC
  5
12189
  8
0
 10
4149.026766898700771
 20
115.3735428886142955
 30
0.0
 40
0.0188082449188287
 50
180.1814773346171989
 51
216.8544833864139889
  0
ARC
  5
1218A
  8
0
 10
4149.0394493379480991
 20
115.3830493879515018
 30
0.0
 40
0.0346580964927306
 50
216.8544833864127099
 51
254.0966836845369983
  0
ARC
  5
1218B
  8
0
 10
4149.0512197177558846
 20
115.4243605519565961
 30
0.0
 40
0.0776133535901025
 50
254.0966836845369983
 51
267.799069133270109
  0
ARC
  5
1218C
  8
0
 10
4149.0484601502248552
 20
115.3393245532819975
 30
0.0
 40
0.0588390670417243
 50
64.5869940853560536
 51
90.2153003089683523
  0
ARC
  5
1218D
  8
0
 10
4149.0601803167983235
 20
115.3639927136473062
 30
0.0
 40
0.0315282552578743
 50
36.9678891006074508
 51
64.5869940853557125
  0
ARC
  5
1218E
  8
0
 10
4149.072855384639297
 20
115.3735329296786034
 30
0.0
 40
0.0156640481642594
 50
359.8185224422651913
 51
36.9678891006074508
  0
ARC
  5
1218F
  8
0
 10
4149.0697112036568797
 20
115.3735428885306931
 30
0.0
 40
0.0188082449188287
 50
323.1455163904702772
 51
359.8185224422643955
  0
ARC
  5
12190
  8
0
 10
4149.0570287644450218
 20
115.3830493879171968
 30
0.0
 40
0.0346580964927306
 50
285.9033160923838182
 51
323.1455163904715846
  0
ARC
  5
12191
  8
0
 10
4149.0452583847982169
 20
115.4243605519682063
 30
0.0
 40
0.0776133535901025
 50
272.2009306436377756
 51
285.9033160923838182
  0
ARC
  5
12192
  8
0
 10
4148.9093056761139451
 20
115.3405376278249008
 30
0.0
 40
0.0588390670417243
 50
89.784699467946254
 51
115.4130056914956981
  0
ARC
  5
12193
  8
0
 10
4148.8975855096368832
 20
115.3652057882358974
 30
0.0
 40
0.0315282552578743
 50
115.4130056914956981
 51
143.0321106762700083
  0
ARC
  5
12194
  8
0
 10
4148.884910441833199
 20
115.3747460043165063
 30
0.0
 40
0.0156640481642594
 50
143.0321106762692978
 51
180.1814773346164031
  0
ARC
  5
12195
  8
0
 10
4148.8880546228156163
 20
115.374755963156403
 30
0.0
 40
0.0188082449188287
 50
180.1814773346171989
 51
216.8544833864139889
  0
ARC
  5
12196
  8
0
 10
4148.900737062063854
 20
115.3842624624934956
 30
0.0
 40
0.0346580964927306
 50
216.8544833864127099
 51
254.0966836845369983
  0
ARC
  5
12197
  8
0
 10
4148.9125074418716395
 20
115.4255736264986041
 30
0.0
 40
0.0776133535901025
 50
254.0966836845369983
 51
267.799069133270109
  0
ARC
  5
12198
  8
0
 10
4148.90974787434061
 20
115.3405376278240055
 30
0.0
 40
0.0588390670417243
 50
64.5869940853560536
 51
90.2153003089683523
  0
ARC
  5
12199
  8
0
 10
4148.9214680409131688
 20
115.3652057881893995
 30
0.0
 40
0.0315282552578743
 50
36.9678891006074508
 51
64.5869940853557125
  0
ARC
  5
1219A
  8
0
 10
4148.9341431087550518
 20
115.3747460042206967
 30
0.0
 40
0.0156640481642594
 50
359.8185224422651913
 51
36.9678891006074508
  0
ARC
  5
1219B
  8
0
 10
4148.930998927771725
 20
115.3747559630728006
 30
0.0
 40
0.0188082449188287
 50
323.1455163904702772
 51
359.8185224422643955
  0
ARC
  5
1219C
  8
0
 10
4148.9183164885607766
 20
115.3842624624592048
 30
0.0
 40
0.0346580964927306
 50
285.9033160923838182
 51
323.1455163904715846
  0
ARC
  5
1219D
  8
0
 10
4148.9065461089130622
 20
115.4255736265102001
 30
0.0
 40
0.0776133535901025
 50
272.2009306436377756
 51
285.9033160923838182
  0
ARC
  5
1219E
  8
0
 10
4148.9787002473049142
 20
115.2549355489834966
 30
0.0
 40
0.0588390670417243
 50
89.784699467946254
 51
115.4130056914956981
  0
ARC
  5
1219F
  8
0
 10
4148.9669800808278524
 20
115.2796037093944932
 30
0.0
 40
0.0315282552578743
 50
115.4130056914956981
 51
143.0321106762700083
  0
ARC
  5
121A0
  8
0
 10
4148.9543050130250776
 20
115.2891439254752015
 30
0.0
 40
0.0156640481642594
 50
143.0321106762692978
 51
180.1814773346164031
  0
ARC
  5
121A1
  8
0
 10
4148.9574491940065855
 20
115.2891538843149988
 30
0.0
 40
0.0188082449188287
 50
180.1814773346171989
 51
216.8544833864139889
  0
ARC
  5
121A2
  8
0
 10
4148.9701316332539136
 20
115.2986603836521056
 30
0.0
 40
0.0346580964927306
 50
216.8544833864127099
 51
254.0966836845369983
  0
ARC
  5
121A3
  8
0
 10
4148.9819020130653371
 20
115.3399715476571998
 30
0.0
 40
0.0776133535901025
 50
254.0966836845369983
 51
267.799069133270109
  0
ARC
  5
121A4
  8
0
 10
4148.9791424455315791
 20
115.2549355489826013
 30
0.0
 40
0.0588390670417243
 50
64.5869940853560536
 51
90.2153003089683523
  0
ARC
  5
121A5
  8
0
 10
4148.990862612104138
 20
115.2796037093479953
 30
0.0
 40
0.0315282552578743
 50
36.9678891006074508
 51
64.5869940853557125
  0
ARC
  5
121A6
  8
0
 10
4149.0035376799460209
 20
115.2891439253793067
 30
0.0
 40
0.0156640481642594
 50
359.8185224422651913
 51
36.9678891006074508
  0
ARC
  5
121A7
  8
0
 10
4149.0003934989636036
 20
115.2891538842313963
 30
0.0
 40
0.0188082449188287
 50
323.1455163904702772
 51
359.8185224422643955
  0
ARC
  5
121A8
  8
0
 10
4148.9877110597517458
 20
115.2986603836179
 30
0.0
 40
0.0346580964927306
 50
285.9033160923838182
 51
323.1455163904715846
  0
ARC
  5
121A9
  8
0
 10
4148.9759406801049408
 20
115.3399715476687959
 30
0.0
 40
0.0776133535901025
 50
272.2009306436377756
 51
285.9033160923838182
  0
ARC
  5
121AA
  8
0
 10
4148.9093398154491297
 20
115.1723139483141978
 30
0.0
 40
0.0588390670417243
 50
89.784699467946254
 51
115.4130056914956981
  0
ARC
  5
121AB
  8
0
 10
4148.8976196489720678
 20
115.1969821087251944
 30
0.0
 40
0.0315282552578743
 50
115.4130056914956981
 51
143.0321106762700083
  0
ARC
  5
121AC
  8
0
 10
4148.8849445811683836
 20
115.2065223248059027
 30
0.0
 40
0.0156640481642594
 50
143.0321106762692978
 51
180.1814773346164031
  0
ARC
  5
121AD
  8
0
 10
4148.8880887621508009
 20
115.2065322836457
 30
0.0
 40
0.0188082449188287
 50
180.1814773346171989
 51
216.8544833864139889
  0
ARC
  5
121AE
  8
0
 10
4148.9007712013990385
 20
115.2160387829828068
 30
0.0
 40
0.0346580964927306
 50
216.8544833864127099
 51
254.0966836845369983
  0
ARC
  5
121AF
  8
0
 10
4148.912541581206824
 20
115.257349946987901
 30
0.0
 40
0.0776133535901025
 50
254.0966836845369983
 51
267.799069133270109
  0
ARC
  5
121B0
  8
0
 10
4148.9097820136748851
 20
115.172313948313402
 30
0.0
 40
0.0588390670417243
 50
64.5869940853560536
 51
90.2153003089683523
  0
ARC
  5
121B1
  8
0
 10
4148.9215021802492629
 20
115.1969821086786965
 30
0.0
 40
0.0315282552578743
 50
36.9678891006074508
 51
64.5869940853557125
  0
ARC
  5
121B2
  8
0
 10
4148.9341772480893269
 20
115.2065223247099937
 30
0.0
 40
0.0156640481642594
 50
359.8185224422651913
 51
36.9678891006074508
  0
ARC
  5
121B3
  8
0
 10
4148.9310330671060001
 20
115.2065322835620975
 30
0.0
 40
0.0188082449188287
 50
323.1455163904702772
 51
359.8185224422643955
  0
ARC
  5
121B4
  8
0
 10
4148.9183506278959612
 20
115.2160387829486012
 30
0.0
 40
0.0346580964927306
 50
285.9033160923838182
 51
323.1455163904715846
  0
ARC
  5
121B5
  8
0
 10
4148.9065802482482468
 20
115.2573499469995966
 30
0.0
 40
0.0776133535901025
 50
272.2009306436377756
 51
285.9033160923838182
  0
ARC
  5
121B6
  8
0
 10
4149.0480483342089428
 20
115.1711515525358038
 30
0.0
 40
0.0588390670417243
 50
89.784699467946254
 51
115.4130056914956981
  0
ARC
  5
121B7
  8
0
 10
4149.036328167731881
 20
115.1958197129468005
 30
0.0
 40
0.0315282552578743
 50
115.4130056914956981
 51
143.0321106762700083
  0
ARC
  5
121B8
  8
0
 10
4149.0236530999281968
 20
115.2053599290273951
 30
0.0
 40
0.0156640481642594
 50
143.0321106762692978
 51
180.1814773346164031
  0
ARC
  5
121B9
  8
0
 10
4149.0267972809106141
 20
115.205369887867306
 30
0.0
 40
0.0188082449188287
 50
180.1814773346171989
 51
216.8544833864139889
  0
ARC
  5
121BA
  8
0
 10
4149.0394797201579422
 20
115.2148763872043986
 30
0.0
 40
0.0346580964927306
 50
216.8544833864127099
 51
254.0966836845369983
  0
ARC
  5
121BB
  8
0
 10
4149.0512500999675467
 20
115.2561875512095071
 30
0.0
 40
0.0776133535901025
 50
254.0966836845369983
 51
267.799069133270109
  0
ARC
  5
121BC
  8
0
 10
4149.0484905324346983
 20
115.1711515525348943
 30
0.0
 40
0.0588390670417243
 50
64.5869940853560536
 51
90.2153003089683523
  0
ARC
  5
121BD
  8
0
 10
4149.0602106990072571
 20
115.1958197129003025
 30
0.0
 40
0.0315282552578743
 50
36.9678891006074508
 51
64.5869940853557125
  0
ARC
  5
121BE
  8
0
 10
4149.0728857668500495
 20
115.2053599289315997
 30
0.0
 40
0.0156640481642594
 50
359.8185224422651913
 51
36.9678891006074508
  0
ARC
  5
121BF
  8
0
 10
4149.0697415858667227
 20
115.2053698877837036
 30
0.0
 40
0.0188082449188287
 50
323.1455163904702772
 51
359.8185224422643955
  0
ARC
  5
121C0
  8
0
 10
4149.0570591466557744
 20
115.2148763871701931
 30
0.0
 40
0.0346580964927306
 50
285.9033160923838182
 51
323.1455163904715846
  0
ARC
  5
121C1
  8
0
 10
4149.0452887670080599
 20
115.2561875512211031
 30
0.0
 40
0.0776133535901025
 50
272.2009306436377756
 51
285.9033160923838182
  0
ARC
  5
121C2
  8
0
 10
4148.9808810563836232
 20
115.0881365059113932
 30
0.0
 40
0.0588390670417243
 50
89.784699467946254
 51
115.4130056914956981
  0
ARC
  5
121C3
  8
0
 10
4148.9691608899056519
 20
115.112804666322404
 30
0.0
 40
0.0315282552578743
 50
115.4130056914956981
 51
143.0321106762700083
  0
ARC
  5
121C4
  8
0
 10
4148.9564858221028771
 20
115.1223448824029987
 30
0.0
 40
0.0156640481642594
 50
143.0321106762692978
 51
180.1814773346164031
  0
ARC
  5
121C5
  8
0
 10
4148.9596300030852944
 20
115.1223548412428954
 30
0.0
 40
0.0188082449188287
 50
180.1814773346171989
 51
216.8544833864139889
  0
ARC
  5
121C6
  8
0
 10
4148.9723124423326226
 20
115.1318613405800022
 30
0.0
 40
0.0346580964927306
 50
216.8544833864127099
 51
254.0966836845369983
  0
ARC
  5
121C7
  8
0
 10
4148.9840828221422271
 20
115.1731725045850965
 30
0.0
 40
0.0776133535901025
 50
254.0966836845369983
 51
267.799069133270109
  0
ARC
  5
121C8
  8
0
 10
4148.9813232546102881
 20
115.0881365059104979
 30
0.0
 40
0.0588390670417243
 50
64.5869940853560536
 51
90.2153003089683523
  0
ARC
  5
121C9
  8
0
 10
4148.9930434211828469
 20
115.1128046662759061
 30
0.0
 40
0.0315282552578743
 50
36.9678891006074508
 51
64.5869940853557125
  0
ARC
  5
121CA
  8
0
 10
4149.0057184890238204
 20
115.1223448823072033
 30
0.0
 40
0.0156640481642594
 50
359.8185224422651913
 51
36.9678891006074508
  0
ARC
  5
121CB
  8
0
 10
4149.0025743080414031
 20
115.122354841159293
 30
0.0
 40
0.0188082449188287
 50
323.1455163904702772
 51
359.8185224422643955
  0
ARC
  5
121CC
  8
0
 10
4148.9898918688295453
 20
115.1318613405457967
 30
0.0
 40
0.0346580964927306
 50
285.9033160923838182
 51
323.1455163904715846
  0
ARC
  5
121CD
  8
0
 10
4148.9781214891818308
 20
115.1731725045967067
 30
0.0
 40
0.0776133535901025
 50
272.2009306436377756
 51
285.9033160923838182
  0
ARC
  5
121CE
  8
0
 10
4149.1173861383585972
 20
115.2542517804943998
 30
0.0
 40
0.0588390670417243
 50
89.784699467946254
 51
115.4130056914956981
  0
ARC
  5
121CF
  8
0
 10
4149.1056659718824449
 20
115.2789199409052969
 30
0.0
 40
0.0315282552578743
 50
115.4130056914956981
 51
143.0321106762700083
  0
ARC
  5
121D0
  8
0
 10
4149.0929909040787607
 20
115.2884601569860052
 30
0.0
 40
0.0156640481642594
 50
143.0321106762692978
 51
180.1814773346164031
  0
ARC
  5
121D1
  8
0
 10
4149.096135085061178
 20
115.288470115825902
 30
0.0
 40
0.0188082449188287
 50
180.1814773346171989
 51
216.8544833864139889
  0
ARC
  5
121D2
  8
0
 10
4149.1088175243075966
 20
115.2979766151629946
 30
0.0
 40
0.0346580964927306
 50
216.8544833864127099
 51
254.0966836845369983
  0
ARC
  5
121D3
  8
0
 10
4149.1205879041172011
 20
115.339287779168103
 30
0.0
 40
0.0776133535901025
 50
254.0966836845369983
 51
267.799069133270109
  0
ARC
  5
121D4
  8
0
 10
4149.1178283365861716
 20
115.2542517804935045
 30
0.0
 40
0.0588390670417243
 50
64.5869940853560536
 51
90.2153003089683523
  0
ARC
  5
121D5
  8
0
 10
4149.129548503157821
 20
115.2789199408588985
 30
0.0
 40
0.0315282552578743
 50
36.9678891006074508
 51
64.5869940853557125
  0
ARC
  5
121D6
  8
0
 10
4149.142223570999704
 20
115.2884601568900962
 30
0.0
 40
0.0156640481642594
 50
359.8185224422651913
 51
36.9678891006074508
  0
ARC
  5
121D7
  8
0
 10
4149.1390793900172866
 20
115.2884701157422001
 30
0.0
 40
0.0188082449188287
 50
323.1455163904702772
 51
359.8185224422643955
  0
ARC
  5
121D8
  8
0
 10
4149.1263969508063383
 20
115.2979766151287038
 30
0.0
 40
0.0346580964927306
 50
285.9033160923838182
 51
323.1455163904715846
  0
ARC
  5
121D9
  8
0
 10
4149.1146265711577144
 20
115.3392877791796991
 30
0.0
 40
0.0776133535901025
 50
272.2009306436377756
 51
285.9033160923838182
  0
ARC
  5
121DA
  8
0
 10
4148.8399475630722009
 20
115.2566278063727054
 30
0.0
 40
0.0588390670417243
 50
89.784699467946254
 51
115.4130056914956981
  0
ARC
  5
121DB
  8
0
 10
4148.8282273965960485
 20
115.2812959667837021
 30
0.0
 40
0.0315282552578743
 50
115.4130056914956981
 51
143.0321106762700083
  0
ARC
  5
121DC
  8
0
 10
4148.8155523287923643
 20
115.2908361828642967
 30
0.0
 40
0.0156640481642594
 50
143.0321106762692978
 51
180.1814773346164031
  0
ARC
  5
121DD
  8
0
 10
4148.8186965097738721
 20
115.2908461417041934
 30
0.0
 40
0.0188082449188287
 50
180.1814773346171989
 51
216.8544833864139889
  0
ARC
  5
121DE
  8
0
 10
4148.8313789490212002
 20
115.3003526410413002
 30
0.0
 40
0.0346580964927306
 50
216.8544833864127099
 51
254.0966836845369983
  0
ARC
  5
121DF
  8
0
 10
4148.8431493288317142
 20
115.3416638050463945
 30
0.0
 40
0.0776133535901025
 50
254.0966836845369983
 51
267.799069133270109
  0
ARC
  5
121E0
  8
0
 10
4148.8403897612988658
 20
115.2566278063717959
 30
0.0
 40
0.0588390670417243
 50
64.5869940853560536
 51
90.2153003089683523
  0
ARC
  5
121E1
  8
0
 10
4148.8521099278714246
 20
115.2812959667372041
 30
0.0
 40
0.0315282552578743
 50
36.9678891006074508
 51
64.5869940853557125
  0
ARC
  5
121E2
  8
0
 10
4148.8647849957133076
 20
115.2908361827685013
 30
0.0
 40
0.0156640481642594
 50
359.8185224422651913
 51
36.9678891006074508
  0
ARC
  5
121E3
  8
0
 10
4148.8616408147308903
 20
115.2908461416205057
 30
0.0
 40
0.0188082449188287
 50
323.1455163904702772
 51
359.8185224422643955
  0
ARC
  5
121E4
  8
0
 10
4148.8489583755199419
 20
115.3003526410070947
 30
0.0
 40
0.0346580964927306
 50
285.9033160923838182
 51
323.1455163904715846
  0
ARC
  5
121E5
  8
0
 10
4148.8371879958722275
 20
115.3416638050580048
 30
0.0
 40
0.0776133535901025
 50
272.2009306436377756
 51
285.9033160923838182
  0
ARC
  5
121E6
  8
0
 10
4148.8398964955322299
 20
115.4257617963707929
 30
0.0
 40
0.0588390670417243
 50
89.784699467946254
 51
115.4130056914956981
  0
ARC
  5
121E7
  8
0
 10
4148.8281763290560775
 20
115.4504299567818038
 30
0.0
 40
0.0315282552578743
 50
115.4130056914956981
 51
143.0321106762700083
  0
ARC
  5
121E8
  8
0
 10
4148.8155012612505743
 20
115.4599701728624979
 30
0.0
 40
0.0156640481642594
 50
143.0321106762692978
 51
180.1814773346164031
  0
ARC
  5
121E9
  8
0
 10
4148.8186454422348106
 20
115.4599801317022951
 30
0.0
 40
0.0188082449188287
 50
180.1814773346171989
 51
216.8544833864139889
  0
ARC
  5
121EA
  8
0
 10
4148.8313278814821388
 20
115.4694866310394019
 30
0.0
 40
0.0346580964927306
 50
216.8544833864127099
 51
254.0966836845369983
  0
ARC
  5
121EB
  8
0
 10
4148.8430982612899243
 20
115.5107977950445957
 30
0.0
 40
0.0776133535901025
 50
254.0966836845369983
 51
267.799069133270109
  0
ARC
  5
121EC
  8
0
 10
4148.8403386937588948
 20
115.4257617963699971
 30
0.0
 40
0.0588390670417243
 50
64.5869940853560536
 51
90.2153003089683523
  0
ARC
  5
121ED
  8
0
 10
4148.8520588603314536
 20
115.4504299567353058
 30
0.0
 40
0.0315282552578743
 50
36.9678891006074508
 51
64.5869940853557125
  0
ARC
  5
121EE
  8
0
 10
4148.8647339281733366
 20
115.459970172766603
 30
0.0
 40
0.0156640481642594
 50
359.8185224422651913
 51
36.9678891006074508
  0
ARC
  5
121EF
  8
0
 10
4148.8615897471900098
 20
115.4599801316187069
 30
0.0
 40
0.0188082449188287
 50
323.1455163904702772
 51
359.8185224422643955
  0
ARC
  5
121F0
  8
0
 10
4148.8489073079790614
 20
115.4694866310051964
 30
0.0
 40
0.0346580964927306
 50
285.9033160923838182
 51
323.1455163904715846
  0
ARC
  5
121F1
  8
0
 10
4148.8371369283322565
 20
115.5107977950562059
 30
0.0
 40
0.0776133535901025
 50
272.2009306436377756
 51
285.9033160923838182
  0
ARC
  5
121F2
  8
0
 10
4148.9786613375626985
 20
115.4240177445841056
 30
0.0
 40
0.0588390670417243
 50
89.784699467946254
 51
115.4130056914956981
  0
ARC
  5
121F3
  8
0
 10
4148.9669411710883651
 20
115.4486859049951022
 30
0.0
 40
0.0315282552578743
 50
115.4130056914956981
 51
143.0321106762700083
  0
ARC
  5
121F4
  8
0
 10
4148.9542661032828619
 20
115.4582261210756968
 30
0.0
 40
0.0156640481642594
 50
143.0321106762692978
 51
180.1814773346164031
  0
ARC
  5
121F5
  8
0
 10
4148.9574102842661887
 20
115.4582360799155936
 30
0.0
 40
0.0188082449188287
 50
180.1814773346171989
 51
216.8544833864139889
  0
ARC
  5
121F6
  8
0
 10
4148.9700927235126073
 20
115.4677425792527004
 30
0.0
 40
0.0346580964927306
 50
216.8544833864127099
 51
254.0966836845369983
  0
ARC
  5
121F7
  8
0
 10
4148.9818631033222118
 20
115.5090537432577946
 30
0.0
 40
0.0776133535901025
 50
254.0966836845369983
 51
267.799069133270109
  0
ARC
  5
121F8
  8
0
 10
4148.9791035357911824
 20
115.4240177445831961
 30
0.0
 40
0.0588390670417243
 50
64.5869940853560536
 51
90.2153003089683523
  0
ARC
  5
121F9
  8
0
 10
4148.9908237023619222
 20
115.4486859049486043
 30
0.0
 40
0.0315282552578743
 50
36.9678891006074508
 51
64.5869940853557125
  0
ARC
  5
121FA
  8
0
 10
4149.0034987702047147
 20
115.4582261209799015
 30
0.0
 40
0.0156640481642594
 50
359.8185224422651913
 51
36.9678891006074508
  0
ARC
  5
121FB
  8
0
 10
4149.0003545892222974
 20
115.4582360798320053
 30
0.0
 40
0.0188082449188287
 50
323.1455163904702772
 51
359.8185224422643955
  0
ARC
  5
121FC
  8
0
 10
4148.9876721500122585
 20
115.4677425792184948
 30
0.0
 40
0.0346580964927306
 50
285.9033160923838182
 51
323.1455163904715846
  0
ARC
  5
121FD
  8
0
 10
4148.9759017703636346
 20
115.5090537432694049
 30
0.0
 40
0.0776133535901025
 50
272.2009306436377756
 51
285.9033160923838182
  0
ARC
  5
121FE
  8
0
 10
4149.1173313405715817
 20
115.4232841543786066
 30
0.0
 40
0.0588390670417243
 50
89.784699467946254
 51
115.4130056914956981
  0
ARC
  5
121FF
  8
0
 10
4149.1056111740963388
 20
115.4479523147895037
 30
0.0
 40
0.0315282552578743
 50
115.4130056914956981
 51
143.0321106762700083
  0
ARC
  5
12200
  8
0
 10
4149.0929361062908356
 20
115.4574925308701978
 30
0.0
 40
0.0156640481642594
 50
143.0321106762692978
 51
180.1814773346164031
  0
ARC
  5
12201
  8
0
 10
4149.0960802872741624
 20
115.4575024897099951
 30
0.0
 40
0.0188082449188287
 50
180.1814773346171989
 51
216.8544833864139889
  0
ARC
  5
12202
  8
0
 10
4149.1087627265224
 20
115.4670089890472013
 30
0.0
 40
0.0346580964927306
 50
216.8544833864127099
 51
254.0966836845369983
  0
ARC
  5
12203
  8
0
 10
4149.120533106331095
 20
115.5083201530522956
 30
0.0
 40
0.0776133535901025
 50
254.0966836845369983
 51
267.799069133270109
  0
ARC
  5
12204
  8
0
 10
4149.1177735388000656
 20
115.4232841543776971
 30
0.0
 40
0.0588390670417243
 50
64.5869940853560536
 51
90.2153003089683523
  0
ARC
  5
12205
  8
0
 10
4149.1294937053708054
 20
115.4479523147430058
 30
0.0
 40
0.0315282552578743
 50
36.9678891006074508
 51
64.5869940853557125
  0
ARC
  5
12206
  8
0
 10
4149.1421687732126884
 20
115.457492530774303
 30
0.0
 40
0.0156640481642594
 50
359.8185224422651913
 51
36.9678891006074508
  0
ARC
  5
12207
  8
0
 10
4149.1390245922311806
 20
115.4575024896264068
 30
0.0
 40
0.0188082449188287
 50
323.1455163904702772
 51
359.8185224422643955
  0
ARC
  5
12208
  8
0
 10
4149.1263421530202322
 20
115.4670089890128963
 30
0.0
 40
0.0346580964927306
 50
285.9033160923838182
 51
323.1455163904715846
  0
ARC
  5
12209
  8
0
 10
4149.1145717733716083
 20
115.5083201530639059
 30
0.0
 40
0.0776133535901025
 50
272.2009306436377756
 51
285.9033160923838182
  0
ARC
  5
1220A
  8
0
 10
4149.2560454523472799
 20
115.4235557329133997
 30
0.0
 40
0.0588390670417243
 50
89.784699467946254
 51
115.4130056914956981
  0
ARC
  5
1220B
  8
0
 10
4149.2443252858711276
 20
115.4482238933243963
 30
0.0
 40
0.0315282552578743
 50
115.4130056914956981
 51
143.0321106762700083
  0
ARC
  5
1220C
  8
0
 10
4149.2316502180656244
 20
115.4577641094050051
 30
0.0
 40
0.0156640481642594
 50
143.0321106762692978
 51
180.1814773346164031
  0
ARC
  5
1220D
  8
0
 10
4149.2347943990498607
 20
115.4577740682449019
 30
0.0
 40
0.0188082449188287
 50
180.1814773346171989
 51
216.8544833864139889
  0
ARC
  5
1220E
  8
0
 10
4149.2474768382962793
 20
115.4672805675819944
 30
0.0
 40
0.0346580964927306
 50
216.8544833864127099
 51
254.0966836845369983
  0
ARC
  5
1220F
  8
0
 10
4149.2592472181058838
 20
115.5085917315871029
 30
0.0
 40
0.0776133535901025
 50
254.0966836845369983
 51
267.799069133270109
  0
ARC
  5
12210
  8
0
 10
4149.2564876505739448
 20
115.4235557329125044
 30
0.0
 40
0.0588390670417243
 50
64.5869940853560536
 51
90.2153003089683523
  0
ARC
  5
12211
  8
0
 10
4149.2682078171455942
 20
115.4482238932778984
 30
0.0
 40
0.0315282552578743
 50
36.9678891006074508
 51
64.5869940853557125
  0
ARC
  5
12212
  8
0
 10
4149.2808828849883866
 20
115.4577641093090961
 30
0.0
 40
0.0156640481642594
 50
359.8185224422651913
 51
36.9678891006074508
  0
ARC
  5
12213
  8
0
 10
4149.2777387040050598
 20
115.4577740681611999
 30
0.0
 40
0.0188082449188287
 50
323.1455163904702772
 51
359.8185224422643955
  0
ARC
  5
12214
  8
0
 10
4149.265056264795021
 20
115.4672805675478031
 30
0.0
 40
0.0346580964927306
 50
285.9033160923838182
 51
323.1455163904715846
  0
ARC
  5
12215
  8
0
 10
4149.2532858851473065
 20
115.508591731598699
 30
0.0
 40
0.0776133535901025
 50
272.2009306436377756
 51
285.9033160923838182
  0
ARC
  5
12216
  8
0
 10
4149.39477974100555
 20
115.4248354951878071
 30
0.0
 40
0.0588390670417243
 50
89.784699467946254
 51
115.4130056914956981
  0
ARC
  5
12217
  8
0
 10
4149.3830595745293977
 20
115.4495036555988037
 30
0.0
 40
0.0315282552578743
 50
115.4130056914956981
 51
143.0321106762700083
  0
ARC
  5
12218
  8
0
 10
4149.3703845067257134
 20
115.4590438716794978
 30
0.0
 40
0.0156640481642594
 50
143.0321106762692978
 51
180.1814773346164031
  0
ARC
  5
12219
  8
0
 10
4149.3735286877081307
 20
115.459053830519295
 30
0.0
 40
0.0188082449188287
 50
180.1814773346171989
 51
216.8544833864139889
  0
ARC
  5
1221A
  8
0
 10
4149.3862111269545494
 20
115.4685603298565013
 30
0.0
 40
0.0346580964927306
 50
216.8544833864127099
 51
254.0966836845369983
  0
ARC
  5
1221B
  8
0
 10
4149.3979815067650634
 20
115.5098714938615956
 30
0.0
 40
0.0776133535901025
 50
254.0966836845369983
 51
267.799069133270109
  0
ARC
  5
1221C
  8
0
 10
4149.3952219392331244
 20
115.424835495186997
 30
0.0
 40
0.0588390670417243
 50
64.5869940853560536
 51
90.2153003089683523
  0
ARC
  5
1221D
  8
0
 10
4149.4069421058047737
 20
115.4495036555523058
 30
0.0
 40
0.0315282552578743
 50
36.9678891006074508
 51
64.5869940853557125
  0
ARC
  5
1221E
  8
0
 10
4149.4196171736466567
 20
115.4590438715836029
 30
0.0
 40
0.0156640481642594
 50
359.8185224422651913
 51
36.9678891006074508
  0
ARC
  5
1221F
  8
0
 10
4149.4164729926651489
 20
115.4590538304357068
 30
0.0
 40
0.0188082449188287
 50
323.1455163904702772
 51
359.8185224422643955
  0
ARC
  5
12220
  8
0
 10
4149.4037905534532911
 20
115.4685603298221963
 30
0.0
 40
0.0346580964927306
 50
285.9033160923838182
 51
323.1455163904715846
  0
ARC
  5
12221
  8
0
 10
4149.3920201738046671
 20
115.5098714938732058
 30
0.0
 40
0.0776133535901025
 50
272.2009306436377756
 51
285.9033160923838182
  0
ARC
  5
12222
  8
0
 10
4149.4641557630402531
 20
115.5084753463712985
 30
0.0
 40
0.0588390670417243
 50
89.784699467946254
 51
115.4130056914956981
  0
ARC
  5
12223
  8
0
 10
4149.4524355965650102
 20
115.5331435067822952
 30
0.0
 40
0.0315282552578743
 50
115.4130056914956981
 51
143.0321106762700083
  0
ARC
  5
12224
  8
0
 10
4149.4397605287604165
 20
115.542683722862904
 30
0.0
 40
0.0156640481642594
 50
143.0321106762692978
 51
180.1814773346164031
  0
ARC
  5
12225
  8
0
 10
4149.4429047097437433
 20
115.5426936817028007
 30
0.0
 40
0.0188082449188287
 50
180.1814773346171989
 51
216.8544833864139889
  0
ARC
  5
12226
  8
0
 10
4149.4555871489910714
 20
115.5522001810398933
 30
0.0
 40
0.0346580964927306
 50
216.8544833864127099
 51
254.0966836845369983
  0
ARC
  5
12227
  8
0
 10
4149.4673575287988569
 20
115.5935113450450018
 30
0.0
 40
0.0776133535901025
 50
254.0966836845369983
 51
267.799069133270109
  0
ARC
  5
12228
  8
0
 10
4149.4645979612678275
 20
115.5084753463704033
 30
0.0
 40
0.0588390670417243
 50
64.5869940853560536
 51
90.2153003089683523
  0
ARC
  5
12229
  8
0
 10
4149.4763181278412958
 20
115.5331435067357972
 30
0.0
 40
0.0315282552578743
 50
36.9678891006074508
 51
64.5869940853557125
  0
ARC
  5
1222A
  8
0
 10
4149.4889931956822693
 20
115.5426837227670944
 30
0.0
 40
0.0156640481642594
 50
359.8185224422651913
 51
36.9678891006074508
  0
ARC
  5
1222B
  8
0
 10
4149.485849014699852
 20
115.5426936816191983
 30
0.0
 40
0.0188082449188287
 50
323.1455163904702772
 51
359.8185224422643955
  0
ARC
  5
1222C
  8
0
 10
4149.4731665754879941
 20
115.552200181005702
 30
0.0
 40
0.0346580964927306
 50
285.9033160923838182
 51
323.1455163904715846
  0
ARC
  5
1222D
  8
0
 10
4149.4613961958411892
 20
115.5935113450565979
 30
0.0
 40
0.0776133535901025
 50
272.2009306436377756
 51
285.9033160923838182
  0
ARC
  5
1222E
  8
0
 10
4149.3254038197446789
 20
115.5067153868411935
 30
0.0
 40
0.0588390670417243
 50
89.784699467946254
 51
115.4130056914956981
  0
ARC
  5
1222F
  8
0
 10
4149.313683653269436
 20
115.5313835472522044
 30
0.0
 40
0.0315282552578743
 50
115.4130056914956981
 51
143.0321106762700083
  0
ARC
  5
12230
  8
0
 10
4149.3010085854648423
 20
115.540923763332799
 30
0.0
 40
0.0156640481642594
 50
143.0321106762692978
 51
180.1814773346164031
  0
ARC
  5
12231
  8
0
 10
4149.3041527664481691
 20
115.5409337221726958
 30
0.0
 40
0.0188082449188287
 50
180.1814773346171989
 51
216.8544833864139889
  0
ARC
  5
12232
  8
0
 10
4149.3168352056945878
 20
115.5504402215098025
 30
0.0
 40
0.0346580964927306
 50
216.8544833864127099
 51
254.0966836845369983
  0
ARC
  5
12233
  8
0
 10
4149.3286055855041923
 20
115.5917513855148968
 30
0.0
 40
0.0776133535901025
 50
254.0966836845369983
 51
267.799069133270109
  0
ARC
  5
12234
  8
0
 10
4149.3258460179731628
 20
115.5067153868403977
 30
0.0
 40
0.0588390670417243
 50
64.5869940853560536
 51
90.2153003089683523
  0
ARC
  5
12235
  8
0
 10
4149.3375661845439026
 20
115.5313835472057065
 30
0.0
 40
0.0315282552578743
 50
36.9678891006074508
 51
64.5869940853557125
  0
ARC
  5
12236
  8
0
 10
4149.3502412523866951
 20
115.5409237632370036
 30
0.0
 40
0.0156640481642594
 50
359.8185224422651913
 51
36.9678891006074508
  0
ARC
  5
12237
  8
0
 10
4149.3470970714033683
 20
115.5409337220890933
 30
0.0
 40
0.0188082449188287
 50
323.1455163904702772
 51
359.8185224422643955
  0
ARC
  5
12238
  8
0
 10
4149.3344146321933295
 20
115.550440221475597
 30
0.0
 40
0.0346580964927306
 50
285.9033160923838182
 51
323.1455163904715846
  0
ARC
  5
12239
  8
0
 10
4149.3226442525447055
 20
115.5917513855265071
 30
0.0
 40
0.0776133535901025
 50
272.2009306436377756
 51
285.9033160923838182
  0
ARC
  5
1223A
  8
0
 10
4149.1866832425293978
 20
115.5059641221775024
 30
0.0
 40
0.0588390670417243
 50
89.784699467946254
 51
115.4130056914956981
  0
ARC
  5
1223B
  8
0
 10
4149.1749630760532455
 20
115.530632282588499
 30
0.0
 40
0.0315282552578743
 50
115.4130056914956981
 51
143.0321106762700083
  0
ARC
  5
1223C
  8
0
 10
4149.1622880082486517
 20
115.5401724986691931
 30
0.0
 40
0.0156640481642594
 50
143.0321106762692978
 51
180.1814773346164031
  0
ARC
  5
1223D
  8
0
 10
4149.1654321892310691
 20
115.5401824575090046
 30
0.0
 40
0.0188082449188287
 50
180.1814773346171989
 51
216.8544833864139889
  0
ARC
  5
1223E
  8
0
 10
4149.1781146284793067
 20
115.5496889568461967
 30
0.0
 40
0.0346580964927306
 50
216.8544833864127099
 51
254.0966836845369983
  0
ARC
  5
1223F
  8
0
 10
4149.1898850082880017
 20
115.5910001208513052
 30
0.0
 40
0.0776133535901025
 50
254.0966836845369983
 51
267.799069133270109
  0
ARC
  5
12240
  8
0
 10
4149.1871254407560627
 20
115.5059641221767066
 30
0.0
 40
0.0588390670417243
 50
64.5869940853560536
 51
90.2153003089683523
  0
ARC
  5
12241
  8
0
 10
4149.1988456073286216
 20
115.5306322825420011
 30
0.0
 40
0.0315282552578743
 50
36.9678891006074508
 51
64.5869940853557125
  0
ARC
  5
12242
  8
0
 10
4149.2115206751695951
 20
115.5401724985732983
 30
0.0
 40
0.0156640481642594
 50
359.8185224422651913
 51
36.9678891006074508
  0
ARC
  5
12243
  8
0
 10
4149.2083764941880872
 20
115.5401824574254022
 30
0.0
 40
0.0188082449188287
 50
323.1455163904702772
 51
359.8185224422643955
  0
ARC
  5
12244
  8
0
 10
4149.1956940549762294
 20
115.5496889568119059
 30
0.0
 40
0.0346580964927306
 50
285.9033160923838182
 51
323.1455163904715846
  0
ARC
  5
12245
  8
0
 10
4149.1839236753294244
 20
115.5910001208629012
 30
0.0
 40
0.0776133535901025
 50
272.2009306436377756
 51
285.9033160923838182
  0
ARC
  5
12246
  8
0
 10
4149.0479952728383068
 20
115.506219465560406
 30
0.0
 40
0.0588390670417243
 50
89.784699467946254
 51
115.4130056914956981
  0
ARC
  5
12247
  8
0
 10
4149.0362751063621545
 20
115.5308876259714026
 30
0.0
 40
0.0315282552578743
 50
115.4130056914956981
 51
143.0321106762700083
  0
ARC
  5
12248
  8
0
 10
4149.0236000385575608
 20
115.5404278420519972
 30
0.0
 40
0.0156640481642594
 50
143.0321106762692978
 51
180.1814773346164031
  0
ARC
  5
12249
  8
0
 10
4149.0267442195408876
 20
115.540437800891894
 30
0.0
 40
0.0188082449188287
 50
180.1814773346171989
 51
216.8544833864139889
  0
ARC
  5
1224A
  8
0
 10
4149.0394266587882157
 20
115.5499443002290008
 30
0.0
 40
0.0346580964927306
 50
216.8544833864127099
 51
254.0966836845369983
  0
ARC
  5
1224B
  8
0
 10
4149.0511970385969107
 20
115.591255464234095
 30
0.0
 40
0.0776133535901025
 50
254.0966836845369983
 51
267.799069133270109
  0
ARC
  5
1224C
  8
0
 10
4149.0484374710658813
 20
115.506219465559596
 30
0.0
 40
0.0588390670417243
 50
64.5869940853560536
 51
90.2153003089683523
  0
ARC
  5
1224D
  8
0
 10
4149.0601576376384401
 20
115.5308876259249047
 30
0.0
 40
0.0315282552578743
 50
36.9678891006074508
 51
64.5869940853557125
  0
ARC
  5
1224E
  8
0
 10
4149.0728327054794136
 20
115.5404278419562019
 30
0.0
 40
0.0156640481642594
 50
359.8185224422651913
 51
36.9678891006074508
  0
ARC
  5
1224F
  8
0
 10
4149.0696885244969963
 20
115.5404378008083057
 30
0.0
 40
0.0188082449188287
 50
323.1455163904702772
 51
359.8185224422643955
  0
ARC
  5
12250
  8
0
 10
4149.0570060852860479
 20
115.5499443001947952
 30
0.0
 40
0.0346580964927306
 50
285.9033160923838182
 51
323.1455163904715846
  0
ARC
  5
12251
  8
0
 10
4149.0452357056383335
 20
115.5912554642457053
 30
0.0
 40
0.0776133535901025
 50
272.2009306436377756
 51
285.9033160923838182
  0
ARC
  5
12252
  8
0
 10
4148.9080224749395711
 20
115.5075631098508069
 30
0.0
 40
0.0588390670417243
 50
89.784699467946254
 51
115.4130056914956981
  0
ARC
  5
12253
  8
0
 10
4148.8963023084643282
 20
115.5322312702618035
 30
0.0
 40
0.0315282552578743
 50
115.4130056914956981
 51
143.0321106762700083
  0
ARC
  5
12254
  8
0
 10
4148.883627240658825
 20
115.5417714863424976
 30
0.0
 40
0.0156640481642594
 50
143.0321106762692978
 51
180.1814773346164031
  0
ARC
  5
12255
  8
0
 10
4148.8867714216430613
 20
115.5417814451822949
 30
0.0
 40
0.0188082449188287
 50
180.1814773346171989
 51
216.8544833864139889
  0
ARC
  5
12256
  8
0
 10
4148.899453860891299
 20
115.5512879445194017
 30
0.0
 40
0.0346580964927306
 50
216.8544833864127099
 51
254.0966836845369983
  0
ARC
  5
12257
  8
0
 10
4148.911224240698175
 20
115.5925991085244959
 30
0.0
 40
0.0776133535901025
 50
254.0966836845369983
 51
267.799069133270109
  0
ARC
  5
12258
  8
0
 10
4148.9084646731671455
 20
115.5075631098498974
 30
0.0
 40
0.0588390670417243
 50
64.5869940853560536
 51
90.2153003089683523
  0
ARC
  5
12259
  8
0
 10
4148.9201848397397043
 20
115.5322312702153056
 30
0.0
 40
0.0315282552578743
 50
36.9678891006074508
 51
64.5869940853557125
  0
ARC
  5
1225A
  8
0
 10
4148.9328599075797683
 20
115.5417714862466028
 30
0.0
 40
0.0156640481642594
 50
359.8185224422651913
 51
36.9678891006074508
  0
ARC
  5
1225B
  8
0
 10
4148.929715726597351
 20
115.5417814450987066
 30
0.0
 40
0.0188082449188287
 50
323.1455163904702772
 51
359.8185224422643955
  0
ARC
  5
1225C
  8
0
 10
4148.9170332873873122
 20
115.5512879444851961
 30
0.0
 40
0.0346580964927306
 50
285.9033160923838182
 51
323.1455163904715846
  0
ARC
  5
1225D
  8
0
 10
4148.9052629077395977
 20
115.5925991085362057
 30
0.0
 40
0.0776133535901025
 50
272.2009306436377756
 51
285.9033160923838182
  0
ARC
  5
1225E
  8
0
 10
4148.8399174779833629
 20
115.5928338062072953
 30
0.0
 40
0.0588390670417243
 50
89.784699467946254
 51
115.4130056914956981
  0
ARC
  5
1225F
  8
0
 10
4148.8281973115072105
 20
115.6175019666183061
 30
0.0
 40
0.0315282552578743
 50
115.4130056914956981
 51
143.0321106762700083
  0
ARC
  5
12260
  8
0
 10
4148.8155222437044358
 20
115.6270421826989008
 30
0.0
 40
0.0156640481642594
 50
143.0321106762692978
 51
180.1814773346164031
  0
ARC
  5
12261
  8
0
 10
4148.8186664246859436
 20
115.6270521415387975
 30
0.0
 40
0.0188082449188287
 50
180.1814773346171989
 51
216.8544833864139889
  0
ARC
  5
12262
  8
0
 10
4148.8313488639332718
 20
115.6365586408759043
 30
0.0
 40
0.0346580964927306
 50
216.8544833864127099
 51
254.0966836845369983
  0
ARC
  5
12263
  8
0
 10
4148.8431192437428763
 20
115.6778698048809986
 30
0.0
 40
0.0776133535901025
 50
254.0966836845369983
 51
267.799069133270109
  0
ARC
  5
12264
  8
0
 10
4148.8403596762109373
 20
115.5928338062064995
 30
0.0
 40
0.0588390670417243
 50
64.5869940853560536
 51
90.2153003089683523
  0
ARC
  5
12265
  8
0
 10
4148.8520798427825866
 20
115.617501966571794
 30
0.0
 40
0.0315282552578743
 50
36.9678891006074508
 51
64.5869940853557125
  0
ARC
  5
12266
  8
0
 10
4148.8647549106253791
 20
115.6270421826031054
 30
0.0
 40
0.0156640481642594
 50
359.8185224422651913
 51
36.9678891006074508
  0
ARC
  5
12267
  8
0
 10
4148.8616107296420523
 20
115.6270521414551951
 30
0.0
 40
0.0188082449188287
 50
323.1455163904702772
 51
359.8185224422643955
  0
ARC
  5
12268
  8
0
 10
4148.848928290431104
 20
115.6365586408416988
 30
0.0
 40
0.0346580964927306
 50
285.9033160923838182
 51
323.1455163904715846
  0
ARC
  5
12269
  8
0
 10
4148.8371579107833895
 20
115.6778698048925946
 30
0.0
 40
0.0776133535901025
 50
272.2009306436377756
 51
285.9033160923838182
  0
ARC
  5
1226A
  8
0
 10
4148.909306978339373
 20
115.6760664916327954
 30
0.0
 40
0.0588390670417243
 50
89.784699467946254
 51
115.4130056914956981
  0
ARC
  5
1226B
  8
0
 10
4148.8975868118632206
 20
115.7007346520438062
 30
0.0
 40
0.0315282552578743
 50
115.4130056914956981
 51
143.0321106762700083
  0
ARC
  5
1226C
  8
0
 10
4148.8849117440577174
 20
115.7102748681244009
 30
0.0
 40
0.0156640481642594
 50
143.0321106762692978
 51
180.1814773346164031
  0
ARC
  5
1226D
  8
0
 10
4148.8880559250401348
 20
115.7102848269642976
 30
0.0
 40
0.0188082449188287
 50
180.1814773346171989
 51
216.8544833864139889
  0
ARC
  5
1226E
  8
0
 10
4148.9007383642892819
 20
115.7197913263014044
 30
0.0
 40
0.0346580964927306
 50
216.8544833864127099
 51
254.0966836845369983
  0
ARC
  5
1226F
  8
0
 10
4148.9125087440979769
 20
115.7611024903064987
 30
0.0
 40
0.0776133535901025
 50
254.0966836845369983
 51
267.799069133270109
  0
ARC
  5
12270
  8
0
 10
4148.9097491765660379
 20
115.6760664916319001
 30
0.0
 40
0.0588390670417243
 50
64.5869940853560536
 51
90.2153003089683523
  0
ARC
  5
12271
  8
0
 10
4148.9214693431385967
 20
115.7007346519972941
 30
0.0
 40
0.0315282552578743
 50
36.9678891006074508
 51
64.5869940853557125
  0
ARC
  5
12272
  8
0
 10
4148.9341444109795702
 20
115.7102748680286055
 30
0.0
 40
0.0156640481642594
 50
359.8185224422651913
 51
36.9678891006074508
  0
ARC
  5
12273
  8
0
 10
4148.9310002299971529
 20
115.7102848268806952
 30
0.0
 40
0.0188082449188287
 50
323.1455163904702772
 51
359.8185224422643955
  0
ARC
  5
12274
  8
0
 10
4148.9183177907862046
 20
115.7197913262671989
 30
0.0
 40
0.0346580964927306
 50
285.9033160923838182
 51
323.1455163904715846
  0
ARC
  5
12275
  8
0
 10
4148.9065474111375806
 20
115.7611024903180947
 30
0.0
 40
0.0776133535901025
 50
272.2009306436377756
 51
285.9033160923838182
  0
ARC
  5
12276
  8
0
 10
4148.9786537046647936
 20
115.5910420484061945
 30
0.0
 40
0.0588390670417243
 50
89.784699467946254
 51
115.4130056914956981
  0
ARC
  5
12277
  8
0
 10
4148.9669335381886413
 20
115.6157102088172053
 30
0.0
 40
0.0315282552578743
 50
115.4130056914956981
 51
143.0321106762700083
  0
ARC
  5
12278
  8
0
 10
4148.9542584703840475
 20
115.6252504248977999
 30
0.0
 40
0.0156640481642594
 50
143.0321106762692978
 51
180.1814773346164031
  0
ARC
  5
12279
  8
0
 10
4148.9574026513673743
 20
115.6252603837376967
 30
0.0
 40
0.0188082449188287
 50
180.1814773346171989
 51
216.8544833864139889
  0
ARC
  5
1227A
  8
0
 10
4148.970085090613793
 20
115.6347668830748034
 30
0.0
 40
0.0346580964927306
 50
216.8544833864127099
 51
254.0966836845369983
  0
ARC
  5
1227B
  8
0
 10
4148.9818554704233975
 20
115.6760780470798977
 30
0.0
 40
0.0776133535901025
 50
254.0966836845369983
 51
267.799069133270109
  0
ARC
  5
1227C
  8
0
 10
4148.979095902892368
 20
115.5910420484052992
 30
0.0
 40
0.0588390670417243
 50
64.5869940853560536
 51
90.2153003089683523
  0
ARC
  5
1227D
  8
0
 10
4148.9908160694631079
 20
115.6157102087706932
 30
0.0
 40
0.0315282552578743
 50
36.9678891006074508
 51
64.5869940853557125
  0
ARC
  5
1227E
  8
0
 10
4149.0034911373059003
 20
115.6252504248020045
 30
0.0
 40
0.0156640481642594
 50
359.8185224422651913
 51
36.9678891006074508
  0
ARC
  5
1227F
  8
0
 10
4149.0003469563225735
 20
115.6252603836540942
 30
0.0
 40
0.0188082449188287
 50
323.1455163904702772
 51
359.8185224422643955
  0
ARC
  5
12280
  8
0
 10
4148.9876645171134442
 20
115.6347668830405979
 30
0.0
 40
0.0346580964927306
 50
285.9033160923838182
 51
323.1455163904715846
  0
ARC
  5
12281
  8
0
 10
4148.9758941374639107
 20
115.6760780470914938
 30
0.0
 40
0.0776133535901025
 50
272.2009306436377756
 51
285.9033160923838182
  0
ARC
  5
12282
  8
0
 10
4149.0480149357726987
 20
115.6747547348717973
 30
0.0
 40
0.0588390670417243
 50
89.784699467946254
 51
115.4130056914956981
  0
ARC
  5
12283
  8
0
 10
4149.0362947692956368
 20
115.6994228952827939
 30
0.0
 40
0.0315282552578743
 50
115.4130056914956981
 51
143.0321106762700083
  0
ARC
  5
12284
  8
0
 10
4149.0236197014928621
 20
115.7089631113635022
 30
0.0
 40
0.0156640481642594
 50
143.0321106762692978
 51
180.1814773346164031
  0
ARC
  5
12285
  8
0
 10
4149.0267638824752794
 20
115.7089730702033989
 30
0.0
 40
0.0188082449188287
 50
180.1814773346171989
 51
216.8544833864139889
  0
ARC
  5
12286
  8
0
 10
4149.039446321721698
 20
115.7184795695405057
 30
0.0
 40
0.0346580964927306
 50
216.8544833864127099
 51
254.0966836845369983
  0
ARC
  5
12287
  8
0
 10
4149.0512167015313025
 20
115.7597907335456
 30
0.0
 40
0.0776133535901025
 50
254.0966836845369983
 51
267.799069133270109
  0
ARC
  5
12288
  8
0
 10
4149.0484571340002731
 20
115.6747547348710015
 30
0.0
 40
0.0588390670417243
 50
64.5869940853560536
 51
90.2153003089683523
  0
ARC
  5
12289
  8
0
 10
4149.0601773005719224
 20
115.6994228952363954
 30
0.0
 40
0.0315282552578743
 50
36.9678891006074508
 51
64.5869940853557125
  0
ARC
  5
1228A
  8
0
 10
4149.0728523684138054
 20
115.7089631112675931
 30
0.0
 40
0.0156640481642594
 50
359.8185224422651913
 51
36.9678891006074508
  0
ARC
  5
1228B
  8
0
 10
4149.0697081874322976
 20
115.708973070119697
 30
0.0
 40
0.0188082449188287
 50
323.1455163904702772
 51
359.8185224422643955
  0
ARC
  5
1228C
  8
0
 10
4149.0570257482204397
 20
115.7184795695062007
 30
0.0
 40
0.0346580964927306
 50
285.9033160923838182
 51
323.1455163904715846
  0
ARC
  5
1228D
  8
0
 10
4149.0452553685718158
 20
115.7597907335571961
 30
0.0
 40
0.0776133535901025
 50
272.2009306436377756
 51
285.9033160923838182
  0
ARC
  5
1228E
  8
0
 10
4148.9786981231327445
 20
115.7611539816818009
 30
0.0
 40
0.0588390670417243
 50
89.784699467946254
 51
115.4130056914956981
  0
ARC
  5
1228F
  8
0
 10
4148.9669779566556826
 20
115.7858221420926981
 30
0.0
 40
0.0315282552578743
 50
115.4130056914956981
 51
143.0321106762700083
  0
ARC
  5
12290
  8
0
 10
4148.9543028888519984
 20
115.7953623581734064
 30
0.0
 40
0.0156640481642594
 50
143.0321106762692978
 51
180.1814773346164031
  0
ARC
  5
12291
  8
0
 10
4148.9574470698344157
 20
115.7953723170132037
 30
0.0
 40
0.0188082449188287
 50
180.1814773346171989
 51
216.8544833864139889
  0
ARC
  5
12292
  8
0
 10
4148.9701295090817439
 20
115.8048788163502962
 30
0.0
 40
0.0346580964927306
 50
216.8544833864127099
 51
254.0966836845369983
  0
ARC
  5
12293
  8
0
 10
4148.9818998888913484
 20
115.8461899803555042
 30
0.0
 40
0.0776133535901025
 50
254.0966836845369983
 51
267.799069133270109
  0
ARC
  5
12294
  8
0
 10
4148.9791403213594094
 20
115.7611539816809056
 30
0.0
 40
0.0588390670417243
 50
64.5869940853560536
 51
90.2153003089683523
  0
ARC
  5
12295
  8
0
 10
4148.9908604879310587
 20
115.7858221420462002
 30
0.0
 40
0.0315282552578743
 50
36.9678891006074508
 51
64.5869940853557125
  0
ARC
  5
12296
  8
0
 10
4149.0035355557729417
 20
115.7953623580774973
 30
0.0
 40
0.0156640481642594
 50
359.8185224422651913
 51
36.9678891006074508
  0
ARC
  5
12297
  8
0
 10
4149.0003913747896149
 20
115.7953723169296012
 30
0.0
 40
0.0188082449188287
 50
323.1455163904702772
 51
359.8185224422643955
  0
ARC
  5
12298
  8
0
 10
4148.9877089355786666
 20
115.8048788163161049
 30
0.0
 40
0.0346580964927306
 50
285.9033160923838182
 51
323.1455163904715846
  0
ARC
  5
12299
  8
0
 10
4148.9759385559309521
 20
115.8461899803671002
 30
0.0
 40
0.0776133535901025
 50
272.2009306436377756
 51
285.9033160923838182
  0
ARC
  5
1229A
  8
0
 10
4149.1173795622007674
 20
115.7603219390724973
 30
0.0
 40
0.0588390670417243
 50
89.784699467946254
 51
115.4130056914956981
  0
ARC
  5
1229B
  8
0
 10
4149.105659395724615
 20
115.784990099483494
 30
0.0
 40
0.0315282552578743
 50
115.4130056914956981
 51
143.0321106762700083
  0
ARC
  5
1229C
  8
0
 10
4149.0929843279209308
 20
115.7945303155642023
 30
0.0
 40
0.0156640481642594
 50
143.0321106762692978
 51
180.1814773346164031
  0
ARC
  5
1229D
  8
0
 10
4149.0961285089042576
 20
115.794540274404099
 30
0.0
 40
0.0188082449188287
 50
180.1814773346171989
 51
216.8544833864139889
  0
ARC
  5
1229E
  8
0
 10
4149.1088109481515858
 20
115.8040467737412058
 30
0.0
 40
0.0346580964927306
 50
216.8544833864127099
 51
254.0966836845369983
  0
ARC
  5
1229F
  8
0
 10
4149.1205813279611903
 20
115.8453579377463001
 30
0.0
 40
0.0776133535901025
 50
254.0966836845369983
 51
267.799069133270109
  0
ARC
  5
122A0
  8
0
 10
4149.1178217604292513
 20
115.7603219390717015
 30
0.0
 40
0.0588390670417243
 50
64.5869940853560536
 51
90.2153003089683523
  0
ARC
  5
122A1
  8
0
 10
4149.1295419270018101
 20
115.7849900994370955
 30
0.0
 40
0.0315282552578743
 50
36.9678891006074508
 51
64.5869940853557125
  0
ARC
  5
122A2
  8
0
 10
4149.1422169948418741
 20
115.7945303154682932
 30
0.0
 40
0.0156640481642594
 50
359.8185224422651913
 51
36.9678891006074508
  0
ARC
  5
122A3
  8
0
 10
4149.1390728138603663
 20
115.7945402743203971
 30
0.0
 40
0.0188082449188287
 50
323.1455163904702772
 51
359.8185224422643955
  0
ARC
  5
122A4
  8
0
 10
4149.1263903746494179
 20
115.8040467737069008
 30
0.0
 40
0.0346580964927306
 50
285.9033160923838182
 51
323.1455163904715846
  0
ARC
  5
122A5
  8
0
 10
4149.114619995000794
 20
115.8453579377578961
 30
0.0
 40
0.0776133535901025
 50
272.2009306436377756
 51
285.9033160923838182
  0
ARC
  5
122A6
  8
0
 10
4149.2560770139498345
 20
115.7604972596621025
 30
0.0
 40
0.0588390670417243
 50
89.784699467946254
 51
115.4130056914956981
  0
ARC
  5
122A7
  8
0
 10
4149.2443568474736821
 20
115.7851654200730991
 30
0.0
 40
0.0315282552578743
 50
115.4130056914956981
 51
143.0321106762700083
  0
ARC
  5
122A8
  8
0
 10
4149.2316817796690884
 20
115.7947056361537932
 30
0.0
 40
0.0156640481642594
 50
143.0321106762692978
 51
180.1814773346164031
  0
ARC
  5
122A9
  8
0
 10
4149.2348259606524152
 20
115.7947155949936047
 30
0.0
 40
0.0188082449188287
 50
180.1814773346171989
 51
216.8544833864139889
  0
ARC
  5
122AA
  8
0
 10
4149.2475083998988339
 20
115.8042220943307967
 30
0.0
 40
0.0346580964927306
 50
216.8544833864127099
 51
254.0966836845369983
  0
ARC
  5
122AB
  8
0
 10
4149.2592787797084384
 20
115.8455332583359052
 30
0.0
 40
0.0776133535901025
 50
254.0966836845369983
 51
267.799069133270109
  0
ARC
  5
122AC
  8
0
 10
4149.2565192121774089
 20
115.7604972596613067
 30
0.0
 40
0.0588390670417243
 50
64.5869940853560536
 51
90.2153003089683523
  0
ARC
  5
122AD
  8
0
 10
4149.2682393787490582
 20
115.7851654200266012
 30
0.0
 40
0.0315282552578743
 50
36.9678891006074508
 51
64.5869940853557125
  0
ARC
  5
122AE
  8
0
 10
4149.2809144465909412
 20
115.7947056360578983
 30
0.0
 40
0.0156640481642594
 50
359.8185224422651913
 51
36.9678891006074508
  0
ARC
  5
122AF
  8
0
 10
4149.2777702656076144
 20
115.7947155949100022
 30
0.0
 40
0.0188082449188287
 50
323.1455163904702772
 51
359.8185224422643955
  0
ARC
  5
122B0
  8
0
 10
4149.2650878263975756
 20
115.8042220942965059
 30
0.0
 40
0.0346580964927306
 50
285.9033160923838182
 51
323.1455163904715846
  0
ARC
  5
122B1
  8
0
 10
4149.2533174467489516
 20
115.8455332583475013
 30
0.0
 40
0.0776133535901025
 50
272.2009306436377756
 51
285.9033160923838182
  0
ARC
  5
122B2
  8
0
 10
4149.3947997784298423
 20
115.7589825186399963
 30
0.0
 40
0.0588390670417243
 50
89.784699467946254
 51
115.4130056914956981
  0
ARC
  5
122B3
  8
0
 10
4149.3830796119527804
 20
115.7836506790509929
 30
0.0
 40
0.0315282552578743
 50
115.4130056914956981
 51
143.0321106762700083
  0
ARC
  5
122B4
  8
0
 10
4149.3704045441490962
 20
115.7931908951316018
 30
0.0
 40
0.0156640481642594
 50
143.0321106762692978
 51
180.1814773346164031
  0
ARC
  5
122B5
  8
0
 10
4149.373548725130604
 20
115.7932008539714985
 30
0.0
 40
0.0188082449188287
 50
180.1814773346171989
 51
216.8544833864139889
  0
ARC
  5
122B6
  8
0
 10
4149.3862311643788416
 20
115.8027073533086053
 30
0.0
 40
0.0346580964927306
 50
216.8544833864127099
 51
254.0966836845369983
  0
ARC
  5
122B7
  8
0
 10
4149.3980015441884461
 20
115.8440185173136996
 30
0.0
 40
0.0776133535901025
 50
254.0966836845369983
 51
267.799069133270109
  0
ARC
  5
122B8
  8
0
 10
4149.3952419766555977
 20
115.758982518639101
 30
0.0
 40
0.0588390670417243
 50
64.5869940853560536
 51
90.2153003089683523
  0
ARC
  5
122B9
  8
0
 10
4149.406962143229066
 20
115.783650679004495
 30
0.0
 40
0.0315282552578743
 50
36.9678891006074508
 51
64.5869940853557125
  0
ARC
  5
122BA
  8
0
 10
4149.4196372110700395
 20
115.7931908950358064
 30
0.0
 40
0.0156640481642594
 50
359.8185224422651913
 51
36.9678891006074508
  0
ARC
  5
122BB
  8
0
 10
4149.4164930300867127
 20
115.7932008538878961
 30
0.0
 40
0.0188082449188287
 50
323.1455163904702772
 51
359.8185224422643955
  0
ARC
  5
122BC
  8
0
 10
4149.4038105908775833
 20
115.8027073532743998
 30
0.0
 40
0.0346580964927306
 50
285.9033160923838182
 51
323.1455163904715846
  0
ARC
  5
122BD
  8
0
 10
4149.3920402112280499
 20
115.8440185173252956
 30
0.0
 40
0.0776133535901025
 50
272.2009306436377756
 51
285.9033160923838182
  0
ARC
  5
122BE
  8
0
 10
4149.4641599589122052
 20
115.8429999055109931
 30
0.0
 40
0.0588390670417243
 50
89.784699467946254
 51
115.4130056914956981
  0
ARC
  5
122BF
  8
0
 10
4149.4524397924360528
 20
115.867668065922004
 30
0.0
 40
0.0315282552578743
 50
115.4130056914956981
 51
143.0321106762700083
  0
ARC
  5
122C0
  8
0
 10
4149.4397647246323686
 20
115.8772082820025986
 30
0.0
 40
0.0156640481642594
 50
143.0321106762692978
 51
180.1814773346164031
  0
ARC
  5
122C1
  8
0
 10
4149.4429089056138764
 20
115.8772182408424953
 30
0.0
 40
0.0188082449188287
 50
180.1814773346171989
 51
216.8544833864139889
  0
ARC
  5
122C2
  8
0
 10
4149.4555913448621141
 20
115.8867247401796021
 30
0.0
 40
0.0346580964927306
 50
216.8544833864127099
 51
254.0966836845369983
  0
ARC
  5
122C3
  8
0
 10
4149.4673617246708091
 20
115.9280359041846964
 30
0.0
 40
0.0776133535901025
 50
254.0966836845369983
 51
267.799069133270109
  0
ARC
  5
122C4
  8
0
 10
4149.4646021571388701
 20
115.8429999055100978
 30
0.0
 40
0.0588390670417243
 50
64.5869940853560536
 51
90.2153003089683523
  0
ARC
  5
122C5
  8
0
 10
4149.4763223237114289
 20
115.867668065875506
 30
0.0
 40
0.0315282552578743
 50
36.9678891006074508
 51
64.5869940853557125
  0
ARC
  5
122C6
  8
0
 10
4149.4889973915533119
 20
115.8772082819068032
 30
0.0
 40
0.0156640481642594
 50
359.8185224422651913
 51
36.9678891006074508
  0
ARC
  5
122C7
  8
0
 10
4149.4858532105699851
 20
115.8772182407589071
 30
0.0
 40
0.0188082449188287
 50
323.1455163904702772
 51
359.8185224422643955
  0
ARC
  5
122C8
  8
0
 10
4149.4731707713599462
 20
115.8867247401453966
 30
0.0
 40
0.0346580964927306
 50
285.9033160923838182
 51
323.1455163904715846
  0
ARC
  5
122C9
  8
0
 10
4149.4614003917113223
 20
115.9280359041963067
 30
0.0
 40
0.0776133535901025
 50
272.2009306436377756
 51
285.9033160923838182
  0
ARC
  5
122CA
  8
0
 10
4149.3251567314600834
 20
115.8440158070189057
 30
0.0
 40
0.0588390670417243
 50
89.784699467946254
 51
115.4130056914956981
  0
ARC
  5
122CB
  8
0
 10
4149.3134365649848405
 20
115.8686839674299023
 30
0.0
 40
0.0315282552578743
 50
115.4130056914956981
 51
143.0321106762700083
  0
ARC
  5
122CC
  8
0
 10
4149.3007614971811563
 20
115.8782241835105964
 30
0.0
 40
0.0156640481642594
 50
143.0321106762692978
 51
180.1814773346164031
  0
ARC
  5
122CD
  8
0
 10
4149.3039056781626641
 20
115.8782341423504931
 30
0.0
 40
0.0188082449188287
 50
180.1814773346171989
 51
216.8544833864139889
  0
ARC
  5
122CE
  8
0
 10
4149.3165881174099923
 20
115.8877406416875999
 30
0.0
 40
0.0346580964927306
 50
216.8544833864127099
 51
254.0966836845369983
  0
ARC
  5
122CF
  8
0
 10
4149.3283584972195968
 20
115.9290518056926942
 30
0.0
 40
0.0776133535901025
 50
254.0966836845369983
 51
267.799069133270109
  0
ARC
  5
122D0
  8
0
 10
4149.3255989296876578
 20
115.8440158070180956
 30
0.0
 40
0.0588390670417243
 50
64.5869940853560536
 51
90.2153003089683523
  0
ARC
  5
122D1
  8
0
 10
4149.3373190962611261
 20
115.8686839673834044
 30
0.0
 40
0.0315282552578743
 50
36.9678891006074508
 51
64.5869940853557125
  0
ARC
  5
122D2
  8
0
 10
4149.3499941641020996
 20
115.8782241834147015
 30
0.0
 40
0.0156640481642594
 50
359.8185224422651913
 51
36.9678891006074508
  0
ARC
  5
122D3
  8
0
 10
4149.3468499831187728
 20
115.8782341422668054
 30
0.0
 40
0.0188082449188287
 50
323.1455163904702772
 51
359.8185224422643955
  0
ARC
  5
122D4
  8
0
 10
4149.3341675439087339
 20
115.8877406416532949
 30
0.0
 40
0.0346580964927306
 50
285.9033160923838182
 51
323.1455163904715846
  0
ARC
  5
122D5
  8
0
 10
4149.3223971642610195
 20
115.9290518057043045
 30
0.0
 40
0.0776133535901025
 50
272.2009306436377756
 51
285.9033160923838182
  0
ARC
  5
122D6
  8
0
 10
4149.1867356401271536
 20
115.846029614931993
 30
0.0
 40
0.0588390670417243
 50
89.784699467946254
 51
115.4130056914956981
  0
ARC
  5
122D7
  8
0
 10
4149.1750154736510012
 20
115.8706977753430039
 30
0.0
 40
0.0315282552578743
 50
115.4130056914956981
 51
143.0321106762700083
  0
ARC
  5
122D8
  8
0
 10
4149.162340405847317
 20
115.8802379914235985
 30
0.0
 40
0.0156640481642594
 50
143.0321106762692978
 51
180.1814773346164031
  0
ARC
  5
122D9
  8
0
 10
4149.1654845868288248
 20
115.8802479502633958
 30
0.0
 40
0.0188082449188287
 50
180.1814773346171989
 51
216.8544833864139889
  0
ARC
  5
122DA
  8
0
 10
4149.1781670260770625
 20
115.889754449600602
 30
0.0
 40
0.0346580964927306
 50
216.8544833864127099
 51
254.0966836845369983
  0
ARC
  5
122DB
  8
0
 10
4149.1899374058857575
 20
115.9310656136056963
 30
0.0
 40
0.0776133535901025
 50
254.0966836845369983
 51
267.799069133270109
  0
ARC
  5
122DC
  8
0
 10
4149.1871778383538185
 20
115.8460296149310977
 30
0.0
 40
0.0588390670417243
 50
64.5869940853560536
 51
90.2153003089683523
  0
ARC
  5
122DD
  8
0
 10
4149.1988980049263773
 20
115.8706977752965059
 30
0.0
 40
0.0315282552578743
 50
36.9678891006074508
 51
64.5869940853557125
  0
ARC
  5
122DE
  8
0
 10
4149.2115730727682603
 20
115.8802379913277036
 30
0.0
 40
0.0156640481642594
 50
359.8185224422651913
 51
36.9678891006074508
  0
ARC
  5
122DF
  8
0
 10
4149.208428891784024
 20
115.8802479501797933
 30
0.0
 40
0.0188082449188287
 50
323.1455163904702772
 51
359.8185224422643955
  0
ARC
  5
122E0
  8
0
 10
4149.1957464525739852
 20
115.889754449566297
 30
0.0
 40
0.0346580964927306
 50
285.9033160923838182
 51
323.1455163904715846
  0
ARC
  5
122E1
  8
0
 10
4149.1839760729262707
 20
115.9310656136173066
 30
0.0
 40
0.0776133535901025
 50
272.2009306436377756
 51
285.9033160923838182
  0
ARC
  5
122E2
  8
0
 10
4149.3948124152466335
 20
115.9294421024731037
 30
0.0
 40
0.0588390670417243
 50
89.784699467946254
 51
115.4130056914956981
  0
ARC
  5
122E3
  8
0
 10
4149.3830922487695716
 20
115.9541102628841003
 30
0.0
 40
0.0315282552578743
 50
115.4130056914956981
 51
143.0321106762700083
  0
ARC
  5
122E4
  8
0
 10
4149.3704171809658874
 20
115.9636504789646949
 30
0.0
 40
0.0156640481642594
 50
143.0321106762692978
 51
180.1814773346164031
  0
ARC
  5
122E5
  8
0
 10
4149.3735613619492142
 20
115.9636604378046059
 30
0.0
 40
0.0188082449188287
 50
180.1814773346171989
 51
216.8544833864139889
  0
ARC
  5
122E6
  8
0
 10
4149.3862438011956328
 20
115.9731669371416984
 30
0.0
 40
0.0346580964927306
 50
216.8544833864127099
 51
254.0966836845369983
  0
ARC
  5
122E7
  8
0
 10
4149.3980141810052373
 20
116.0144781011468069
 30
0.0
 40
0.0776133535901025
 50
254.0966836845369983
 51
267.799069133270109
  0
ARC
  5
122E8
  8
0
 10
4149.3952546134742079
 20
115.9294421024721942
 30
0.0
 40
0.0588390670417243
 50
64.5869940853560536
 51
90.2153003089683523
  0
ARC
  5
122E9
  8
0
 10
4149.4069747800449477
 20
115.9541102628376024
 30
0.0
 40
0.0315282552578743
 50
36.9678891006074508
 51
64.5869940853557125
  0
ARC
  5
122EA
  8
0
 10
4149.4196498478877402
 20
115.9636504788688995
 30
0.0
 40
0.0156640481642594
 50
359.8185224422651913
 51
36.9678891006074508
  0
ARC
  5
122EB
  8
0
 10
4149.4165056669053229
 20
115.9636604377210034
 30
0.0
 40
0.0188082449188287
 50
323.1455163904702772
 51
359.8185224422643955
  0
ARC
  5
122EC
  8
0
 10
4149.4038232276943745
 20
115.9731669371074929
 30
0.0
 40
0.0346580964927306
 50
285.9033160923838182
 51
323.1455163904715846
  0
ARC
  5
122ED
  8
0
 10
4149.3920528480457506
 20
116.014478101158403
 30
0.0
 40
0.0776133535901025
 50
272.2009306436377756
 51
285.9033160923838182
  0
ARC
  5
122EE
  8
0
 10
4149.533533548557898
 20
115.9289376433929988
 30
0.0
 40
0.0588390670417243
 50
89.784699467946254
 51
115.4130056914956981
  0
ARC
  5
122EF
  8
0
 10
4149.5218133820817457
 20
115.9536058038039954
 30
0.0
 40
0.0315282552578743
 50
115.4130056914956981
 51
143.0321106762700083
  0
ARC
  5
122F0
  8
0
 10
4149.5091383142771519
 20
115.9631460198847037
 30
0.0
 40
0.0156640481642594
 50
143.0321106762692978
 51
180.1814773346164031
  0
ARC
  5
122F1
  8
0
 10
4149.5122824952595693
 20
115.963155978724501
 30
0.0
 40
0.0188082449188287
 50
180.1814773346171989
 51
216.8544833864139889
  0
ARC
  5
122F2
  8
0
 10
4149.5249649345068974
 20
115.972662478061693
 30
0.0
 40
0.0346580964927306
 50
216.8544833864127099
 51
254.0966836845369983
  0
ARC
  5
122F3
  8
0
 10
4149.5367353143155924
 20
116.0139736420668015
 30
0.0
 40
0.0776133535901025
 50
254.0966836845369983
 51
267.799069133270109
  0
ARC
  5
122F4
  8
0
 10
4149.5339757467845629
 20
115.928937643392203
 30
0.0
 40
0.0588390670417243
 50
64.5869940853560536
 51
90.2153003089683523
  0
ARC
  5
122F5
  8
0
 10
4149.5456959133580312
 20
115.9536058037574975
 30
0.0
 40
0.0315282552578743
 50
36.9678891006074508
 51
64.5869940853557125
  0
ARC
  5
122F6
  8
0
 10
4149.5583709811990047
 20
115.9631460197887947
 30
0.0
 40
0.0156640481642594
 50
359.8185224422651913
 51
36.9678891006074508
  0
ARC
  5
122F7
  8
0
 10
4149.5552268002156779
 20
115.9631559786408985
 30
0.0
 40
0.0188082449188287
 50
323.1455163904702772
 51
359.8185224422643955
  0
ARC
  5
122F8
  8
0
 10
4149.5425443610056391
 20
115.9726624780274022
 30
0.0
 40
0.0346580964927306
 50
285.9033160923838182
 51
323.1455163904715846
  0
ARC
  5
122F9
  8
0
 10
4149.5307739813579246
 20
116.0139736420783976
 30
0.0
 40
0.0776133535901025
 50
272.2009306436377756
 51
285.9033160923838182
  0
ARC
  5
122FA
  8
0
 10
4149.5335335486579424
 20
115.7584775164931017
 30
0.0
 40
0.0588390670417243
 50
89.784699467946254
 51
115.4130056914956981
  0
ARC
  5
122FB
  8
0
 10
4149.5218133821817901
 20
115.7831456769039988
 30
0.0
 40
0.0315282552578743
 50
115.4130056914956981
 51
143.0321106762700083
  0
ARC
  5
122FC
  8
0
 10
4149.5091383143771964
 20
115.7926858929846929
 30
0.0
 40
0.0156640481642594
 50
143.0321106762692978
 51
180.1814773346164031
  0
ARC
  5
122FD
  8
0
 10
4149.5122824953596137
 20
115.7926958518245044
 30
0.0
 40
0.0188082449188287
 50
180.1814773346171989
 51
216.8544833864139889
  0
ARC
  5
122FE
  8
0
 10
4149.5249649346078513
 20
115.802202351161597
 30
0.0
 40
0.0346580964927306
 50
216.8544833864127099
 51
254.0966836845369983
  0
ARC
  5
122FF
  8
0
 10
4149.5367353144156368
 20
115.843513515166805
 30
0.0
 40
0.0776133535901025
 50
254.0966836845369983
 51
267.799069133270109
  0
ARC
  5
12300
  8
0
 10
4149.5339757468846074
 20
115.7584775164922064
 30
0.0
 40
0.0588390670417243
 50
64.5869940853560536
 51
90.2153003089683523
  0
ARC
  5
12301
  8
0
 10
4149.5456959134571662
 20
115.7831456768575009
 30
0.0
 40
0.0315282552578743
 50
36.9678891006074508
 51
64.5869940853557125
  0
ARC
  5
12302
  8
0
 10
4149.5583709812981397
 20
115.7926858928887981
 30
0.0
 40
0.0156640481642594
 50
359.8185224422651913
 51
36.9678891006074508
  0
ARC
  5
12303
  8
0
 10
4149.5552268003157224
 20
115.792695851740902
 30
0.0
 40
0.0188082449188287
 50
323.1455163904702772
 51
359.8185224422643955
  0
ARC
  5
12304
  8
0
 10
4149.542544361104774
 20
115.8022023511274057
 30
0.0
 40
0.0346580964927306
 50
285.9033160923838182
 51
323.1455163904715846
  0
ARC
  5
12305
  8
0
 10
4149.5307739814570596
 20
115.843513515178401
 30
0.0
 40
0.0776133535901025
 50
272.2009306436377756
 51
285.9033160923838182
  0
ARC
  5
12306
  8
0
 10
4149.5335335491581645
 20
115.5912078619929986
 30
0.0
 40
0.0588390670417243
 50
89.784699467946254
 51
115.4130056914956981
  0
ARC
  5
12307
  8
0
 10
4149.5218133826820122
 20
115.6158760224039952
 30
0.0
 40
0.0315282552578743
 50
115.4130056914956981
 51
143.0321106762700083
  0
ARC
  5
12308
  8
0
 10
4149.5091383148774185
 20
115.6254162384847035
 30
0.0
 40
0.0156640481642594
 50
143.0321106762692978
 51
180.1814773346164031
  0
ARC
  5
12309
  8
0
 10
4149.5122824958607453
 20
115.6254261973245008
 30
0.0
 40
0.0188082449188287
 50
180.1814773346171989
 51
216.8544833864139889
  0
ARC
  5
1230A
  8
0
 10
4149.5249649351080734
 20
115.6349326966615934
 30
0.0
 40
0.0346580964927306
 50
216.8544833864127099
 51
254.0966836845369983
  0
ARC
  5
1230B
  8
0
 10
4149.5367353149158589
 20
115.6762438606668013
 30
0.0
 40
0.0776133535901025
 50
254.0966836845369983
 51
267.799069133270109
  0
ARC
  5
1230C
  8
0
 10
4149.5339757473848294
 20
115.5912078619922028
 30
0.0
 40
0.0588390670417243
 50
64.5869940853560536
 51
90.2153003089683523
  0
ARC
  5
1230D
  8
0
 10
4149.5456959139573883
 20
115.6158760223574973
 30
0.0
 40
0.0315282552578743
 50
36.9678891006074508
 51
64.5869940853557125
  0
ARC
  5
1230E
  8
0
 10
4149.5583709817992712
 20
115.6254162383887945
 30
0.0
 40
0.0156640481642594
 50
359.8185224422651913
 51
36.9678891006074508
  0
ARC
  5
1230F
  8
0
 10
4149.5552268008159444
 20
115.6254261972408983
 30
0.0
 40
0.0188082449188287
 50
323.1455163904702772
 51
359.8185224422643955
  0
ARC
  5
12310
  8
0
 10
4149.5425443616049961
 20
115.634932696627402
 30
0.0
 40
0.0346580964927306
 50
285.9033160923838182
 51
323.1455163904715846
  0
ARC
  5
12311
  8
0
 10
4149.5307739819581911
 20
115.6762438606783974
 30
0.0
 40
0.0776133535901025
 50
272.2009306436377756
 51
285.9033160923838182
  0
ARC
  5
12312
  8
0
 10
4149.4641645626870741
 20
115.674143767497398
 30
0.0
 40
0.0588390670417243
 50
89.784699467946254
 51
115.4130056914956981
  0
ARC
  5
12313
  8
0
 10
4149.4524443962109217
 20
115.6988119279083946
 30
0.0
 40
0.0315282552578743
 50
115.4130056914956981
 51
143.0321106762700083
  0
ARC
  5
12314
  8
0
 10
4149.439769328406328
 20
115.7083521439890035
 30
0.0
 40
0.0156640481642594
 50
143.0321106762692978
 51
180.1814773346164031
  0
ARC
  5
12315
  8
0
 10
4149.4429135093878358
 20
115.7083621028288007
 30
0.0
 40
0.0188082449188287
 50
180.1814773346171989
 51
216.8544833864139889
  0
ARC
  5
12316
  8
0
 10
4149.4555959486360734
 20
115.717868602166007
 30
0.0
 40
0.0346580964927306
 50
216.8544833864127099
 51
254.0966836845369983
  0
ARC
  5
12317
  8
0
 10
4149.4673663284456779
 20
115.7591797661711013
 30
0.0
 40
0.0776133535901025
 50
254.0966836845369983
 51
267.799069133270109
  0
ARC
  5
12318
  8
0
 10
4149.464606760913739
 20
115.6741437674965027
 30
0.0
 40
0.0588390670417243
 50
64.5869940853560536
 51
90.2153003089683523
  0
ARC
  5
12319
  8
0
 10
4149.4763269274862978
 20
115.6988119278618967
 30
0.0
 40
0.0315282552578743
 50
36.9678891006074508
 51
64.5869940853557125
  0
ARC
  5
1231A
  8
0
 10
4149.4890019953281808
 20
115.7083521438930944
 30
0.0
 40
0.0156640481642594
 50
359.8185224422651913
 51
36.9678891006074508
  0
ARC
  5
1231B
  8
0
 10
4149.485857814344854
 20
115.7083621027451983
 30
0.0
 40
0.0188082449188287
 50
323.1455163904702772
 51
359.8185224422643955
  0
ARC
  5
1231C
  8
0
 10
4149.4731753751339056
 20
115.717868602131702
 30
0.0
 40
0.0346580964927306
 50
285.9033160923838182
 51
323.1455163904715846
  0
ARC
  5
1231D
  8
0
 10
4149.4614049954861912
 20
115.7591797661826973
 30
0.0
 40
0.0776133535901025
 50
272.2009306436377756
 51
285.9033160923838182
  0
ARC
  5
1231E
  8
0
 10
4149.3947866254693508
 20
115.5917131814073997
 30
0.0
 40
0.0588390670417243
 50
89.784699467946254
 51
115.4130056914956981
  0
ARC
  5
1231F
  8
0
 10
4149.383066458994108
 20
115.6163813418183963
 30
0.0
 40
0.0315282552578743
 50
115.4130056914956981
 51
143.0321106762700083
  0
ARC
  5
12320
  8
0
 10
4149.3703913911886048
 20
115.6259215578991046
 30
0.0
 40
0.0156640481642594
 50
143.0321106762692978
 51
180.1814773346164031
  0
ARC
  5
12321
  8
0
 10
4149.3735355721719316
 20
115.6259315167389019
 30
0.0
 40
0.0188082449188287
 50
180.1814773346171989
 51
216.8544833864139889
  0
ARC
  5
12322
  8
0
 10
4149.3862180114192597
 20
115.6354380160759945
 30
0.0
 40
0.0346580964927306
 50
216.8544833864127099
 51
254.0966836845369983
  0
ARC
  5
12323
  8
0
 10
4149.3979883912270452
 20
115.676749180081103
 30
0.0
 40
0.0776133535901025
 50
254.0966836845369983
 51
267.799069133270109
  0
ARC
  5
12324
  8
0
 10
4149.3952288236969252
 20
115.5917131814066039
 30
0.0
 40
0.0588390670417243
 50
64.5869940853560536
 51
90.2153003089683523
  0
ARC
  5
12325
  8
0
 10
4149.4069489902676651
 20
115.6163813417718984
 30
0.0
 40
0.0315282552578743
 50
36.9678891006074508
 51
64.5869940853557125
  0
ARC
  5
12326
  8
0
 10
4149.4196240581095481
 20
115.6259215578031956
 30
0.0
 40
0.0156640481642594
 50
359.8185224422651913
 51
36.9678891006074508
  0
ARC
  5
12327
  8
0
 10
4149.4164798771271307
 20
115.6259315166552994
 30
0.0
 40
0.0188082449188287
 50
323.1455163904702772
 51
359.8185224422643955
  0
ARC
  5
12328
  8
0
 10
4149.4037974379170919
 20
115.6354380160418032
 30
0.0
 40
0.0346580964927306
 50
285.9033160923838182
 51
323.1455163904715846
  0
ARC
  5
12329
  8
0
 10
4149.3920270582693774
 20
115.6767491800927985
 30
0.0
 40
0.0776133535901025
 50
272.2009306436377756
 51
285.9033160923838182
  0
ARC
  5
1232A
  8
0
 10
4149.256059831804123
 20
115.590481700452699
 30
0.0
 40
0.0588390670417243
 50
89.784699467946254
 51
115.4130056914956981
  0
ARC
  5
1232B
  8
0
 10
4149.2443396653279706
 20
115.6151498608636956
 30
0.0
 40
0.0315282552578743
 50
115.4130056914956981
 51
143.0321106762700083
  0
ARC
  5
1232C
  8
0
 10
4149.2316645975242864
 20
115.6246900769444039
 30
0.0
 40
0.0156640481642594
 50
143.0321106762692978
 51
180.1814773346164031
  0
ARC
  5
1232D
  8
0
 10
4149.2348087785057942
 20
115.6247000357842012
 30
0.0
 40
0.0188082449188287
 50
180.1814773346171989
 51
216.8544833864139889
  0
ARC
  5
1232E
  8
0
 10
4149.2474912177540318
 20
115.6342065351212938
 30
0.0
 40
0.0346580964927306
 50
216.8544833864127099
 51
254.0966836845369983
  0
ARC
  5
1232F
  8
0
 10
4149.2592615975618173
 20
115.6755176991265017
 30
0.0
 40
0.0776133535901025
 50
254.0966836845369983
 51
267.799069133270109
  0
ARC
  5
12330
  8
0
 10
4149.2565020300307879
 20
115.5904817004519032
 30
0.0
 40
0.0588390670417243
 50
64.5869940853560536
 51
90.2153003089683523
  0
ARC
  5
12331
  8
0
 10
4149.2682221966033467
 20
115.6151498608171977
 30
0.0
 40
0.0315282552578743
 50
36.9678891006074508
 51
64.5869940853557125
  0
ARC
  5
12332
  8
0
 10
4149.2808972644452297
 20
115.6246900768484949
 30
0.0
 40
0.0156640481642594
 50
359.8185224422651913
 51
36.9678891006074508
  0
ARC
  5
12333
  8
0
 10
4149.2777530834619029
 20
115.6247000357005987
 30
0.0
 40
0.0188082449188287
 50
323.1455163904702772
 51
359.8185224422643955
  0
ARC
  5
12334
  8
0
 10
4149.2650706442509545
 20
115.6342065350871025
 30
0.0
 40
0.0346580964927306
 50
285.9033160923838182
 51
323.1455163904715846
  0
ARC
  5
12335
  8
0
 10
4149.2533002646032401
 20
115.6755176991380978
 30
0.0
 40
0.0776133535901025
 50
272.2009306436377756
 51
285.9033160923838182
  0
ARC
  5
12336
  8
0
 10
4149.323521136177078
 20
115.6778583313859059
 30
0.0
 40
0.0588390670417243
 50
89.784699467946254
 51
115.4130056914956981
  0
ARC
  5
12337
  8
0
 10
4149.3118009697018351
 20
115.7025264917969025
 30
0.0
 40
0.0315282552578743
 50
115.4130056914956981
 51
143.0321106762700083
  0
ARC
  5
12338
  8
0
 10
4149.2991259018981509
 20
115.7120667078774972
 30
0.0
 40
0.0156640481642594
 50
143.0321106762692978
 51
180.1814773346164031
  0
ARC
  5
12339
  8
0
 10
4149.3022700828796587
 20
115.7120766667173939
 30
0.0
 40
0.0188082449188287
 50
180.1814773346171989
 51
216.8544833864139889
  0
ARC
  5
1233A
  8
0
 10
4149.3149525221278964
 20
115.7215831660545007
 30
0.0
 40
0.0346580964927306
 50
216.8544833864127099
 51
254.0966836845369983
  0
ARC
  5
1233B
  8
0
 10
4149.3267229019356819
 20
115.7628943300595949
 30
0.0
 40
0.0776133535901025
 50
254.0966836845369983
 51
267.799069133270109
  0
ARC
  5
1233C
  8
0
 10
4149.3239633344046524
 20
115.6778583313849964
 30
0.0
 40
0.0588390670417243
 50
64.5869940853560536
 51
90.2153003089683523
  0
ARC
  5
1233D
  8
0
 10
4149.3356835009781207
 20
115.7025264917504046
 30
0.0
 40
0.0315282552578743
 50
36.9678891006074508
 51
64.5869940853557125
  0
ARC
  5
1233E
  8
0
 10
4149.3483585688181847
 20
115.7120667077817018
 30
0.0
 40
0.0156640481642594
 50
359.8185224422651913
 51
36.9678891006074508
  0
ARC
  5
1233F
  8
0
 10
4149.3452143878357674
 20
115.7120766666338056
 30
0.0
 40
0.0188082449188287
 50
323.1455163904702772
 51
359.8185224422643955
  0
ARC
  5
12340
  8
0
 10
4149.3325319486248191
 20
115.7215831660202952
 30
0.0
 40
0.0346580964927306
 50
285.9033160923838182
 51
323.1455163904715846
  0
ARC
  5
12341
  8
0
 10
4149.3207615689780141
 20
115.7628943300712052
 30
0.0
 40
0.0776133535901025
 50
272.2009306436377756
 51
285.9033160923838182
  0
ARC
  5
12342
  8
0
 10
4149.1867141313068714
 20
115.6744508243956062
 30
0.0
 40
0.0588390670417243
 50
89.784699467946254
 51
115.4130056914956981
  0
ARC
  5
12343
  8
0
 10
4149.1749939648298096
 20
115.6991189848066028
 30
0.0
 40
0.0315282552578743
 50
115.4130056914956981
 51
143.0321106762700083
  0
ARC
  5
12344
  8
0
 10
4149.1623188970252158
 20
115.7086592008871975
 30
0.0
 40
0.0156640481642594
 50
143.0321106762692978
 51
180.1814773346164031
  0
ARC
  5
12345
  8
0
 10
4149.1654630780094521
 20
115.7086691597270942
 30
0.0
 40
0.0188082449188287
 50
180.1814773346171989
 51
216.8544833864139889
  0
ARC
  5
12346
  8
0
 10
4149.1781455172558708
 20
115.718175659064201
 30
0.0
 40
0.0346580964927306
 50
216.8544833864127099
 51
254.0966836845369983
  0
ARC
  5
12347
  8
0
 10
4149.1899158970645658
 20
115.7594868230692953
 30
0.0
 40
0.0776133535901025
 50
254.0966836845369983
 51
267.799069133270109
  0
ARC
  5
12348
  8
0
 10
4149.1871563295326268
 20
115.6744508243946967
 30
0.0
 40
0.0588390670417243
 50
64.5869940853560536
 51
90.2153003089683523
  0
ARC
  5
12349
  8
0
 10
4149.1988764961060951
 20
115.6991189847601049
 30
0.0
 40
0.0315282552578743
 50
36.9678891006074508
 51
64.5869940853557125
  0
ARC
  5
1234A
  8
0
 10
4149.2115515639479781
 20
115.7086592007914021
 30
0.0
 40
0.0156640481642594
 50
359.8185224422651913
 51
36.9678891006074508
  0
ARC
  5
1234B
  8
0
 10
4149.2084073829637418
 20
115.708669159643506
 30
0.0
 40
0.0188082449188287
 50
323.1455163904702772
 51
359.8185224422643955
  0
ARC
  5
1234C
  8
0
 10
4149.195724943753703
 20
115.7181756590299955
 30
0.0
 40
0.0346580964927306
 50
285.9033160923838182
 51
323.1455163904715846
  0
ARC
  5
1234D
  8
0
 10
4149.1839545641059885
 20
115.7594868230809055
 30
0.0
 40
0.0776133535901025
 50
272.2009306436377756
 51
285.9033160923838182
  0
ARC
  5
1234E
  8
0
 10
4149.1173395925961813
 20
115.5902587762120959
 30
0.0
 40
0.0588390670417243
 50
89.784699467946254
 51
115.4130056914956981
  0
ARC
  5
1234F
  8
0
 10
4149.1056194261191195
 20
115.6149269366231067
 30
0.0
 40
0.0315282552578743
 50
115.4130056914956981
 51
143.0321106762700083
  0
ARC
  5
12350
  8
0
 10
4149.0929443583163447
 20
115.6244671527037013
 30
0.0
 40
0.0156640481642594
 50
143.0321106762692978
 51
180.1814773346164031
  0
ARC
  5
12351
  8
0
 10
4149.0960885392978525
 20
115.6244771115435981
 30
0.0
 40
0.0188082449188287
 50
180.1814773346171989
 51
216.8544833864139889
  0
ARC
  5
12352
  8
0
 10
4149.1087709785451807
 20
115.6339836108807049
 30
0.0
 40
0.0346580964927306
 50
216.8544833864127099
 51
254.0966836845369983
  0
ARC
  5
12353
  8
0
 10
4149.1205413583556947
 20
115.6752947748857991
 30
0.0
 40
0.0776133535901025
 50
254.0966836845369983
 51
267.799069133270109
  0
ARC
  5
12354
  8
0
 10
4149.1177817908228462
 20
115.5902587762112006
 30
0.0
 40
0.0588390670417243
 50
64.5869940853560536
 51
90.2153003089683523
  0
ARC
  5
12355
  8
0
 10
4149.129501957395405
 20
115.6149269365765946
 30
0.0
 40
0.0315282552578743
 50
36.9678891006074508
 51
64.5869940853557125
  0
ARC
  5
12356
  8
0
 10
4149.142177025237288
 20
115.624467152607906
 30
0.0
 40
0.0156640481642594
 50
359.8185224422651913
 51
36.9678891006074508
  0
ARC
  5
12357
  8
0
 10
4149.1390328442548707
 20
115.6244771114599956
 30
0.0
 40
0.0188082449188287
 50
323.1455163904702772
 51
359.8185224422643955
  0
ARC
  5
12358
  8
0
 10
4149.1263504050430129
 20
115.6339836108464993
 30
0.0
 40
0.0346580964927306
 50
285.9033160923838182
 51
323.1455163904715846
  0
ARC
  5
12359
  8
0
 10
4149.1145800253962079
 20
115.6752947748973952
 30
0.0
 40
0.0776133535901025
 50
272.2009306436377756
 51
285.9033160923838182
  0
ARC
  5
1235A
  8
0
 10
4149.4653341293924314
 20
115.1703784743046981
 30
0.0
 40
0.0588390670417243
 50
89.784699467946254
 51
115.4130056914956981
  0
ARC
  5
1235B
  8
0
 10
4149.453613962916279
 20
115.1950466347156947
 30
0.0
 40
0.0315282552578743
 50
115.4130056914956981
 51
143.0321106762700083
  0
ARC
  5
1235C
  8
0
 10
4149.4409388951116853
 20
115.2045868507963036
 30
0.0
 40
0.0156640481642594
 50
143.0321106762692978
 51
180.1814773346164031
  0
ARC
  5
1235D
  8
0
 10
4149.4440830760950121
 20
115.2045968096362003
 30
0.0
 40
0.0188082449188287
 50
180.1814773346171989
 51
216.8544833864139889
  0
ARC
  5
1235E
  8
0
 10
4149.4567655153423402
 20
115.2141033089733071
 30
0.0
 40
0.0346580964927306
 50
216.8544833864127099
 51
254.0966836845369983
  0
ARC
  5
1235F
  8
0
 10
4149.4685358951510352
 20
115.2554144729784014
 30
0.0
 40
0.0776133535901025
 50
254.0966836845369983
 51
267.799069133270109
  0
ARC
  5
12360
  8
0
 10
4149.4657763276190963
 20
115.1703784743038028
 30
0.0
 40
0.0588390670417243
 50
64.5869940853560536
 51
90.2153003089683523
  0
ARC
  5
12361
  8
0
 10
4149.4774964941907456
 20
115.1950466346691968
 30
0.0
 40
0.0315282552578743
 50
36.9678891006074508
 51
64.5869940853557125
  0
ARC
  5
12362
  8
0
 10
4149.4901715620344476
 20
115.2045868507003945
 30
0.0
 40
0.0156640481642594
 50
359.8185224422651913
 51
36.9678891006074508
  0
ARC
  5
12363
  8
0
 10
4149.4870273810502113
 20
115.2045968095525978
 30
0.0
 40
0.0188082449188287
 50
323.1455163904702772
 51
359.8185224422643955
  0
ARC
  5
12364
  8
0
 10
4149.4743449418401724
 20
115.2141033089391016
 30
0.0
 40
0.0346580964927306
 50
285.9033160923838182
 51
323.1455163904715846
  0
ARC
  5
12365
  8
0
 10
4149.4625745621915485
 20
115.2554144729899974
 30
0.0
 40
0.0776133535901025
 50
272.2009306436377756
 51
285.9033160923838182
  0
ARC
  5
12366
  8
0
 10
4149.5339757484453003
 20
114.9192168453480036
 30
0.0
 40
0.0588390670417243
 50
64.5869943085042451
 51
90.215300532053746
  0
ARC
  5
12367
  8
0
 10
4149.5456959149214526
 20
114.9438850057590003
 30
0.0
 40
0.0315282552578743
 50
36.9678893237300201
 51
64.5869943085042451
  0
ARC
  5
12368
  8
0
 10
4149.5583709827251369
 20
114.9534252218396944
 30
0.0
 40
0.0156640481642594
 50
359.8185226653836253
 51
36.9678893237306667
  0
ARC
  5
12369
  8
0
 10
4149.5552268017427195
 20
114.9534351806795058
 30
0.0
 40
0.0188082449188287
 50
323.1455166135860964
 51
359.8185226653827726
  0
ARC
  5
1236A
  8
0
 10
4149.5425443624953914
 20
114.9629416800165984
 30
0.0
 40
0.0346580964927306
 50
285.9033163154629733
 51
323.1455166135872901
  0
ARC
  5
1236B
  8
0
 10
4149.5307739826866964
 20
115.0042528440218064
 30
0.0
 40
0.0776133535901025
 50
272.200930866729891
 51
285.9033163154629733
  0
ARC
  5
1236C
  8
0
 10
4149.5335335502177259
 20
114.9192168453471936
 30
0.0
 40
0.0588390670417243
 50
89.7846996910316335
 51
115.4130059146439038
  0
ARC
  5
1236D
  8
0
 10
4149.5218133836451671
 20
114.9438850057125023
 30
0.0
 40
0.0315282552578743
 50
115.4130059146443017
 51
143.0321108993925066
  0
ARC
  5
1236E
  8
0
 10
4149.5091383158041936
 20
114.9534252217437995
 30
0.0
 40
0.0156640481642594
 50
143.0321108993925066
 51
180.1814775577348087
  0
ARC
  5
1236F
  8
0
 10
4149.5122824967857014
 20
114.9534351805959034
 30
0.0
 40
0.0188082449188287
 50
180.1814775577354908
 51
216.8544836095296944
  0
ARC
  5
12370
  8
0
 10
4149.5249649359975592
 20
114.9629416799824071
 30
0.0
 40
0.0346580964927306
 50
216.854483609528387
 51
254.0966839076162103
  0
ARC
  5
12371
  8
0
 10
4149.5367353156452737
 20
115.0042528440333029
 30
0.0
 40
0.0776133535901025
 50
254.0966839076162103
 51
267.7990693563622244
  0
ARC
  5
12372
  8
0
 10
4149.5339757484425718
 20
115.0847054650435979
 30
0.0
 40
0.0588390670417243
 50
64.5869943085042451
 51
90.215300532053746
  0
ARC
  5
12373
  8
0
 10
4149.5456959149187242
 20
115.109373625454495
 30
0.0
 40
0.0315282552578743
 50
36.9678893237300201
 51
64.5869943085042451
  0
ARC
  5
12374
  8
0
 10
4149.5583709827233179
 20
115.1189138415352033
 30
0.0
 40
0.0156640481642594
 50
359.8185226653836253
 51
36.9678893237306667
  0
ARC
  5
12375
  8
0
 10
4149.5552268017409006
 20
115.1189238003750006
 30
0.0
 40
0.0188082449188287
 50
323.1455166135860964
 51
359.8185226653827726
  0
ARC
  5
12376
  8
0
 10
4149.5425443624935724
 20
115.1284302997122069
 30
0.0
 40
0.0346580964927306
 50
285.9033163154629733
 51
323.1455166135872901
  0
ARC
  5
12377
  8
0
 10
4149.5307739826839679
 20
115.1697414637173011
 30
0.0
 40
0.0776133535901025
 50
272.200930866729891
 51
285.9033163154629733
  0
ARC
  5
12378
  8
0
 10
4149.5335335502159069
 20
115.0847054650427026
 30
0.0
 40
0.0588390670417243
 50
89.7846996910316335
 51
115.4130059146439038
  0
ARC
  5
12379
  8
0
 10
4149.5218133836433481
 20
115.1093736254079971
 30
0.0
 40
0.0315282552578743
 50
115.4130059146443017
 51
143.0321108993925066
  0
ARC
  5
1237A
  8
0
 10
4149.5091383158023746
 20
115.1189138414392943
 30
0.0
 40
0.0156640481642594
 50
143.0321108993925066
 51
180.1814775577348087
  0
ARC
  5
1237B
  8
0
 10
4149.5122824967847919
 20
115.1189238002913982
 30
0.0
 40
0.0188082449188287
 50
180.1814775577354908
 51
216.8544836095296944
  0
ARC
  5
1237C
  8
0
 10
4149.5249649359948307
 20
115.1284302996779019
 30
0.0
 40
0.0346580964927306
 50
216.854483609528387
 51
254.0966839076162103
  0
ARC
  5
1237D
  8
0
 10
4149.5367353156434547
 20
115.1697414637288972
 30
0.0
 40
0.0776133535901025
 50
254.0966839076162103
 51
267.7990693563622244
  0
ARC
  5
1237E
  8
0
 10
4149.6033315056583888
 20
115.002739671009806
 30
0.0
 40
0.0588390670417243
 50
64.5869943085042451
 51
90.215300532053746
  0
ARC
  5
1237F
  8
0
 10
4149.6150516721327222
 20
115.0274078314208026
 30
0.0
 40
0.0315282552578743
 50
36.9678893237300201
 51
64.5869943085042451
  0
ARC
  5
12380
  8
0
 10
4149.6277267399391349
 20
115.0369480475014967
 30
0.0
 40
0.0156640481642594
 50
359.8185226653836253
 51
36.9678893237306667
  0
ARC
  5
12381
  8
0
 10
4149.6245825589548986
 20
115.036958006341294
 30
0.0
 40
0.0188082449188287
 50
323.1455166135860964
 51
359.8185226653827726
  0
ARC
  5
12382
  8
0
 10
4149.6119001197066609
 20
115.0464645056784008
 30
0.0
 40
0.0346580964927306
 50
285.9033163154629733
 51
323.1455166135872901
  0
ARC
  5
12383
  8
0
 10
4149.6001297398988754
 20
115.0877756696835945
 30
0.0
 40
0.0776133535901025
 50
272.200930866729891
 51
285.9033163154629733
  0
ARC
  5
12384
  8
0
 10
4149.6028893074299049
 20
115.002739671008996
 30
0.0
 40
0.0588390670417243
 50
89.7846996910316335
 51
115.4130059146439038
  0
ARC
  5
12385
  8
0
 10
4149.5911691408582556
 20
115.0274078313743047
 30
0.0
 40
0.0315282552578743
 50
115.4130059146443017
 51
143.0321108993925066
  0
ARC
  5
12386
  8
0
 10
4149.5784940730172821
 20
115.0369480474056019
 30
0.0
 40
0.0156640481642594
 50
143.0321108993925066
 51
180.1814775577348087
  0
ARC
  5
12387
  8
0
 10
4149.5816382539996994
 20
115.0369580062577057
 30
0.0
 40
0.0188082449188287
 50
180.1814775577354908
 51
216.8544836095296944
  0
ARC
  5
12388
  8
0
 10
4149.5943206932097382
 20
115.0464645056441952
 30
0.0
 40
0.0346580964927306
 50
216.854483609528387
 51
254.0966839076162103
  0
ARC
  5
12389
  8
0
 10
4149.6060910728574527
 20
115.0877756696952048
 30
0.0
 40
0.0776133535901025
 50
254.0966839076162103
 51
267.7990693563622244
  0
ARC
  5
1238A
  8
0
 10
4149.6726851729590635
 20
114.919719744116307
 30
0.0
 40
0.0588390670417243
 50
64.5869943085042451
 51
90.215300532053746
  0
ARC
  5
1238B
  8
0
 10
4149.6844053394352159
 20
114.9443879045273036
 30
0.0
 40
0.0315282552578743
 50
36.9678893237300201
 51
64.5869943085042451
  0
ARC
  5
1238C
  8
0
 10
4149.6970804072379906
 20
114.9539281206078982
 30
0.0
 40
0.0156640481642594
 50
359.8185226653836253
 51
36.9678893237306667
  0
ARC
  5
1238D
  8
0
 10
4149.6939362262555733
 20
114.953938079447795
 30
0.0
 40
0.0188082449188287
 50
323.1455166135860964
 51
359.8185226653827726
  0
ARC
  5
1238E
  8
0
 10
4149.6812537870091546
 20
114.9634445787849018
 30
0.0
 40
0.0346580964927306
 50
285.9033163154629733
 51
323.1455166135872901
  0
ARC
  5
1238F
  8
0
 10
4149.6694834071995501
 20
115.004755742789996
 30
0.0
 40
0.0776133535901025
 50
272.200930866729891
 51
285.9033163154629733
  0
ARC
  5
12390
  8
0
 10
4149.6722429747305796
 20
114.9197197441153975
 30
0.0
 40
0.0588390670417243
 50
89.7846996910316335
 51
115.4130059146439038
  0
ARC
  5
12391
  8
0
 10
4149.6605228081589303
 20
114.9443879044808057
 30
0.0
 40
0.0315282552578743
 50
115.4130059146443017
 51
143.0321108993925066
  0
ARC
  5
12392
  8
0
 10
4149.6478477403170473
 20
114.9539281205121029
 30
0.0
 40
0.0156640481642594
 50
143.0321108993925066
 51
180.1814775577348087
  0
ARC
  5
12393
  8
0
 10
4149.6509919213003741
 20
114.9539380793642067
 30
0.0
 40
0.0188082449188287
 50
180.1814775577354908
 51
216.8544836095296944
  0
ARC
  5
12394
  8
0
 10
4149.6636743605113224
 20
114.9634445787506962
 30
0.0
 40
0.0346580964927306
 50
216.854483609528387
 51
254.0966839076162103
  0
ARC
  5
12395
  8
0
 10
4149.6754447401590369
 20
115.0047557428016063
 30
0.0
 40
0.0776133535901025
 50
254.0966839076162103
 51
267.7990693563622244
  0
ARC
  5
12396
  8
0
 10
4149.7420402270372506
 20
115.0037465533558958
 30
0.0
 40
0.0588390670417243
 50
64.5869943085042451
 51
90.215300532053746
  0
ARC
  5
12397
  8
0
 10
4149.753760393513403
 20
115.0284147137669066
 30
0.0
 40
0.0315282552578743
 50
36.9678893237300201
 51
64.5869943085042451
  0
ARC
  5
12398
  8
0
 10
4149.7664354613170872
 20
115.0379549298475013
 30
0.0
 40
0.0156640481642594
 50
359.8185226653836253
 51
36.9678893237306667
  0
ARC
  5
12399
  8
0
 10
4149.7632912803346699
 20
115.037964888687398
 30
0.0
 40
0.0188082449188287
 50
323.1455166135860964
 51
359.8185226653827726
  0
ARC
  5
1239A
  8
0
 10
4149.7506088410873417
 20
115.0474713880245048
 30
0.0
 40
0.0346580964927306
 50
285.9033163154629733
 51
323.1455166135872901
  0
ARC
  5
1239B
  8
0
 10
4149.7388384612786467
 20
115.0887825520295991
 30
0.0
 40
0.0776133535901025
 50
272.200930866729891
 51
285.9033163154629733
  0
ARC
  5
1239C
  8
0
 10
4149.7415980288096762
 20
115.0037465533550005
 30
0.0
 40
0.0588390670417243
 50
89.7846996910316335
 51
115.4130059146439038
  0
ARC
  5
1239D
  8
0
 10
4149.7298778622371174
 20
115.0284147137203945
 30
0.0
 40
0.0315282552578743
 50
115.4130059146443017
 51
143.0321108993925066
  0
ARC
  5
1239E
  8
0
 10
4149.7172027943961439
 20
115.0379549297516064
 30
0.0
 40
0.0156640481642594
 50
143.0321108993925066
 51
180.1814775577348087
  0
ARC
  5
1239F
  8
0
 10
4149.7203469753776517
 20
115.0379648886036961
 30
0.0
 40
0.0188082449188287
 50
180.1814775577354908
 51
216.8544836095296944
  0
ARC
  5
123A0
  8
0
 10
4149.733029414590419
 20
115.0474713879901998
 30
0.0
 40
0.0346580964927306
 50
216.854483609528387
 51
254.0966839076162103
  0
ARC
  5
123A1
  8
0
 10
4149.744799794237224
 20
115.0887825520411951
 30
0.0
 40
0.0776133535901025
 50
254.0966839076162103
 51
267.7990693563622244
  0
ARC
  5
123A2
  8
0
 10
4149.6726928476500689
 20
115.0864163009515977
 30
0.0
 40
0.0588390670417243
 50
64.5869943085042451
 51
90.215300532053746
  0
ARC
  5
123A3
  8
0
 10
4149.6844130141262212
 20
115.1110844613625943
 30
0.0
 40
0.0315282552578743
 50
36.9678893237300201
 51
64.5869943085042451
  0
ARC
  5
123A4
  8
0
 10
4149.697088081930815
 20
115.1206246774432032
 30
0.0
 40
0.0156640481642594
 50
359.8185226653836253
 51
36.9678893237306667
  0
ARC
  5
123A5
  8
0
 10
4149.6939439009483976
 20
115.1206346362830999
 30
0.0
 40
0.0188082449188287
 50
323.1455166135860964
 51
359.8185226653827726
  0
ARC
  5
123A6
  8
0
 10
4149.68126146170016
 20
115.1301411356202067
 30
0.0
 40
0.0346580964927306
 50
285.9033163154629733
 51
323.1455166135872901
  0
ARC
  5
123A7
  8
0
 10
4149.6694910818905555
 20
115.171452299625301
 30
0.0
 40
0.0776133535901025
 50
272.200930866729891
 51
285.9033163154629733
  0
ARC
  5
123A8
  8
0
 10
4149.672250649423404
 20
115.0864163009508019
 30
0.0
 40
0.0588390670417243
 50
89.7846996910316335
 51
115.4130059146439038
  0
ARC
  5
123A9
  8
0
 10
4149.6605304828499357
 20
115.1110844613160964
 30
0.0
 40
0.0315282552578743
 50
115.4130059146443017
 51
143.0321108993925066
  0
ARC
  5
123AA
  8
0
 10
4149.6478554150080527
 20
115.1206246773473936
 30
0.0
 40
0.0156640481642594
 50
143.0321108993925066
 51
180.1814775577348087
  0
ARC
  5
123AB
  8
0
 10
4149.650999595992289
 20
115.1206346361994974
 30
0.0
 40
0.0188082449188287
 50
180.1814775577354908
 51
216.8544836095296944
  0
ARC
  5
123AC
  8
0
 10
4149.6636820352023278
 20
115.1301411355860012
 30
0.0
 40
0.0346580964927306
 50
216.854483609528387
 51
254.0966839076162103
  0
ARC
  5
123AD
  8
0
 10
4149.6754524148500423
 20
115.171452299636897
 30
0.0
 40
0.0776133535901025
 50
254.0966839076162103
 51
267.7990693563622244
  0
ARC
  5
123AE
  8
0
 10
4149.8106318084592203
 20
115.0879135227448984
 30
0.0
 40
0.0588390670417243
 50
64.5869943085042451
 51
90.215300532053746
  0
ARC
  5
123AF
  8
0
 10
4149.8223519749353727
 20
115.112581683155895
 30
0.0
 40
0.0315282552578743
 50
36.9678893237300201
 51
64.5869943085042451
  0
ARC
  5
123B0
  8
0
 10
4149.8350270427390569
 20
115.1221218992365039
 30
0.0
 40
0.0156640481642594
 50
359.8185226653836253
 51
36.9678893237306667
  0
ARC
  5
123B1
  8
0
 10
4149.8318828617557301
 20
115.1221318580764006
 30
0.0
 40
0.0188082449188287
 50
323.1455166135860964
 51
359.8185226653827726
  0
ARC
  5
123B2
  8
0
 10
4149.8192004225093115
 20
115.1316383574134932
 30
0.0
 40
0.0346580964927306
 50
285.9033163154629733
 51
323.1455166135872901
  0
ARC
  5
123B3
  8
0
 10
4149.8074300427006165
 20
115.1729495214186016
 30
0.0
 40
0.0776133535901025
 50
272.200930866729891
 51
285.9033163154629733
  0
ARC
  5
123B4
  8
0
 10
4149.8101896102316459
 20
115.0879135227440031
 30
0.0
 40
0.0588390670417243
 50
89.7846996910316335
 51
115.4130059146439038
  0
ARC
  5
123B5
  8
0
 10
4149.7984694436599966
 20
115.1125816831092976
 30
0.0
 40
0.0315282552578743
 50
115.4130059146443017
 51
143.0321108993925066
  0
ARC
  5
123B6
  8
0
 10
4149.7857943758181136
 20
115.1221218991405948
 30
0.0
 40
0.0156640481642594
 50
143.0321108993925066
 51
180.1814775577348087
  0
ARC
  5
123B7
  8
0
 10
4149.7889385568023499
 20
115.1221318579926987
 30
0.0
 40
0.0188082449188287
 50
180.1814775577354908
 51
216.8544836095296944
  0
ARC
  5
123B8
  8
0
 10
4149.8016209960105698
 20
115.1316383573792024
 30
0.0
 40
0.0346580964927306
 50
216.854483609528387
 51
254.0966839076162103
  0
ARC
  5
123B9
  8
0
 10
4149.8133913756601032
 20
115.1729495214301977
 30
0.0
 40
0.0776133535901025
 50
254.0966839076162103
 51
267.7990693563622244
  0
ARC
  5
123BA
  8
0
 10
4149.7420795727493896
 20
115.1718456362514047
 30
0.0
 40
0.0588390670417243
 50
64.5869943085042451
 51
90.215300532053746
  0
ARC
  5
123BB
  8
0
 10
4149.7537997392246325
 20
115.1965137966624013
 30
0.0
 40
0.0315282552578743
 50
36.9678893237300201
 51
64.5869943085042451
  0
ARC
  5
123BC
  8
0
 10
4149.7664748070292262
 20
115.206054012742996
 30
0.0
 40
0.0156640481642594
 50
359.8185226653836253
 51
36.9678893237306667
  0
ARC
  5
123BD
  8
0
 10
4149.7633306260458994
 20
115.2060639715829069
 30
0.0
 40
0.0188082449188287
 50
323.1455166135860964
 51
359.8185226653827726
  0
ARC
  5
123BE
  8
0
 10
4149.7506481867985713
 20
115.2155704709199995
 30
0.0
 40
0.0346580964927306
 50
285.9033163154629733
 51
323.1455166135872901
  0
ARC
  5
123BF
  8
0
 10
4149.7388778069907858
 20
115.2568816349250937
 30
0.0
 40
0.0776133535901025
 50
272.200930866729891
 51
285.9033163154629733
  0
ARC
  5
123C0
  8
0
 10
4149.7416373745209057
 20
115.1718456362504952
 30
0.0
 40
0.0588390670417243
 50
89.7846996910316335
 51
115.4130059146439038
  0
ARC
  5
123C1
  8
0
 10
4149.7299172079492564
 20
115.1965137966159034
 30
0.0
 40
0.0315282552578743
 50
115.4130059146443017
 51
143.0321108993925066
  0
ARC
  5
123C2
  8
0
 10
4149.7172421401082829
 20
115.2060540126472006
 30
0.0
 40
0.0156640481642594
 50
143.0321108993925066
 51
180.1814775577348087
  0
ARC
  5
123C3
  8
0
 10
4149.7203863210897907
 20
115.2060639714993044
 30
0.0
 40
0.0188082449188287
 50
180.1814775577354908
 51
216.8544836095296944
  0
ARC
  5
123C4
  8
0
 10
4149.7330687603007391
 20
115.2155704708856945
 30
0.0
 40
0.0346580964927306
 50
216.854483609528387
 51
254.0966839076162103
  0
ARC
  5
123C5
  8
0
 10
4149.744839139949363
 20
115.256881634936704
 30
0.0
 40
0.0776133535901025
 50
254.0966839076162103
 51
267.7990693563622244
  0
ARC
  5
123C6
  8
0
 10
4149.880748609112743
 20
115.005760350219802
 30
0.0
 40
0.0588390670417243
 50
64.5869943085042451
 51
90.215300532053746
  0
ARC
  5
123C7
  8
0
 10
4149.8924687755888954
 20
115.0304285106307987
 30
0.0
 40
0.0315282552578743
 50
36.9678893237300201
 51
64.5869943085042451
  0
ARC
  5
123C8
  8
0
 10
4149.9051438433943986
 20
115.0399687267113933
 30
0.0
 40
0.0156640481642594
 50
359.8185226653836253
 51
36.9678893237306667
  0
ARC
  5
123C9
  8
0
 10
4149.9019996624110718
 20
115.0399786855513042
 30
0.0
 40
0.0188082449188287
 50
323.1455166135860964
 51
359.8185226653827726
  0
ARC
  5
123CA
  8
0
 10
4149.8893172231637436
 20
115.0494851848883968
 30
0.0
 40
0.0346580964927306
 50
285.9033163154629733
 51
323.1455166135872901
  0
ARC
  5
123CB
  8
0
 10
4149.8775468433550486
 20
115.0907963488935053
 30
0.0
 40
0.0776133535901025
 50
272.200930866729891
 51
285.9033163154629733
  0
ARC
  5
123CC
  8
0
 10
4149.8803064108860781
 20
115.0057603502189068
 30
0.0
 40
0.0588390670417243
 50
89.7846996910316335
 51
115.4130059146439038
  0
ARC
  5
123CD
  8
0
 10
4149.8685862443144288
 20
115.0304285105843007
 30
0.0
 40
0.0315282552578743
 50
115.4130059146443017
 51
143.0321108993925066
  0
ARC
  5
123CE
  8
0
 10
4149.8559111764716363
 20
115.0399687266155979
 30
0.0
 40
0.0156640481642594
 50
143.0321108993925066
 51
180.1814775577348087
  0
ARC
  5
123CF
  8
0
 10
4149.8590553574549631
 20
115.0399786854677018
 30
0.0
 40
0.0188082449188287
 50
180.1814775577354908
 51
216.8544836095296944
  0
ARC
  5
123D0
  8
0
 10
4149.8717377966659114
 20
115.0494851848542055
 30
0.0
 40
0.0346580964927306
 50
216.854483609528387
 51
254.0966839076162103
  0
ARC
  5
123D1
  8
0
 10
4149.8835081763136259
 20
115.0907963489051014
 30
0.0
 40
0.0776133535901025
 50
254.0966839076162103
 51
267.7990693563622244
  0
ARC
  5
123D2
  8
0
 10
4149.9484608609709539
 20
115.0875217613804011
 30
0.0
 40
0.0588390670417243
 50
64.5869943085042451
 51
90.215300532053746
  0
ARC
  5
123D3
  8
0
 10
4149.9601810274471063
 20
115.1121899217913978
 30
0.0
 40
0.0315282552578743
 50
36.9678893237300201
 51
64.5869943085042451
  0
ARC
  5
123D4
  8
0
 10
4149.9728560952517
 20
115.1217301378720066
 30
0.0
 40
0.0156640481642594
 50
359.8185226653836253
 51
36.9678893237306667
  0
ARC
  5
123D5
  8
0
 10
4149.9697119142692827
 20
115.1217400967119033
 30
0.0
 40
0.0188082449188287
 50
323.1455166135860964
 51
359.8185226653827726
  0
ARC
  5
123D6
  8
0
 10
4149.9570294750210451
 20
115.1312465960489959
 30
0.0
 40
0.0346580964927306
 50
285.9033163154629733
 51
323.1455166135872901
  0
ARC
  5
123D7
  8
0
 10
4149.9452590952123501
 20
115.1725577600541044
 30
0.0
 40
0.0776133535901025
 50
272.200930866729891
 51
285.9033163154629733
  0
ARC
  5
123D8
  8
0
 10
4149.9480186627433795
 20
115.0875217613795058
 30
0.0
 40
0.0588390670417243
 50
89.7846996910316335
 51
115.4130059146439038
  0
ARC
  5
123D9
  8
0
 10
4149.9362984961717302
 20
115.1121899217448998
 30
0.0
 40
0.0315282552578743
 50
115.4130059146443017
 51
143.0321108993925066
  0
ARC
  5
123DA
  8
0
 10
4149.9236234283298472
 20
115.121730137776197
 30
0.0
 40
0.0156640481642594
 50
143.0321108993925066
 51
180.1814775577348087
  0
ARC
  5
123DB
  8
0
 10
4149.9267676093122645
 20
115.1217400966283009
 30
0.0
 40
0.0188082449188287
 50
180.1814775577354908
 51
216.8544836095296944
  0
ARC
  5
123DC
  8
0
 10
4149.9394500485232129
 20
115.1312465960148046
 30
0.0
 40
0.0346580964927306
 50
216.854483609528387
 51
254.0966839076162103
  0
ARC
  5
123DD
  8
0
 10
4149.9512204281700178
 20
115.1725577600657004
 30
0.0
 40
0.0776133535901025
 50
254.0966839076162103
 51
267.7990693563622244
  0
ARC
  5
123DE
  8
0
 10
4149.88078162056172
 20
115.1709961987245947
 30
0.0
 40
0.0588390670417243
 50
64.5869943085042451
 51
90.215300532053746
  0
ARC
  5
123DF
  8
0
 10
4149.8925017870378724
 20
115.1956643591356055
 30
0.0
 40
0.0315282552578743
 50
36.9678893237300201
 51
64.5869943085042451
  0
ARC
  5
123E0
  8
0
 10
4149.9051768548433756
 20
115.2052045752162996
 30
0.0
 40
0.0156640481642594
 50
359.8185226653836253
 51
36.9678893237306667
  0
ARC
  5
123E1
  8
0
 10
4149.9020326738600488
 20
115.2052145340560969
 30
0.0
 40
0.0188082449188287
 50
323.1455166135860964
 51
359.8185226653827726
  0
ARC
  5
123E2
  8
0
 10
4149.8893502346118112
 20
115.2147210333932037
 30
0.0
 40
0.0346580964927306
 50
285.9033163154629733
 51
323.1455166135872901
  0
ARC
  5
123E3
  8
0
 10
4149.8775798548040257
 20
115.2560321973983974
 30
0.0
 40
0.0776133535901025
 50
272.200930866729891
 51
285.9033163154629733
  0
ARC
  5
123E4
  8
0
 10
4149.8803394223350551
 20
115.1709961987237989
 30
0.0
 40
0.0588390670417243
 50
89.7846996910316335
 51
115.4130059146439038
  0
ARC
  5
123E5
  8
0
 10
4149.8686192557615868
 20
115.1956643590890934
 30
0.0
 40
0.0315282552578743
 50
115.4130059146443017
 51
143.0321108993925066
  0
ARC
  5
123E6
  8
0
 10
4149.8559441879224323
 20
115.2052045751204048
 30
0.0
 40
0.0156640481642594
 50
143.0321108993925066
 51
180.1814775577348087
  0
ARC
  5
123E7
  8
0
 10
4149.8590883689039401
 20
115.2052145339724945
 30
0.0
 40
0.0188082449188287
 50
180.1814775577354908
 51
216.8544836095296944
  0
ARC
  5
123E8
  8
0
 10
4149.8717708081148885
 20
115.2147210333589982
 30
0.0
 40
0.0346580964927306
 50
216.854483609528387
 51
254.0966839076162103
  0
ARC
  5
123E9
  8
0
 10
4149.8835411877626029
 20
115.2560321974099935
 30
0.0
 40
0.0776133535901025
 50
254.0966839076162103
 51
267.7990693563622244
  0
ARC
  5
123EA
  8
0
 10
4149.8114430515952336
 20
115.2545743247167991
 30
0.0
 40
0.0588390670417243
 50
64.5869943085042451
 51
90.215300532053746
  0
ARC
  5
123EB
  8
0
 10
4149.8231632180713859
 20
115.2792424851277957
 30
0.0
 40
0.0315282552578743
 50
36.9678893237300201
 51
64.5869943085042451
  0
ARC
  5
123EC
  8
0
 10
4149.8358382858750701
 20
115.288782701208504
 30
0.0
 40
0.0156640481642594
 50
359.8185226653836253
 51
36.9678893237306667
  0
ARC
  5
123ED
  8
0
 10
4149.8326941048926528
 20
115.2887926600483013
 30
0.0
 40
0.0188082449188287
 50
323.1455166135860964
 51
359.8185226653827726
  0
ARC
  5
123EE
  8
0
 10
4149.8200116656453247
 20
115.2982991593853939
 30
0.0
 40
0.0346580964927306
 50
285.9033163154629733
 51
323.1455166135872901
  0
ARC
  5
123EF
  8
0
 10
4149.8082412858357202
 20
115.3396103233906018
 30
0.0
 40
0.0776133535901025
 50
272.200930866729891
 51
285.9033163154629733
  0
ARC
  5
123F0
  8
0
 10
4149.8110008533667497
 20
115.2545743247160033
 30
0.0
 40
0.0588390670417243
 50
89.7846996910316335
 51
115.4130059146439038
  0
ARC
  5
123F1
  8
0
 10
4149.7992806867951003
 20
115.2792424850812978
 30
0.0
 40
0.0315282552578743
 50
115.4130059146443017
 51
143.0321108993925066
  0
ARC
  5
123F2
  8
0
 10
4149.7866056189541268
 20
115.288782701112595
 30
0.0
 40
0.0156640481642594
 50
143.0321108993925066
 51
180.1814775577348087
  0
ARC
  5
123F3
  8
0
 10
4149.7897497999356347
 20
115.2887926599646988
 30
0.0
 40
0.0188082449188287
 50
180.1814775577354908
 51
216.8544836095296944
  0
ARC
  5
123F4
  8
0
 10
4149.802432239146583
 20
115.2982991593512025
 30
0.0
 40
0.0346580964927306
 50
216.854483609528387
 51
254.0966839076162103
  0
ARC
  5
123F5
  8
0
 10
4149.8142026187952069
 20
115.3396103234021979
 30
0.0
 40
0.0776133535901025
 50
254.0966839076162103
 51
267.7990693563622244
  0
ARC
  5
123F6
  8
0
 10
4149.6727177920138274
 20
115.2559028334571991
 30
0.0
 40
0.0588390670417243
 50
64.5869943085042451
 51
90.215300532053746
  0
ARC
  5
123F7
  8
0
 10
4149.6844379584899798
 20
115.2805709938681957
 30
0.0
 40
0.0315282552578743
 50
36.9678893237300201
 51
64.5869943085042451
  0
ARC
  5
123F8
  8
0
 10
4149.6971130262945735
 20
115.2901112099488046
 30
0.0
 40
0.0156640481642594
 50
359.8185226653836253
 51
36.9678893237306667
  0
ARC
  5
123F9
  8
0
 10
4149.6939688453130657
 20
115.2901211687887013
 30
0.0
 40
0.0188082449188287
 50
323.1455166135860964
 51
359.8185226653827726
  0
ARC
  5
123FA
  8
0
 10
4149.681286406064828
 20
115.2996276681257939
 30
0.0
 40
0.0346580964927306
 50
285.9033163154629733
 51
323.1455166135872901
  0
ARC
  5
123FB
  8
0
 10
4149.669516026256133
 20
115.3409388321309024
 30
0.0
 40
0.0776133535901025
 50
272.200930866729891
 51
285.9033163154629733
  0
ARC
  5
123FC
  8
0
 10
4149.672275593788072
 20
115.2559028334563038
 30
0.0
 40
0.0588390670417243
 50
89.7846996910316335
 51
115.4130059146439038
  0
ARC
  5
123FD
  8
0
 10
4149.6605554272164227
 20
115.2805709938216978
 30
0.0
 40
0.0315282552578743
 50
115.4130059146443017
 51
143.0321108993925066
  0
ARC
  5
123FE
  8
0
 10
4149.6478803593727207
 20
115.290111209852995
 30
0.0
 40
0.0156640481642594
 50
143.0321108993925066
 51
180.1814775577348087
  0
ARC
  5
123FF
  8
0
 10
4149.6510245403560475
 20
115.2901211687050989
 30
0.0
 40
0.0188082449188287
 50
180.1814775577354908
 51
216.8544836095296944
  0
ARC
  5
12400
  8
0
 10
4149.6637069795660864
 20
115.2996276680916026
 30
0.0
 40
0.0346580964927306
 50
216.854483609528387
 51
254.0966839076162103
  0
ARC
  5
12401
  8
0
 10
4149.6754773592156198
 20
115.3409388321424984
 30
0.0
 40
0.0776133535901025
 50
254.0966839076162103
 51
267.7990693563622244
  0
ARC
  5
12402
  8
0
 10
4149.5339757473757345
 20
115.255398266593005
 30
0.0
 40
0.0588390670417243
 50
64.5869943085042451
 51
90.215300532053746
  0
ARC
  5
12403
  8
0
 10
4149.5456959138518869
 20
115.2800664270040016
 30
0.0
 40
0.0315282552578743
 50
36.9678893237300201
 51
64.5869943085042451
  0
ARC
  5
12404
  8
0
 10
4149.5583709816555711
 20
115.2896066430846957
 30
0.0
 40
0.0156640481642594
 50
359.8185226653836253
 51
36.9678893237306667
  0
ARC
  5
12405
  8
0
 10
4149.5552268006731538
 20
115.289616601924493
 30
0.0
 40
0.0188082449188287
 50
323.1455166135860964
 51
359.8185226653827726
  0
ARC
  5
12406
  8
0
 10
4149.5425443614258256
 20
115.2991231012615998
 30
0.0
 40
0.0346580964927306
 50
285.9033163154629733
 51
323.1455166135872901
  0
ARC
  5
12407
  8
0
 10
4149.5307739816162211
 20
115.3404342652667935
 30
0.0
 40
0.0776133535901025
 50
272.200930866729891
 51
285.9033163154629733
  0
ARC
  5
12408
  8
0
 10
4149.5335335491481601
 20
115.255398266592195
 30
0.0
 40
0.0588390670417243
 50
89.7846996910316335
 51
115.4130059146439038
  0
ARC
  5
12409
  8
0
 10
4149.5218133825756013
 20
115.2800664269575037
 30
0.0
 40
0.0315282552578743
 50
115.4130059146443017
 51
143.0321108993925066
  0
ARC
  5
1240A
  8
0
 10
4149.5091383147337183
 20
115.2896066429888009
 30
0.0
 40
0.0156640481642594
 50
143.0321108993925066
 51
180.1814775577348087
  0
ARC
  5
1240B
  8
0
 10
4149.5122824957170451
 20
115.2896166018409048
 30
0.0
 40
0.0188082449188287
 50
180.1814775577354908
 51
216.8544836095296944
  0
ARC
  5
1240C
  8
0
 10
4149.5249649349279935
 20
115.2991231012273943
 30
0.0
 40
0.0346580964927306
 50
216.854483609528387
 51
254.0966839076162103
  0
ARC
  5
1240D
  8
0
 10
4149.5367353145747984
 20
115.3404342652784038
 30
0.0
 40
0.0776133535901025
 50
254.0966839076162103
 51
267.7990693563622244
  0
ARC
  5
1240E
  8
0
 10
4149.6033520969467645
 20
115.3417266919351931
 30
0.0
 40
0.0588390670417243
 50
64.5869943085042451
 51
90.215300532053746
  0
ARC
  5
1240F
  8
0
 10
4149.6150722634229169
 20
115.3663948523461045
 30
0.0
 40
0.0315282552578743
 50
36.9678893237300201
 51
64.5869943085042451
  0
ARC
  5
12410
  8
0
 10
4149.6277473312256916
 20
115.3759350684267986
 30
0.0
 40
0.0156640481642594
 50
359.8185226653836253
 51
36.9678893237306667
  0
ARC
  5
12411
  8
0
 10
4149.6246031502441838
 20
115.3759450272665958
 30
0.0
 40
0.0188082449188287
 50
323.1455166135860964
 51
359.8185226653827726
  0
ARC
  5
12412
  8
0
 10
4149.6119207109968556
 20
115.3854515266037026
 30
0.0
 40
0.0346580964927306
 50
285.9033163154629733
 51
323.1455166135872901
  0
ARC
  5
12413
  8
0
 10
4149.6001503311872511
 20
115.4267626906088964
 30
0.0
 40
0.0776133535901025
 50
272.200930866729891
 51
285.9033163154629733
  0
ARC
  5
12414
  8
0
 10
4149.6029098987191901
 20
115.3417266919342978
 30
0.0
 40
0.0588390670417243
 50
89.7846996910316335
 51
115.4130059146439038
  0
ARC
  5
12415
  8
0
 10
4149.5911897321466313
 20
115.3663948522996066
 30
0.0
 40
0.0315282552578743
 50
115.4130059146443017
 51
143.0321108993925066
  0
ARC
  5
12416
  8
0
 10
4149.5785146643047483
 20
115.3759350683309037
 30
0.0
 40
0.0156640481642594
 50
143.0321108993925066
 51
180.1814775577348087
  0
ARC
  5
12417
  8
0
 10
4149.5816588452880751
 20
115.3759450271829934
 30
0.0
 40
0.0188082449188287
 50
180.1814775577354908
 51
216.8544836095296944
  0
ARC
  5
12418
  8
0
 10
4149.5943412844990235
 20
115.3854515265694971
 30
0.0
 40
0.0346580964927306
 50
216.854483609528387
 51
254.0966839076162103
  0
ARC
  5
12419
  8
0
 10
4149.6061116641467379
 20
115.4267626906205066
 30
0.0
 40
0.0776133535901025
 50
254.0966839076162103
 51
267.7990693563622244
  0
ARC
  5
1241A
  8
0
 10
4149.7420938345931063
 20
115.3399186217148014
 30
0.0
 40
0.0588390670417243
 50
64.5869943085042451
 51
90.215300532053746
  0
ARC
  5
1241B
  8
0
 10
4149.7538140010692587
 20
115.364586782125798
 30
0.0
 40
0.0315282552578743
 50
36.9678893237300201
 51
64.5869943085042451
  0
ARC
  5
1241C
  8
0
 10
4149.7664890688729429
 20
115.3741269982065063
 30
0.0
 40
0.0156640481642594
 50
359.8185226653836253
 51
36.9678893237306667
  0
ARC
  5
1241D
  8
0
 10
4149.7633448878896161
 20
115.3741369570463036
 30
0.0
 40
0.0188082449188287
 50
323.1455166135860964
 51
359.8185226653827726
  0
ARC
  5
1241E
  8
0
 10
4149.7506624486431974
 20
115.3836434563834956
 30
0.0
 40
0.0346580964927306
 50
285.9033163154629733
 51
323.1455166135872901
  0
ARC
  5
1241F
  8
0
 10
4149.7388920688335929
 20
115.4249546203886041
 30
0.0
 40
0.0776133535901025
 50
272.200930866729891
 51
285.9033163154629733
  0
ARC
  5
12420
  8
0
 10
4149.7416516363646224
 20
115.3399186217140056
 30
0.0
 40
0.0588390670417243
 50
89.7846996910316335
 51
115.4130059146439038
  0
ARC
  5
12421
  8
0
 10
4149.7299314697929731
 20
115.3645867820793001
 30
0.0
 40
0.0315282552578743
 50
115.4130059146443017
 51
143.0321108993925066
  0
ARC
  5
12422
  8
0
 10
4149.7172564019510901
 20
115.3741269981105972
 30
0.0
 40
0.0156640481642594
 50
143.0321108993925066
 51
180.1814775577348087
  0
ARC
  5
12423
  8
0
 10
4149.7204005829353264
 20
115.3741369569627011
 30
0.0
 40
0.0188082449188287
 50
180.1814775577354908
 51
216.8544836095296944
  0
ARC
  5
12424
  8
0
 10
4149.7330830221453652
 20
115.3836434563492048
 30
0.0
 40
0.0346580964927306
 50
216.854483609528387
 51
254.0966839076162103
  0
ARC
  5
12425
  8
0
 10
4149.7448534017930797
 20
115.4249546204002002
 30
0.0
 40
0.0776133535901025
 50
254.0966839076162103
 51
267.7990693563622244
  0
ARC
  5
12426
  8
0
 10
4149.8808121006723013
 20
115.3391187862048071
 30
0.0
 40
0.0588390670417243
 50
64.5869943085042451
 51
90.215300532053746
  0
ARC
  5
12427
  8
0
 10
4149.8925322671484537
 20
115.3637869466158037
 30
0.0
 40
0.0315282552578743
 50
36.9678893237300201
 51
64.5869943085042451
  0
ARC
  5
12428
  8
0
 10
4149.9052073349521379
 20
115.3733271626964978
 30
0.0
 40
0.0156640481642594
 50
359.8185226653836253
 51
36.9678893237306667
  0
ARC
  5
12429
  8
0
 10
4149.9020631539697206
 20
115.3733371215362951
 30
0.0
 40
0.0188082449188287
 50
323.1455166135860964
 51
359.8185226653827726
  0
ARC
  5
1242A
  8
0
 10
4149.8893807147223924
 20
115.3828436208734018
 30
0.0
 40
0.0346580964927306
 50
285.9033163154629733
 51
323.1455166135872901
  0
ARC
  5
1242B
  8
0
 10
4149.8776103349136974
 20
115.4241547848785956
 30
0.0
 40
0.0776133535901025
 50
272.200930866729891
 51
285.9033163154629733
  0
ARC
  5
1242C
  8
0
 10
4149.8803699024447269
 20
115.339118786203997
 30
0.0
 40
0.0588390670417243
 50
89.7846996910316335
 51
115.4130059146439038
  0
ARC
  5
1242D
  8
0
 10
4149.8686497358721681
 20
115.3637869465693058
 30
0.0
 40
0.0315282552578743
 50
115.4130059146443017
 51
143.0321108993925066
  0
ARC
  5
1242E
  8
0
 10
4149.8559746680311946
 20
115.3733271626006029
 30
0.0
 40
0.0156640481642594
 50
143.0321108993925066
 51
180.1814775577348087
  0
ARC
  5
1242F
  8
0
 10
4149.8591188490136119
 20
115.3733371214527068
 30
0.0
 40
0.0188082449188287
 50
180.1814775577354908
 51
216.8544836095296944
  0
ARC
  5
12430
  8
0
 10
4149.8718012882236508
 20
115.3828436208391963
 30
0.0
 40
0.0346580964927306
 50
216.854483609528387
 51
254.0966839076162103
  0
ARC
  5
12431
  8
0
 10
4149.8835716678731842
 20
115.4241547848902059
 30
0.0
 40
0.0776133535901025
 50
254.0966839076162103
 51
267.7990693563622244
  0
ARC
  5
12432
  8
0
 10
4150.0194913464347337
 20
115.339324553282907
 30
0.0
 40
0.0588390670417243
 50
64.5869943085042451
 51
90.215300532053746
  0
ARC
  5
12433
  8
0
 10
4150.0312115129117956
 20
115.3639927136938041
 30
0.0
 40
0.0315282552578743
 50
36.9678893237300201
 51
64.5869943085042451
  0
ARC
  5
12434
  8
0
 10
4150.0438865807145703
 20
115.3735329297744983
 30
0.0
 40
0.0156640481642594
 50
359.8185226653836253
 51
36.9678893237306667
  0
ARC
  5
12435
  8
0
 10
4150.0407423997330625
 20
115.3735428886142955
 30
0.0
 40
0.0188082449188287
 50
323.1455166135860964
 51
359.8185226653827726
  0
ARC
  5
12436
  8
0
 10
4150.0280599604857343
 20
115.3830493879515018
 30
0.0
 40
0.0346580964927306
 50
285.9033163154629733
 51
323.1455166135872901
  0
ARC
  5
12437
  8
0
 10
4150.0162895806752203
 20
115.4243605519565961
 30
0.0
 40
0.0776133535901025
 50
272.200930866729891
 51
285.9033163154629733
  0
ARC
  5
12438
  8
0
 10
4150.0190491482080688
 20
115.3393245532819975
 30
0.0
 40
0.0588390670417243
 50
89.7846996910316335
 51
115.4130059146439038
  0
ARC
  5
12439
  8
0
 10
4150.0073289816364195
 20
115.3639927136473062
 30
0.0
 40
0.0315282552578743
 50
115.4130059146443017
 51
143.0321108993925066
  0
ARC
  5
1243A
  8
0
 10
4149.994653913793627
 20
115.3735329296786034
 30
0.0
 40
0.0156640481642594
 50
143.0321108993925066
 51
180.1814775577348087
  0
ARC
  5
1243B
  8
0
 10
4149.9977980947760443
 20
115.3735428885306931
 30
0.0
 40
0.0188082449188287
 50
180.1814775577354908
 51
216.8544836095296944
  0
ARC
  5
1243C
  8
0
 10
4150.0104805339879022
 20
115.3830493879171968
 30
0.0
 40
0.0346580964927306
 50
216.854483609528387
 51
254.0966839076162103
  0
ARC
  5
1243D
  8
0
 10
4150.0222509136347071
 20
115.4243605519682063
 30
0.0
 40
0.0776133535901025
 50
254.0966839076162103
 51
267.7990693563622244
  0
ARC
  5
1243E
  8
0
 10
4150.1582036223198884
 20
115.3405376278249008
 30
0.0
 40
0.0588390670417243
 50
64.5869943085042451
 51
90.215300532053746
  0
ARC
  5
1243F
  8
0
 10
4150.1699237887960408
 20
115.3652057882358974
 30
0.0
 40
0.0315282552578743
 50
36.9678893237300201
 51
64.5869943085042451
  0
ARC
  5
12440
  8
0
 10
4150.182598856599725
 20
115.3747460043165063
 30
0.0
 40
0.0156640481642594
 50
359.8185226653836253
 51
36.9678893237306667
  0
ARC
  5
12441
  8
0
 10
4150.1794546756173077
 20
115.374755963156403
 30
0.0
 40
0.0188082449188287
 50
323.1455166135860964
 51
359.8185226653827726
  0
ARC
  5
12442
  8
0
 10
4150.1667722363699795
 20
115.3842624624934956
 30
0.0
 40
0.0346580964927306
 50
285.9033163154629733
 51
323.1455166135872901
  0
ARC
  5
12443
  8
0
 10
4150.1550018565612845
 20
115.4255736264986041
 30
0.0
 40
0.0776133535901025
 50
272.200930866729891
 51
285.9033163154629733
  0
ARC
  5
12444
  8
0
 10
4150.157761424092314
 20
115.3405376278240055
 30
0.0
 40
0.0588390670417243
 50
89.7846996910316335
 51
115.4130059146439038
  0
ARC
  5
12445
  8
0
 10
4150.1460412575197552
 20
115.3652057881893995
 30
0.0
 40
0.0315282552578743
 50
115.4130059146443017
 51
143.0321108993925066
  0
ARC
  5
12446
  8
0
 10
4150.1333661896778722
 20
115.3747460042206967
 30
0.0
 40
0.0156640481642594
 50
143.0321108993925066
 51
180.1814775577348087
  0
ARC
  5
12447
  8
0
 10
4150.136510370661199
 20
115.3747559630728006
 30
0.0
 40
0.0188082449188287
 50
180.1814775577354908
 51
216.8544836095296944
  0
ARC
  5
12448
  8
0
 10
4150.1491928098721473
 20
115.3842624624592048
 30
0.0
 40
0.0346580964927306
 50
216.854483609528387
 51
254.0966839076162103
  0
ARC
  5
12449
  8
0
 10
4150.1609631895189523
 20
115.4255736265102001
 30
0.0
 40
0.0776133535901025
 50
254.0966839076162103
 51
267.7990693563622244
  0
ARC
  5
1244A
  8
0
 10
4150.0888090511280097
 20
115.2549355489834966
 30
0.0
 40
0.0588390670417243
 50
64.5869943085042451
 51
90.215300532053746
  0
ARC
  5
1244B
  8
0
 10
4150.1005292176041621
 20
115.2796037093944932
 30
0.0
 40
0.0315282552578743
 50
36.9678893237300201
 51
64.5869943085042451
  0
ARC
  5
1244C
  8
0
 10
4150.1132042854087558
 20
115.2891439254752015
 30
0.0
 40
0.0156640481642594
 50
359.8185226653836253
 51
36.9678893237306667
  0
ARC
  5
1244D
  8
0
 10
4150.1100601044263385
 20
115.2891538843149988
 30
0.0
 40
0.0188082449188287
 50
323.1455166135860964
 51
359.8185226653827726
  0
ARC
  5
1244E
  8
0
 10
4150.0973776651781009
 20
115.2986603836521056
 30
0.0
 40
0.0346580964927306
 50
285.9033163154629733
 51
323.1455166135872901
  0
ARC
  5
1244F
  8
0
 10
4150.0856072853694059
 20
115.3399715476571998
 30
0.0
 40
0.0776133535901025
 50
272.200930866729891
 51
285.9033163154629733
  0
ARC
  5
12450
  8
0
 10
4150.0883668529013448
 20
115.2549355489826013
 30
0.0
 40
0.0588390670417243
 50
89.7846996910316335
 51
115.4130059146439038
  0
ARC
  5
12451
  8
0
 10
4150.0766466863278765
 20
115.2796037093479953
 30
0.0
 40
0.0315282552578743
 50
115.4130059146443017
 51
143.0321108993925066
  0
ARC
  5
12452
  8
0
 10
4150.063971618486903
 20
115.2891439253793067
 30
0.0
 40
0.0156640481642594
 50
143.0321108993925066
 51
180.1814775577348087
  0
ARC
  5
12453
  8
0
 10
4150.0671157994702298
 20
115.2891538842313963
 30
0.0
 40
0.0188082449188287
 50
180.1814775577354908
 51
216.8544836095296944
  0
ARC
  5
12454
  8
0
 10
4150.0797982386811782
 20
115.2986603836179
 30
0.0
 40
0.0346580964927306
 50
216.854483609528387
 51
254.0966839076162103
  0
ARC
  5
12455
  8
0
 10
4150.0915686183288926
 20
115.3399715476687959
 30
0.0
 40
0.0776133535901025
 50
254.0966839076162103
 51
267.7990693563622244
  0
ARC
  5
12456
  8
0
 10
4150.1581694829837943
 20
115.1723139483141978
 30
0.0
 40
0.0588390670417243
 50
64.5869943085042451
 51
90.215300532053746
  0
ARC
  5
12457
  8
0
 10
4150.1698896494599467
 20
115.1969821087251944
 30
0.0
 40
0.0315282552578743
 50
36.9678893237300201
 51
64.5869943085042451
  0
ARC
  5
12458
  8
0
 10
4150.1825647172654499
 20
115.2065223248059027
 30
0.0
 40
0.0156640481642594
 50
359.8185226653836253
 51
36.9678893237306667
  0
ARC
  5
12459
  8
0
 10
4150.1794205362830326
 20
115.2065322836457
 30
0.0
 40
0.0188082449188287
 50
323.1455166135860964
 51
359.8185226653827726
  0
ARC
  5
1245A
  8
0
 10
4150.1667380970338854
 20
115.2160387829828068
 30
0.0
 40
0.0346580964927306
 50
285.9033163154629733
 51
323.1455166135872901
  0
ARC
  5
1245B
  8
0
 10
4150.1549677172260999
 20
115.257349946987901
 30
0.0
 40
0.0776133535901025
 50
272.200930866729891
 51
285.9033163154629733
  0
ARC
  5
1245C
  8
0
 10
4150.1577272847580389
 20
115.172313948313402
 30
0.0
 40
0.0588390670417243
 50
89.7846996910316335
 51
115.4130059146439038
  0
ARC
  5
1245D
  8
0
 10
4150.1460071181845706
 20
115.1969821086786965
 30
0.0
 40
0.0315282552578743
 50
115.4130059146443017
 51
143.0321108993925066
  0
ARC
  5
1245E
  8
0
 10
4150.1333320503426876
 20
115.2065223247099937
 30
0.0
 40
0.0156640481642594
 50
143.0321108993925066
 51
180.1814775577348087
  0
ARC
  5
1245F
  8
0
 10
4150.1364762313269239
 20
115.2065322835620975
 30
0.0
 40
0.0188082449188287
 50
180.1814775577354908
 51
216.8544836095296944
  0
ARC
  5
12460
  8
0
 10
4150.1491586705369627
 20
115.2160387829486012
 30
0.0
 40
0.0346580964927306
 50
216.854483609528387
 51
254.0966839076162103
  0
ARC
  5
12461
  8
0
 10
4150.1609290501846772
 20
115.2573499469995966
 30
0.0
 40
0.0776133535901025
 50
254.0966839076162103
 51
267.7990693563622244
  0
ARC
  5
12462
  8
0
 10
4150.0194609642248906
 20
115.1711515525358038
 30
0.0
 40
0.0588390670417243
 50
64.5869943085042451
 51
90.215300532053746
  0
ARC
  5
12463
  8
0
 10
4150.031181130701043
 20
115.1958197129468005
 30
0.0
 40
0.0315282552578743
 50
36.9678893237300201
 51
64.5869943085042451
  0
ARC
  5
12464
  8
0
 10
4150.0438561985056367
 20
115.2053599290273951
 30
0.0
 40
0.0156640481642594
 50
359.8185226653836253
 51
36.9678893237306667
  0
ARC
  5
12465
  8
0
 10
4150.0407120175223099
 20
115.205369887867306
 30
0.0
 40
0.0188082449188287
 50
323.1455166135860964
 51
359.8185226653827726
  0
ARC
  5
12466
  8
0
 10
4150.0280295782749818
 20
115.2148763872043986
 30
0.0
 40
0.0346580964927306
 50
285.9033163154629733
 51
323.1455166135872901
  0
ARC
  5
12467
  8
0
 10
4150.0162591984662868
 20
115.2561875512095071
 30
0.0
 40
0.0776133535901025
 50
272.200930866729891
 51
285.9033163154629733
  0
ARC
  5
12468
  8
0
 10
4150.0190187659973162
 20
115.1711515525348943
 30
0.0
 40
0.0588390670417243
 50
89.7846996910316335
 51
115.4130059146439038
  0
ARC
  5
12469
  8
0
 10
4150.0072985994247574
 20
115.1958197129003025
 30
0.0
 40
0.0315282552578743
 50
115.4130059146443017
 51
143.0321108993925066
  0
ARC
  5
1246A
  8
0
 10
4149.9946235315837839
 20
115.2053599289315997
 30
0.0
 40
0.0156640481642594
 50
143.0321108993925066
 51
180.1814775577348087
  0
ARC
  5
1246B
  8
0
 10
4149.9977677125671107
 20
115.2053698877837036
 30
0.0
 40
0.0188082449188287
 50
180.1814775577354908
 51
216.8544836095296944
  0
ARC
  5
1246C
  8
0
 10
4150.0104501517780591
 20
115.2148763871701931
 30
0.0
 40
0.0346580964927306
 50
216.854483609528387
 51
254.0966839076162103
  0
ARC
  5
1246D
  8
0
 10
4150.0222205314239545
 20
115.2561875512211031
 30
0.0
 40
0.0776133535901025
 50
254.0966839076162103
 51
267.7990693563622244
  0
ARC
  5
1246E
  8
0
 10
4150.0866282420502102
 20
115.0881365059113932
 30
0.0
 40
0.0588390670417243
 50
64.5869943085042451
 51
90.215300532053746
  0
ARC
  5
1246F
  8
0
 10
4150.0983484085263626
 20
115.112804666322404
 30
0.0
 40
0.0315282552578743
 50
36.9678893237300201
 51
64.5869943085042451
  0
ARC
  5
12470
  8
0
 10
4150.1110234763300468
 20
115.1223448824029987
 30
0.0
 40
0.0156640481642594
 50
359.8185226653836253
 51
36.9678893237306667
  0
ARC
  5
12471
  8
0
 10
4150.1078792953476295
 20
115.1223548412428954
 30
0.0
 40
0.0188082449188287
 50
323.1455166135860964
 51
359.8185226653827726
  0
ARC
  5
12472
  8
0
 10
4150.0951968561003014
 20
115.1318613405800022
 30
0.0
 40
0.0346580964927306
 50
285.9033163154629733
 51
323.1455166135872901
  0
ARC
  5
12473
  8
0
 10
4150.0834264762916064
 20
115.1731725045850965
 30
0.0
 40
0.0776133535901025
 50
272.200930866729891
 51
285.9033163154629733
  0
ARC
  5
12474
  8
0
 10
4150.0861860438226358
 20
115.0881365059104979
 30
0.0
 40
0.0588390670417243
 50
89.7846996910316335
 51
115.4130059146439038
  0
ARC
  5
12475
  8
0
 10
4150.0744658772509865
 20
115.1128046662759061
 30
0.0
 40
0.0315282552578743
 50
115.4130059146443017
 51
143.0321108993925066
  0
ARC
  5
12476
  8
0
 10
4150.0617908094091035
 20
115.1223448823072033
 30
0.0
 40
0.0156640481642594
 50
143.0321108993925066
 51
180.1814775577348087
  0
ARC
  5
12477
  8
0
 10
4150.0649349903924303
 20
115.122354841159293
 30
0.0
 40
0.0188082449188287
 50
180.1814775577354908
 51
216.8544836095296944
  0
ARC
  5
12478
  8
0
 10
4150.0776174296033787
 20
115.1318613405457967
 30
0.0
 40
0.0346580964927306
 50
216.854483609528387
 51
254.0966839076162103
  0
ARC
  5
12479
  8
0
 10
4150.0893878092510931
 20
115.1731725045967067
 30
0.0
 40
0.0776133535901025
 50
254.0966839076162103
 51
267.7990693563622244
  0
ARC
  5
1247A
  8
0
 10
4149.9501231600752362
 20
115.2542517804943998
 30
0.0
 40
0.0588390670417243
 50
64.5869943085042451
 51
90.215300532053746
  0
ARC
  5
1247B
  8
0
 10
4149.9618433265513886
 20
115.2789199409052969
 30
0.0
 40
0.0315282552578743
 50
36.9678893237300201
 51
64.5869943085042451
  0
ARC
  5
1247C
  8
0
 10
4149.9745183943550728
 20
115.2884601569860052
 30
0.0
 40
0.0156640481642594
 50
359.8185226653836253
 51
36.9678893237306667
  0
ARC
  5
1247D
  8
0
 10
4149.9713742133726555
 20
115.288470115825902
 30
0.0
 40
0.0188082449188287
 50
323.1455166135860964
 51
359.8185226653827726
  0
ARC
  5
1247E
  8
0
 10
4149.9586917741253274
 20
115.2979766151629946
 30
0.0
 40
0.0346580964927306
 50
285.9033163154629733
 51
323.1455166135872901
  0
ARC
  5
1247F
  8
0
 10
4149.9469213943157229
 20
115.339287779168103
 30
0.0
 40
0.0776133535901025
 50
272.200930866729891
 51
285.9033163154629733
  0
ARC
  5
12480
  8
0
 10
4149.9496809618476618
 20
115.2542517804935045
 30
0.0
 40
0.0588390670417243
 50
89.7846996910316335
 51
115.4130059146439038
  0
ARC
  5
12481
  8
0
 10
4149.937960795275103
 20
115.2789199408588985
 30
0.0
 40
0.0315282552578743
 50
115.4130059146443017
 51
143.0321108993925066
  0
ARC
  5
12482
  8
0
 10
4149.9252857274341295
 20
115.2884601568900962
 30
0.0
 40
0.0156640481642594
 50
143.0321108993925066
 51
180.1814775577348087
  0
ARC
  5
12483
  8
0
 10
4149.9284299084156373
 20
115.2884701157422001
 30
0.0
 40
0.0188082449188287
 50
180.1814775577354908
 51
216.8544836095296944
  0
ARC
  5
12484
  8
0
 10
4149.9411123476284047
 20
115.2979766151287038
 30
0.0
 40
0.0346580964927306
 50
216.854483609528387
 51
254.0966839076162103
  0
ARC
  5
12485
  8
0
 10
4149.9528827272761191
 20
115.3392877791796991
 30
0.0
 40
0.0776133535901025
 50
254.0966839076162103
 51
267.7990693563622244
  0
ARC
  5
12486
  8
0
 10
4150.2275617353607231
 20
115.2566278063727054
 30
0.0
 40
0.0588390670417243
 50
64.5869943085042451
 51
90.215300532053746
  0
ARC
  5
12487
  8
0
 10
4150.239281901835966
 20
115.2812959667837021
 30
0.0
 40
0.0315282552578743
 50
36.9678893237300201
 51
64.5869943085042451
  0
ARC
  5
12488
  8
0
 10
4150.2519569696423787
 20
115.2908361828642967
 30
0.0
 40
0.0156640481642594
 50
359.8185226653836253
 51
36.9678893237306667
  0
ARC
  5
12489
  8
0
 10
4150.2488127886590519
 20
115.2908461417041934
 30
0.0
 40
0.0188082449188287
 50
323.1455166135860964
 51
359.8185226653827726
  0
ARC
  5
1248A
  8
0
 10
4150.2361303494108142
 20
115.3003526410413002
 30
0.0
 40
0.0346580964927306
 50
285.9033163154629733
 51
323.1455166135872901
  0
ARC
  5
1248B
  8
0
 10
4150.2243599696021192
 20
115.3416638050463945
 30
0.0
 40
0.0776133535901025
 50
272.200930866729891
 51
285.9033163154629733
  0
ARC
  5
1248C
  8
0
 10
4150.2271195371340582
 20
115.2566278063717959
 30
0.0
 40
0.0588390670417243
 50
89.7846996910316335
 51
115.4130059146439038
  0
ARC
  5
1248D
  8
0
 10
4150.2153993705605899
 20
115.2812959667372041
 30
0.0
 40
0.0315282552578743
 50
115.4130059146443017
 51
143.0321108993925066
  0
ARC
  5
1248E
  8
0
 10
4150.2027243027196164
 20
115.2908361827685013
 30
0.0
 40
0.0156640481642594
 50
143.0321108993925066
 51
180.1814775577348087
  0
ARC
  5
1248F
  8
0
 10
4150.2058684837029432
 20
115.2908461416205057
 30
0.0
 40
0.0188082449188287
 50
180.1814775577354908
 51
216.8544836095296944
  0
ARC
  5
12490
  8
0
 10
4150.2185509229129821
 20
115.3003526410070947
 30
0.0
 40
0.0346580964927306
 50
216.854483609528387
 51
254.0966839076162103
  0
ARC
  5
12491
  8
0
 10
4150.2303213025606965
 20
115.3416638050580048
 30
0.0
 40
0.0776133535901025
 50
254.0966839076162103
 51
267.7990693563622244
  0
ARC
  5
12492
  8
0
 10
4150.2276128029006941
 20
115.4257617963707929
 30
0.0
 40
0.0588390670417243
 50
64.5869943085042451
 51
90.215300532053746
  0
ARC
  5
12493
  8
0
 10
4150.2393329693777559
 20
115.4504299567818038
 30
0.0
 40
0.0315282552578743
 50
36.9678893237300201
 51
64.5869943085042451
  0
ARC
  5
12494
  8
0
 10
4150.2520080371823497
 20
115.4599701728624979
 30
0.0
 40
0.0156640481642594
 50
359.8185226653836253
 51
36.9678893237306667
  0
ARC
  5
12495
  8
0
 10
4150.2488638561990228
 20
115.4599801317022951
 30
0.0
 40
0.0188082449188287
 50
323.1455166135860964
 51
359.8185226653827726
  0
ARC
  5
12496
  8
0
 10
4150.2361814169516947
 20
115.4694866310394019
 30
0.0
 40
0.0346580964927306
 50
285.9033163154629733
 51
323.1455166135872901
  0
ARC
  5
12497
  8
0
 10
4150.2244110371420902
 20
115.5107977950445957
 30
0.0
 40
0.0776133535901025
 50
272.200930866729891
 51
285.9033163154629733
  0
ARC
  5
12498
  8
0
 10
4150.2271706046740292
 20
115.4257617963699971
 30
0.0
 40
0.0588390670417243
 50
89.7846996910316335
 51
115.4130059146439038
  0
ARC
  5
12499
  8
0
 10
4150.2154504381032893
 20
115.4504299567353058
 30
0.0
 40
0.0315282552578743
 50
115.4130059146443017
 51
143.0321108993925066
  0
ARC
  5
1249A
  8
0
 10
4150.2027753702595874
 20
115.459970172766603
 30
0.0
 40
0.0156640481642594
 50
143.0321108993925066
 51
180.1814775577348087
  0
ARC
  5
1249B
  8
0
 10
4150.2059195512429142
 20
115.4599801316187069
 30
0.0
 40
0.0188082449188287
 50
180.1814775577354908
 51
216.8544836095296944
  0
ARC
  5
1249C
  8
0
 10
4150.2186019904538625
 20
115.4694866310051964
 30
0.0
 40
0.0346580964927306
 50
216.854483609528387
 51
254.0966839076162103
  0
ARC
  5
1249D
  8
0
 10
4150.230372370101577
 20
115.5107977950562059
 30
0.0
 40
0.0776133535901025
 50
254.0966839076162103
 51
267.7990693563622244
  0
ARC
  5
1249E
  8
0
 10
4150.0888479608702255
 20
115.4240177445841056
 30
0.0
 40
0.0588390670417243
 50
64.5869943085042451
 51
90.215300532053746
  0
ARC
  5
1249F
  8
0
 10
4150.1005681273463779
 20
115.4486859049951022
 30
0.0
 40
0.0315282552578743
 50
36.9678893237300201
 51
64.5869943085042451
  0
ARC
  5
124A0
  8
0
 10
4150.1132431951509716
 20
115.4582261210756968
 30
0.0
 40
0.0156640481642594
 50
359.8185226653836253
 51
36.9678893237306667
  0
ARC
  5
124A1
  8
0
 10
4150.1100990141676448
 20
115.4582360799155936
 30
0.0
 40
0.0188082449188287
 50
323.1455166135860964
 51
359.8185226653827726
  0
ARC
  5
124A2
  8
0
 10
4150.0974165749203166
 20
115.4677425792527004
 30
0.0
 40
0.0346580964927306
 50
285.9033163154629733
 51
323.1455166135872901
  0
ARC
  5
124A3
  8
0
 10
4150.0856461951107121
 20
115.5090537432577946
 30
0.0
 40
0.0776133535901025
 50
272.200930866729891
 51
285.9033163154629733
  0
ARC
  5
124A4
  8
0
 10
4150.0884057626426511
 20
115.4240177445831961
 30
0.0
 40
0.0588390670417243
 50
89.7846996910316335
 51
115.4130059146439038
  0
ARC
  5
124A5
  8
0
 10
4150.0766855960710018
 20
115.4486859049486043
 30
0.0
 40
0.0315282552578743
 50
115.4130059146443017
 51
143.0321108993925066
  0
ARC
  5
124A6
  8
0
 10
4150.0640105282291188
 20
115.4582261209799015
 30
0.0
 40
0.0156640481642594
 50
143.0321108993925066
 51
180.1814775577348087
  0
ARC
  5
124A7
  8
0
 10
4150.0671547092106266
 20
115.4582360798320053
 30
0.0
 40
0.0188082449188287
 50
180.1814775577354908
 51
216.8544836095296944
  0
ARC
  5
124A8
  8
0
 10
4150.079837148421575
 20
115.4677425792184948
 30
0.0
 40
0.0346580964927306
 50
216.854483609528387
 51
254.0966839076162103
  0
ARC
  5
124A9
  8
0
 10
4150.0916075280711084
 20
115.5090537432694049
 30
0.0
 40
0.0776133535901025
 50
254.0966839076162103
 51
267.7990693563622244
  0
ARC
  5
124AA
  8
0
 10
4149.9501779578613423
 20
115.4232841543786066
 30
0.0
 40
0.0588390670417243
 50
64.5869943085042451
 51
90.215300532053746
  0
ARC
  5
124AB
  8
0
 10
4149.9618981243365852
 20
115.4479523147895037
 30
0.0
 40
0.0315282552578743
 50
36.9678893237300201
 51
64.5869943085042451
  0
ARC
  5
124AC
  8
0
 10
4149.9745731921420884
 20
115.4574925308701978
 30
0.0
 40
0.0156640481642594
 50
359.8185226653836253
 51
36.9678893237306667
  0
ARC
  5
124AD
  8
0
 10
4149.9714290111578521
 20
115.4575024897099951
 30
0.0
 40
0.0188082449188287
 50
323.1455166135860964
 51
359.8185226653827726
  0
ARC
  5
124AE
  8
0
 10
4149.9587465719114334
 20
115.4670089890472013
 30
0.0
 40
0.0346580964927306
 50
285.9033163154629733
 51
323.1455166135872901
  0
ARC
  5
124AF
  8
0
 10
4149.9469761921027384
 20
115.5083201530522956
 30
0.0
 40
0.0776133535901025
 50
272.200930866729891
 51
285.9033163154629733
  0
ARC
  5
124B0
  8
0
 10
4149.9497357596328584
 20
115.4232841543776971
 30
0.0
 40
0.0588390670417243
 50
89.7846996910316335
 51
115.4130059146439038
  0
ARC
  5
124B1
  8
0
 10
4149.9380155930612091
 20
115.4479523147430058
 30
0.0
 40
0.0315282552578743
 50
115.4130059146443017
 51
143.0321108993925066
  0
ARC
  5
124B2
  8
0
 10
4149.9253405252202356
 20
115.457492530774303
 30
0.0
 40
0.0156640481642594
 50
143.0321108993925066
 51
180.1814775577348087
  0
ARC
  5
124B3
  8
0
 10
4149.9284847062026529
 20
115.4575024896264068
 30
0.0
 40
0.0188082449188287
 50
180.1814775577354908
 51
216.8544836095296944
  0
ARC
  5
124B4
  8
0
 10
4149.9411671454126918
 20
115.4670089890128963
 30
0.0
 40
0.0346580964927306
 50
216.854483609528387
 51
254.0966839076162103
  0
ARC
  5
124B5
  8
0
 10
4149.9529375250613157
 20
115.5083201530639059
 30
0.0
 40
0.0776133535901025
 50
254.0966839076162103
 51
267.7990693563622244
  0
ARC
  5
124B6
  8
0
 10
4149.8114638460865535
 20
115.4235557329133997
 30
0.0
 40
0.0588390670417243
 50
64.5869943085042451
 51
90.215300532053746
  0
ARC
  5
124B7
  8
0
 10
4149.8231840125627059
 20
115.4482238933243963
 30
0.0
 40
0.0315282552578743
 50
36.9678893237300201
 51
64.5869943085042451
  0
ARC
  5
124B8
  8
0
 10
4149.8358590803682091
 20
115.4577641094050051
 30
0.0
 40
0.0156640481642594
 50
359.8185226653836253
 51
36.9678893237306667
  0
ARC
  5
124B9
  8
0
 10
4149.8327148993839728
 20
115.4577740682449019
 30
0.0
 40
0.0188082449188287
 50
323.1455166135860964
 51
359.8185226653827726
  0
ARC
  5
124BA
  8
0
 10
4149.8200324601357352
 20
115.4672805675819944
 30
0.0
 40
0.0346580964927306
 50
285.9033163154629733
 51
323.1455166135872901
  0
ARC
  5
124BB
  8
0
 10
4149.8082620803279497
 20
115.5085917315871029
 30
0.0
 40
0.0776133535901025
 50
272.200930866729891
 51
285.9033163154629733
  0
ARC
  5
124BC
  8
0
 10
4149.8110216478589791
 20
115.4235557329125044
 30
0.0
 40
0.0588390670417243
 50
89.7846996910316335
 51
115.4130059146439038
  0
ARC
  5
124BD
  8
0
 10
4149.7993014812864203
 20
115.4482238932778984
 30
0.0
 40
0.0315282552578743
 50
115.4130059146443017
 51
143.0321108993925066
  0
ARC
  5
124BE
  8
0
 10
4149.7866264134463563
 20
115.4577641093090961
 30
0.0
 40
0.0156640481642594
 50
143.0321108993925066
 51
180.1814775577348087
  0
ARC
  5
124BF
  8
0
 10
4149.7897705944278641
 20
115.4577740681611999
 30
0.0
 40
0.0188082449188287
 50
180.1814775577354908
 51
216.8544836095296944
  0
ARC
  5
124C0
  8
0
 10
4149.8024530336388125
 20
115.4672805675478031
 30
0.0
 40
0.0346580964927306
 50
216.854483609528387
 51
254.0966839076162103
  0
ARC
  5
124C1
  8
0
 10
4149.8142234132856174
 20
115.508591731598699
 30
0.0
 40
0.0776133535901025
 50
254.0966839076162103
 51
267.7990693563622244
  0
ARC
  5
124C2
  8
0
 10
4149.6727295574273739
 20
115.4248354951878071
 30
0.0
 40
0.0588390670417243
 50
64.5869943085042451
 51
90.215300532053746
  0
ARC
  5
124C3
  8
0
 10
4149.6844497239044358
 20
115.4495036555988037
 30
0.0
 40
0.0315282552578743
 50
36.9678893237300201
 51
64.5869943085042451
  0
ARC
  5
124C4
  8
0
 10
4149.69712479170812
 20
115.4590438716794978
 30
0.0
 40
0.0156640481642594
 50
359.8185226653836253
 51
36.9678893237306667
  0
ARC
  5
124C5
  8
0
 10
4149.6939806107257027
 20
115.459053830519295
 30
0.0
 40
0.0188082449188287
 50
323.1455166135860964
 51
359.8185226653827726
  0
ARC
  5
124C6
  8
0
 10
4149.6812981714765556
 20
115.4685603298565013
 30
0.0
 40
0.0346580964927306
 50
285.9033163154629733
 51
323.1455166135872901
  0
ARC
  5
124C7
  8
0
 10
4149.6695277916678606
 20
115.5098714938615956
 30
0.0
 40
0.0776133535901025
 50
272.200930866729891
 51
285.9033163154629733
  0
ARC
  5
124C8
  8
0
 10
4149.672287359200709
 20
115.424835495186997
 30
0.0
 40
0.0588390670417243
 50
89.7846996910316335
 51
115.4130059146439038
  0
ARC
  5
124C9
  8
0
 10
4149.6605671926281502
 20
115.4495036555523058
 30
0.0
 40
0.0315282552578743
 50
115.4130059146443017
 51
143.0321108993925066
  0
ARC
  5
124CA
  8
0
 10
4149.6478921247862672
 20
115.4590438715836029
 30
0.0
 40
0.0156640481642594
 50
143.0321108993925066
 51
180.1814775577348087
  0
ARC
  5
124CB
  8
0
 10
4149.6510363057686845
 20
115.4590538304357068
 30
0.0
 40
0.0188082449188287
 50
180.1814775577354908
 51
216.8544836095296944
  0
ARC
  5
124CC
  8
0
 10
4149.6637187449796329
 20
115.4685603298221963
 30
0.0
 40
0.0346580964927306
 50
216.854483609528387
 51
254.0966839076162103
  0
ARC
  5
124CD
  8
0
 10
4149.6754891246282568
 20
115.5098714938732058
 30
0.0
 40
0.0776133535901025
 50
254.0966839076162103
 51
267.7990693563622244
  0
ARC
  5
124CE
  8
0
 10
4149.6033535353917614
 20
115.5084753463712985
 30
0.0
 40
0.0588390670417243
 50
64.5869943085042451
 51
90.215300532053746
  0
ARC
  5
124CF
  8
0
 10
4149.6150737018688233
 20
115.5331435067822952
 30
0.0
 40
0.0315282552578743
 50
36.9678893237300201
 51
64.5869943085042451
  0
ARC
  5
124D0
  8
0
 10
4149.627748769671598
 20
115.542683722862904
 30
0.0
 40
0.0156640481642594
 50
359.8185226653836253
 51
36.9678893237306667
  0
ARC
  5
124D1
  8
0
 10
4149.6246045886900902
 20
115.5426936817028007
 30
0.0
 40
0.0188082449188287
 50
323.1455166135860964
 51
359.8185226653827726
  0
ARC
  5
124D2
  8
0
 10
4149.611922149442762
 20
115.5522001810398933
 30
0.0
 40
0.0346580964927306
 50
285.9033163154629733
 51
323.1455166135872901
  0
ARC
  5
124D3
  8
0
 10
4149.600151769634067
 20
115.5935113450450018
 30
0.0
 40
0.0776133535901025
 50
272.200930866729891
 51
285.9033163154629733
  0
ARC
  5
124D4
  8
0
 10
4149.6029113371650965
 20
115.5084753463704033
 30
0.0
 40
0.0588390670417243
 50
89.7846996910316335
 51
115.4130059146439038
  0
ARC
  5
124D5
  8
0
 10
4149.5911911705916282
 20
115.5331435067357972
 30
0.0
 40
0.0315282552578743
 50
115.4130059146443017
 51
143.0321108993925066
  0
ARC
  5
124D6
  8
0
 10
4149.5785161027515642
 20
115.5426837227670944
 30
0.0
 40
0.0156640481642594
 50
143.0321108993925066
 51
180.1814775577348087
  0
ARC
  5
124D7
  8
0
 10
4149.5816602837339815
 20
115.5426936816191983
 30
0.0
 40
0.0188082449188287
 50
180.1814775577354908
 51
216.8544836095296944
  0
ARC
  5
124D8
  8
0
 10
4149.5943427229440204
 20
115.552200181005702
 30
0.0
 40
0.0346580964927306
 50
216.854483609528387
 51
254.0966839076162103
  0
ARC
  5
124D9
  8
0
 10
4149.6061131025917348
 20
115.5935113450565979
 30
0.0
 40
0.0776133535901025
 50
254.0966839076162103
 51
267.7990693563622244
  0
ARC
  5
124DA
  8
0
 10
4149.7421054786882451
 20
115.5067153868411935
 30
0.0
 40
0.0588390670417243
 50
64.5869943085042451
 51
90.215300532053746
  0
ARC
  5
124DB
  8
0
 10
4149.7538256451653069
 20
115.5313835472522044
 30
0.0
 40
0.0315282552578743
 50
36.9678893237300201
 51
64.5869943085042451
  0
ARC
  5
124DC
  8
0
 10
4149.7665007129689911
 20
115.540923763332799
 30
0.0
 40
0.0156640481642594
 50
359.8185226653836253
 51
36.9678893237306667
  0
ARC
  5
124DD
  8
0
 10
4149.7633565319856643
 20
115.5409337221726958
 30
0.0
 40
0.0188082449188287
 50
323.1455166135860964
 51
359.8185226653827726
  0
ARC
  5
124DE
  8
0
 10
4149.7506740927392457
 20
115.5504402215098025
 30
0.0
 40
0.0346580964927306
 50
285.9033163154629733
 51
323.1455166135872901
  0
ARC
  5
124DF
  8
0
 10
4149.7389037129287317
 20
115.5917513855148968
 30
0.0
 40
0.0776133535901025
 50
272.200930866729891
 51
285.9033163154629733
  0
ARC
  5
124E0
  8
0
 10
4149.7416632804606706
 20
115.5067153868403977
 30
0.0
 40
0.0588390670417243
 50
89.7846996910316335
 51
115.4130059146439038
  0
ARC
  5
124E1
  8
0
 10
4149.7299431138881118
 20
115.5313835472057065
 30
0.0
 40
0.0315282552578743
 50
115.4130059146443017
 51
143.0321108993925066
  0
ARC
  5
124E2
  8
0
 10
4149.7172680460471383
 20
115.5409237632370036
 30
0.0
 40
0.0156640481642594
 50
143.0321108993925066
 51
180.1814775577348087
  0
ARC
  5
124E3
  8
0
 10
4149.7204122270286462
 20
115.5409337220890933
 30
0.0
 40
0.0188082449188287
 50
180.1814775577354908
 51
216.8544836095296944
  0
ARC
  5
124E4
  8
0
 10
4149.7330946662414135
 20
115.550440221475597
 30
0.0
 40
0.0346580964927306
 50
216.854483609528387
 51
254.0966839076162103
  0
ARC
  5
124E5
  8
0
 10
4149.7448650458882184
 20
115.5917513855265071
 30
0.0
 40
0.0776133535901025
 50
254.0966839076162103
 51
267.7990693563622244
  0
ARC
  5
124E6
  8
0
 10
4149.8808260559044356
 20
115.5059641221775024
 30
0.0
 40
0.0588390670417243
 50
64.5869943085042451
 51
90.215300532053746
  0
ARC
  5
124E7
  8
0
 10
4149.892546222380588
 20
115.530632282588499
 30
0.0
 40
0.0315282552578743
 50
36.9678893237300201
 51
64.5869943085042451
  0
ARC
  5
124E8
  8
0
 10
4149.9052212901842722
 20
115.5401724986691931
 30
0.0
 40
0.0156640481642594
 50
359.8185226653836253
 51
36.9678893237306667
  0
ARC
  5
124E9
  8
0
 10
4149.9020771092018549
 20
115.5401824575090046
 30
0.0
 40
0.0188082449188287
 50
323.1455166135860964
 51
359.8185226653827726
  0
ARC
  5
124EA
  8
0
 10
4149.8893946699536173
 20
115.5496889568461967
 30
0.0
 40
0.0346580964927306
 50
285.9033163154629733
 51
323.1455166135872901
  0
ARC
  5
124EB
  8
0
 10
4149.8776242901440128
 20
115.5910001208513052
 30
0.0
 40
0.0776133535901025
 50
272.200930866729891
 51
285.9033163154629733
  0
ARC
  5
124EC
  8
0
 10
4149.8803838576759517
 20
115.5059641221767066
 30
0.0
 40
0.0588390670417243
 50
89.7846996910316335
 51
115.4130059146439038
  0
ARC
  5
124ED
  8
0
 10
4149.8686636911043024
 20
115.5306322825420011
 30
0.0
 40
0.0315282552578743
 50
115.4130059146443017
 51
143.0321108993925066
  0
ARC
  5
124EE
  8
0
 10
4149.8559886232633289
 20
115.5401724985732983
 30
0.0
 40
0.0156640481642594
 50
143.0321108993925066
 51
180.1814775577348087
  0
ARC
  5
124EF
  8
0
 10
4149.8591328042457462
 20
115.5401824574254022
 30
0.0
 40
0.0188082449188287
 50
180.1814775577354908
 51
216.8544836095296944
  0
ARC
  5
124F0
  8
0
 10
4149.8718152434557851
 20
115.5496889568119059
 30
0.0
 40
0.0346580964927306
 50
216.854483609528387
 51
254.0966839076162103
  0
ARC
  5
124F1
  8
0
 10
4149.883585623104409
 20
115.5910001208629012
 30
0.0
 40
0.0776133535901025
 50
254.0966839076162103
 51
267.7990693563622244
  0
ARC
  5
124F2
  8
0
 10
4150.0195140255937076
 20
115.506219465560406
 30
0.0
 40
0.0588390670417243
 50
64.5869943085042451
 51
90.215300532053746
  0
ARC
  5
124F3
  8
0
 10
4150.0312341920707695
 20
115.5308876259714026
 30
0.0
 40
0.0315282552578743
 50
36.9678893237300201
 51
64.5869943085042451
  0
ARC
  5
124F4
  8
0
 10
4150.0439092598753632
 20
115.5404278420519972
 30
0.0
 40
0.0156640481642594
 50
359.8185226653836253
 51
36.9678893237306667
  0
ARC
  5
124F5
  8
0
 10
4150.0407650788929459
 20
115.540437800891894
 30
0.0
 40
0.0188082449188287
 50
323.1455166135860964
 51
359.8185226653827726
  0
ARC
  5
124F6
  8
0
 10
4150.0280826396447083
 20
115.5499443002290008
 30
0.0
 40
0.0346580964927306
 50
285.9033163154629733
 51
323.1455166135872901
  0
ARC
  5
124F7
  8
0
 10
4150.0163122598351038
 20
115.591255464234095
 30
0.0
 40
0.0776133535901025
 50
272.200930866729891
 51
285.9033163154629733
  0
ARC
  5
124F8
  8
0
 10
4150.0190718273679522
 20
115.506219465559596
 30
0.0
 40
0.0588390670417243
 50
89.7846996910316335
 51
115.4130059146439038
  0
ARC
  5
124F9
  8
0
 10
4150.0073516607963029
 20
115.5308876259249047
 30
0.0
 40
0.0315282552578743
 50
115.4130059146443017
 51
143.0321108993925066
  0
ARC
  5
124FA
  8
0
 10
4149.9946765929544199
 20
115.5404278419562019
 30
0.0
 40
0.0156640481642594
 50
143.0321108993925066
 51
180.1814775577348087
  0
ARC
  5
124FB
  8
0
 10
4149.9978207739359277
 20
115.5404378008083057
 30
0.0
 40
0.0188082449188287
 50
180.1814775577354908
 51
216.8544836095296944
  0
ARC
  5
124FC
  8
0
 10
4150.0105032131477856
 20
115.5499443001947952
 30
0.0
 40
0.0346580964927306
 50
216.854483609528387
 51
254.0966839076162103
  0
ARC
  5
124FD
  8
0
 10
4150.0222735927945905
 20
115.5912554642457053
 30
0.0
 40
0.0776133535901025
 50
254.0966839076162103
 51
267.7990693563622244
  0
ARC
  5
124FE
  8
0
 10
4150.1594868234933529
 20
115.5075631098508069
 30
0.0
 40
0.0588390670417243
 50
64.5869943085042451
 51
90.215300532053746
  0
ARC
  5
124FF
  8
0
 10
4150.1712069899685957
 20
115.5322312702618035
 30
0.0
 40
0.0315282552578743
 50
36.9678893237300201
 51
64.5869943085042451
  0
ARC
  5
12500
  8
0
 10
4150.1838820577731894
 20
115.5417714863424976
 30
0.0
 40
0.0156640481642594
 50
359.8185226653836253
 51
36.9678893237306667
  0
ARC
  5
12501
  8
0
 10
4150.1807378767907721
 20
115.5417814451822949
 30
0.0
 40
0.0188082449188287
 50
323.1455166135860964
 51
359.8185226653827726
  0
ARC
  5
12502
  8
0
 10
4150.168055437543444
 20
115.5512879445194017
 30
0.0
 40
0.0346580964927306
 50
285.9033163154629733
 51
323.1455166135872901
  0
ARC
  5
12503
  8
0
 10
4150.156285057734749
 20
115.5925991085244959
 30
0.0
 40
0.0776133535901025
 50
272.200930866729891
 51
285.9033163154629733
  0
ARC
  5
12504
  8
0
 10
4150.1590446252666879
 20
115.5075631098498974
 30
0.0
 40
0.0588390670417243
 50
89.7846996910316335
 51
115.4130059146439038
  0
ARC
  5
12505
  8
0
 10
4150.1473244586941291
 20
115.5322312702153056
 30
0.0
 40
0.0315282552578743
 50
115.4130059146443017
 51
143.0321108993925066
  0
ARC
  5
12506
  8
0
 10
4150.1346493908522461
 20
115.5417714862466028
 30
0.0
 40
0.0156640481642594
 50
143.0321108993925066
 51
180.1814775577348087
  0
ARC
  5
12507
  8
0
 10
4150.1377935718346635
 20
115.5417814450987066
 30
0.0
 40
0.0188082449188287
 50
180.1814775577354908
 51
216.8544836095296944
  0
ARC
  5
12508
  8
0
 10
4150.1504760110447023
 20
115.5512879444851961
 30
0.0
 40
0.0346580964927306
 50
216.854483609528387
 51
254.0966839076162103
  0
ARC
  5
12509
  8
0
 10
4150.1622463906942357
 20
115.5925991085362057
 30
0.0
 40
0.0776133535901025
 50
254.0966839076162103
 51
267.7990693563622244
  0
ARC
  5
1250A
  8
0
 10
4150.2275918204486516
 20
115.5928338062072953
 30
0.0
 40
0.0588390670417243
 50
64.5869943085042451
 51
90.215300532053746
  0
ARC
  5
1250B
  8
0
 10
4150.2393119869257134
 20
115.6175019666183061
 30
0.0
 40
0.0315282552578743
 50
36.9678893237300201
 51
64.5869943085042451
  0
ARC
  5
1250C
  8
0
 10
4150.2519870547303071
 20
115.6270421826989008
 30
0.0
 40
0.0156640481642594
 50
359.8185226653836253
 51
36.9678893237306667
  0
ARC
  5
1250D
  8
0
 10
4150.2488428737478898
 20
115.6270521415387975
 30
0.0
 40
0.0188082449188287
 50
323.1455166135860964
 51
359.8185226653827726
  0
ARC
  5
1250E
  8
0
 10
4150.2361604344987427
 20
115.6365586408759043
 30
0.0
 40
0.0346580964927306
 50
285.9033163154629733
 51
323.1455166135872901
  0
ARC
  5
1250F
  8
0
 10
4150.2243900546909572
 20
115.6778698048809986
 30
0.0
 40
0.0776133535901025
 50
272.200930866729891
 51
285.9033163154629733
  0
ARC
  5
12510
  8
0
 10
4150.2271496222228961
 20
115.5928338062064995
 30
0.0
 40
0.0588390670417243
 50
89.7846996910316335
 51
115.4130059146439038
  0
ARC
  5
12511
  8
0
 10
4150.2154294556503373
 20
115.617501966571794
 30
0.0
 40
0.0315282552578743
 50
115.4130059146443017
 51
143.0321108993925066
  0
ARC
  5
12512
  8
0
 10
4150.2027543878093638
 20
115.6270421826031054
 30
0.0
 40
0.0156640481642594
 50
143.0321108993925066
 51
180.1814775577348087
  0
ARC
  5
12513
  8
0
 10
4150.2058985687908716
 20
115.6270521414551951
 30
0.0
 40
0.0188082449188287
 50
180.1814775577354908
 51
216.8544836095296944
  0
ARC
  5
12514
  8
0
 10
4150.2185810080027295
 20
115.6365586408416988
 30
0.0
 40
0.0346580964927306
 50
216.854483609528387
 51
254.0966839076162103
  0
ARC
  5
12515
  8
0
 10
4150.2303513876513534
 20
115.6778698048925946
 30
0.0
 40
0.0776133535901025
 50
254.0966839076162103
 51
267.7990693563622244
  0
ARC
  5
12516
  8
0
 10
4150.1582023200953699
 20
115.6760664916327954
 30
0.0
 40
0.0588390670417243
 50
64.5869943085042451
 51
90.215300532053746
  0
ARC
  5
12517
  8
0
 10
4150.1699224865706128
 20
115.7007346520438062
 30
0.0
 40
0.0315282552578743
 50
36.9678893237300201
 51
64.5869943085042451
  0
ARC
  5
12518
  8
0
 10
4150.1825975543752065
 20
115.7102748681244009
 30
0.0
 40
0.0156640481642594
 50
359.8185226653836253
 51
36.9678893237306667
  0
ARC
  5
12519
  8
0
 10
4150.1794533733918797
 20
115.7102848269642976
 30
0.0
 40
0.0188082449188287
 50
323.1455166135860964
 51
359.8185226653827726
  0
ARC
  5
1251A
  8
0
 10
4150.1667709341436421
 20
115.7197913263014044
 30
0.0
 40
0.0346580964927306
 50
285.9033163154629733
 51
323.1455166135872901
  0
ARC
  5
1251B
  8
0
 10
4150.1550005543349471
 20
115.7611024903064987
 30
0.0
 40
0.0776133535901025
 50
272.200930866729891
 51
285.9033163154629733
  0
ARC
  5
1251C
  8
0
 10
4150.1577601218659765
 20
115.6760664916319001
 30
0.0
 40
0.0588390670417243
 50
89.7846996910316335
 51
115.4130059146439038
  0
ARC
  5
1251D
  8
0
 10
4150.1460399552952367
 20
115.7007346519972941
 30
0.0
 40
0.0315282552578743
 50
115.4130059146443017
 51
143.0321108993925066
  0
ARC
  5
1251E
  8
0
 10
4150.1333648874533537
 20
115.7102748680286055
 30
0.0
 40
0.0156640481642594
 50
143.0321108993925066
 51
180.1814775577348087
  0
ARC
  5
1251F
  8
0
 10
4150.1365090684366805
 20
115.7102848268806952
 30
0.0
 40
0.0188082449188287
 50
180.1814775577354908
 51
216.8544836095296944
  0
ARC
  5
12520
  8
0
 10
4150.1491915076458099
 20
115.7197913262671989
 30
0.0
 40
0.0346580964927306
 50
216.854483609528387
 51
254.0966839076162103
  0
ARC
  5
12521
  8
0
 10
4150.1609618872944338
 20
115.7611024903180947
 30
0.0
 40
0.0776133535901025
 50
254.0966839076162103
 51
267.7990693563622244
  0
ARC
  5
12522
  8
0
 10
4150.0888555937690398
 20
115.5910420484061945
 30
0.0
 40
0.0588390670417243
 50
64.5869943085042451
 51
90.215300532053746
  0
ARC
  5
12523
  8
0
 10
4150.1005757602442827
 20
115.6157102088172053
 30
0.0
 40
0.0315282552578743
 50
36.9678893237300201
 51
64.5869943085042451
  0
ARC
  5
12524
  8
0
 10
4150.1132508280497859
 20
115.6252504248977999
 30
0.0
 40
0.0156640481642594
 50
359.8185226653836253
 51
36.9678893237306667
  0
ARC
  5
12525
  8
0
 10
4150.1101066470655496
 20
115.6252603837376967
 30
0.0
 40
0.0188082449188287
 50
323.1455166135860964
 51
359.8185226653827726
  0
ARC
  5
12526
  8
0
 10
4150.097424207819131
 20
115.6347668830748034
 30
0.0
 40
0.0346580964927306
 50
285.9033163154629733
 51
323.1455166135872901
  0
ARC
  5
12527
  8
0
 10
4150.085653828010436
 20
115.6760780470798977
 30
0.0
 40
0.0776133535901025
 50
272.200930866729891
 51
285.9033163154629733
  0
ARC
  5
12528
  8
0
 10
4150.0884133955423749
 20
115.5910420484052992
 30
0.0
 40
0.0588390670417243
 50
89.7846996910316335
 51
115.4130059146439038
  0
ARC
  5
12529
  8
0
 10
4150.0766932289698161
 20
115.6157102087706932
 30
0.0
 40
0.0315282552578743
 50
115.4130059146443017
 51
143.0321108993925066
  0
ARC
  5
1252A
  8
0
 10
4150.0640181611279331
 20
115.6252504248020045
 30
0.0
 40
0.0156640481642594
 50
143.0321108993925066
 51
180.1814775577348087
  0
ARC
  5
1252B
  8
0
 10
4150.0671623421103504
 20
115.6252603836540942
 30
0.0
 40
0.0188082449188287
 50
180.1814775577354908
 51
216.8544836095296944
  0
ARC
  5
1252C
  8
0
 10
4150.0798447813222083
 20
115.6347668830405979
 30
0.0
 40
0.0346580964927306
 50
216.854483609528387
 51
254.0966839076162103
  0
ARC
  5
1252D
  8
0
 10
4150.0916151609690132
 20
115.6760780470914938
 30
0.0
 40
0.0776133535901025
 50
254.0966839076162103
 51
267.7990693563622244
  0
ARC
  5
1252E
  8
0
 10
4150.0194943626602253
 20
115.6747547348717973
 30
0.0
 40
0.0588390670417243
 50
64.5869943085042451
 51
90.215300532053746
  0
ARC
  5
1252F
  8
0
 10
4150.0312145291363777
 20
115.6994228952827939
 30
0.0
 40
0.0315282552578743
 50
36.9678893237300201
 51
64.5869943085042451
  0
ARC
  5
12530
  8
0
 10
4150.0438895969409714
 20
115.7089631113635022
 30
0.0
 40
0.0156640481642594
 50
359.8185226653836253
 51
36.9678893237306667
  0
ARC
  5
12531
  8
0
 10
4150.0407454159576446
 20
115.7089730702033989
 30
0.0
 40
0.0188082449188287
 50
323.1455166135860964
 51
359.8185226653827726
  0
ARC
  5
12532
  8
0
 10
4150.0280629767103164
 20
115.7184795695405057
 30
0.0
 40
0.0346580964927306
 50
285.9033163154629733
 51
323.1455166135872901
  0
ARC
  5
12533
  8
0
 10
4150.0162925969007119
 20
115.7597907335456
 30
0.0
 40
0.0776133535901025
 50
272.200930866729891
 51
285.9033163154629733
  0
ARC
  5
12534
  8
0
 10
4150.0190521644335604
 20
115.6747547348710015
 30
0.0
 40
0.0588390670417243
 50
89.7846996910316335
 51
115.4130059146439038
  0
ARC
  5
12535
  8
0
 10
4150.0073319978610016
 20
115.6994228952363954
 30
0.0
 40
0.0315282552578743
 50
115.4130059146443017
 51
143.0321108993925066
  0
ARC
  5
12536
  8
0
 10
4149.9946569300200281
 20
115.7089631112675931
 30
0.0
 40
0.0156640481642594
 50
143.0321108993925066
 51
180.1814775577348087
  0
ARC
  5
12537
  8
0
 10
4149.9978011110024454
 20
115.708973070119697
 30
0.0
 40
0.0188082449188287
 50
180.1814775577354908
 51
216.8544836095296944
  0
ARC
  5
12538
  8
0
 10
4150.0104835502143032
 20
115.7184795695062007
 30
0.0
 40
0.0346580964927306
 50
216.854483609528387
 51
254.0966839076162103
  0
ARC
  5
12539
  8
0
 10
4150.0222539298611082
 20
115.7597907335571961
 30
0.0
 40
0.0776133535901025
 50
254.0966839076162103
 51
267.7990693563622244
  0
ARC
  5
1253A
  8
0
 10
4150.088811175301089
 20
115.7611539816818009
 30
0.0
 40
0.0588390670417243
 50
64.5869943085042451
 51
90.215300532053746
  0
ARC
  5
1253B
  8
0
 10
4150.1005313417763318
 20
115.7858221420926981
 30
0.0
 40
0.0315282552578743
 50
36.9678893237300201
 51
64.5869943085042451
  0
ARC
  5
1253C
  8
0
 10
4150.113206409581835
 20
115.7953623581734064
 30
0.0
 40
0.0156640481642594
 50
359.8185226653836253
 51
36.9678893237306667
  0
ARC
  5
1253D
  8
0
 10
4150.1100622285975987
 20
115.7953723170132037
 30
0.0
 40
0.0188082449188287
 50
323.1455166135860964
 51
359.8185226653827726
  0
ARC
  5
1253E
  8
0
 10
4150.0973797893511801
 20
115.8048788163502962
 30
0.0
 40
0.0346580964927306
 50
285.9033163154629733
 51
323.1455166135872901
  0
ARC
  5
1253F
  8
0
 10
4150.0856094095433946
 20
115.8461899803555042
 30
0.0
 40
0.0776133535901025
 50
272.200930866729891
 51
285.9033163154629733
  0
ARC
  5
12540
  8
0
 10
4150.088368977074424
 20
115.7611539816809056
 30
0.0
 40
0.0588390670417243
 50
89.7846996910316335
 51
115.4130059146439038
  0
ARC
  5
12541
  8
0
 10
4150.0766488105018652
 20
115.7858221420462002
 30
0.0
 40
0.0315282552578743
 50
115.4130059146443017
 51
143.0321108993925066
  0
ARC
  5
12542
  8
0
 10
4150.0639737426599822
 20
115.7953623580774973
 30
0.0
 40
0.0156640481642594
 50
143.0321108993925066
 51
180.1814775577348087
  0
ARC
  5
12543
  8
0
 10
4150.067117923643309
 20
115.7953723169296012
 30
0.0
 40
0.0188082449188287
 50
180.1814775577354908
 51
216.8544836095296944
  0
ARC
  5
12544
  8
0
 10
4150.0798003628533479
 20
115.8048788163161049
 30
0.0
 40
0.0346580964927306
 50
216.854483609528387
 51
254.0966839076162103
  0
ARC
  5
12545
  8
0
 10
4150.0915707425019718
 20
115.8461899803671002
 30
0.0
 40
0.0776133535901025
 50
254.0966839076162103
 51
267.7990693563622244
  0
ARC
  5
12546
  8
0
 10
4149.9501297362321566
 20
115.7603219390724973
 30
0.0
 40
0.0588390670417243
 50
64.5869943085042451
 51
90.215300532053746
  0
ARC
  5
12547
  8
0
 10
4149.9618499027073995
 20
115.784990099483494
 30
0.0
 40
0.0315282552578743
 50
36.9678893237300201
 51
64.5869943085042451
  0
ARC
  5
12548
  8
0
 10
4149.9745249705119932
 20
115.7945303155642023
 30
0.0
 40
0.0156640481642594
 50
359.8185226653836253
 51
36.9678893237306667
  0
ARC
  5
12549
  8
0
 10
4149.9713807895286664
 20
115.794540274404099
 30
0.0
 40
0.0188082449188287
 50
323.1455166135860964
 51
359.8185226653827726
  0
ARC
  5
1254A
  8
0
 10
4149.9586983502813382
 20
115.8040467737412058
 30
0.0
 40
0.0346580964927306
 50
285.9033163154629733
 51
323.1455166135872901
  0
ARC
  5
1254B
  8
0
 10
4149.9469279704717337
 20
115.8453579377463001
 30
0.0
 40
0.0776133535901025
 50
272.200930866729891
 51
285.9033163154629733
  0
ARC
  5
1254C
  8
0
 10
4149.9496875380036727
 20
115.7603219390717015
 30
0.0
 40
0.0588390670417243
 50
89.7846996910316335
 51
115.4130059146439038
  0
ARC
  5
1254D
  8
0
 10
4149.9379673714320234
 20
115.7849900994370955
 30
0.0
 40
0.0315282552578743
 50
115.4130059146443017
 51
143.0321108993925066
  0
ARC
  5
1254E
  8
0
 10
4149.9252923035910499
 20
115.7945303154682932
 30
0.0
 40
0.0156640481642594
 50
143.0321108993925066
 51
180.1814775577348087
  0
ARC
  5
1254F
  8
0
 10
4149.9284364845725577
 20
115.7945402743203971
 30
0.0
 40
0.0188082449188287
 50
180.1814775577354908
 51
216.8544836095296944
  0
ARC
  5
12550
  8
0
 10
4149.9411189237844155
 20
115.8040467737069008
 30
0.0
 40
0.0346580964927306
 50
216.854483609528387
 51
254.0966839076162103
  0
ARC
  5
12551
  8
0
 10
4149.95288930343213
 20
115.8453579377578961
 30
0.0
 40
0.0776133535901025
 50
254.0966839076162103
 51
267.7990693563622244
  0
ARC
  5
12552
  8
0
 10
4149.811432284483999
 20
115.7604972596621025
 30
0.0
 40
0.0588390670417243
 50
64.5869943085042451
 51
90.215300532053746
  0
ARC
  5
12553
  8
0
 10
4149.8231524509592418
 20
115.7851654200730991
 30
0.0
 40
0.0315282552578743
 50
36.9678893237300201
 51
64.5869943085042451
  0
ARC
  5
12554
  8
0
 10
4149.8358275187638355
 20
115.7947056361537932
 30
0.0
 40
0.0156640481642594
 50
359.8185226653836253
 51
36.9678893237306667
  0
ARC
  5
12555
  8
0
 10
4149.8326833377814182
 20
115.7947155949936047
 30
0.0
 40
0.0188082449188287
 50
323.1455166135860964
 51
359.8185226653827726
  0
ARC
  5
12556
  8
0
 10
4149.8200008985340901
 20
115.8042220943307967
 30
0.0
 40
0.0346580964927306
 50
285.9033163154629733
 51
323.1455166135872901
  0
ARC
  5
12557
  8
0
 10
4149.8082305187253951
 20
115.8455332583359052
 30
0.0
 40
0.0776133535901025
 50
272.200930866729891
 51
285.9033163154629733
  0
ARC
  5
12558
  8
0
 10
4149.8109900862564245
 20
115.7604972596613067
 30
0.0
 40
0.0588390670417243
 50
89.7846996910316335
 51
115.4130059146439038
  0
ARC
  5
12559
  8
0
 10
4149.7992699196838657
 20
115.7851654200266012
 30
0.0
 40
0.0315282552578743
 50
115.4130059146443017
 51
143.0321108993925066
  0
ARC
  5
1255A
  8
0
 10
4149.7865948518428922
 20
115.7947056360578983
 30
0.0
 40
0.0156640481642594
 50
143.0321108993925066
 51
180.1814775577348087
  0
ARC
  5
1255B
  8
0
 10
4149.7897390328253096
 20
115.7947155949100022
 30
0.0
 40
0.0188082449188287
 50
180.1814775577354908
 51
216.8544836095296944
  0
ARC
  5
1255C
  8
0
 10
4149.8024214720371674
 20
115.8042220942965059
 30
0.0
 40
0.0346580964927306
 50
216.854483609528387
 51
254.0966839076162103
  0
ARC
  5
1255D
  8
0
 10
4149.8141918516839723
 20
115.8455332583475013
 30
0.0
 40
0.0776133535901025
 50
254.0966839076162103
 51
267.7990693563622244
  0
ARC
  5
1255E
  8
0
 10
4149.6727095200039912
 20
115.7589825186399963
 30
0.0
 40
0.0588390670417243
 50
64.5869943085042451
 51
90.215300532053746
  0
ARC
  5
1255F
  8
0
 10
4149.6844296864792341
 20
115.7836506790509929
 30
0.0
 40
0.0315282552578743
 50
36.9678893237300201
 51
64.5869943085042451
  0
ARC
  5
12560
  8
0
 10
4149.6971047542838278
 20
115.7931908951316018
 30
0.0
 40
0.0156640481642594
 50
359.8185226653836253
 51
36.9678893237306667
  0
ARC
  5
12561
  8
0
 10
4149.6939605732995915
 20
115.7932008539714985
 30
0.0
 40
0.0188082449188287
 50
323.1455166135860964
 51
359.8185226653827726
  0
ARC
  5
12562
  8
0
 10
4149.6812781340540823
 20
115.8027073533086053
 30
0.0
 40
0.0346580964927306
 50
285.9033163154629733
 51
323.1455166135872901
  0
ARC
  5
12563
  8
0
 10
4149.6695077542462968
 20
115.8440185173136996
 30
0.0
 40
0.0776133535901025
 50
272.200930866729891
 51
285.9033163154629733
  0
ARC
  5
12564
  8
0
 10
4149.6722673217773263
 20
115.758982518639101
 30
0.0
 40
0.0588390670417243
 50
89.7846996910316335
 51
115.4130059146439038
  0
ARC
  5
12565
  8
0
 10
4149.6605471552047675
 20
115.783650679004495
 30
0.0
 40
0.0315282552578743
 50
115.4130059146443017
 51
143.0321108993925066
  0
ARC
  5
12566
  8
0
 10
4149.6478720873628845
 20
115.7931908950358064
 30
0.0
 40
0.0156640481642594
 50
143.0321108993925066
 51
180.1814775577348087
  0
ARC
  5
12567
  8
0
 10
4149.6510162683462113
 20
115.7932008538878961
 30
0.0
 40
0.0188082449188287
 50
180.1814775577354908
 51
216.8544836095296944
  0
ARC
  5
12568
  8
0
 10
4149.6636987075562502
 20
115.8027073532743998
 30
0.0
 40
0.0346580964927306
 50
216.854483609528387
 51
254.0966839076162103
  0
ARC
  5
12569
  8
0
 10
4149.6754690872048741
 20
115.8440185173252956
 30
0.0
 40
0.0776133535901025
 50
254.0966839076162103
 51
267.7990693563622244
  0
ARC
  5
1256A
  8
0
 10
4149.6033493395207188
 20
115.8429999055109931
 30
0.0
 40
0.0588390670417243
 50
64.5869943085042451
 51
90.215300532053746
  0
ARC
  5
1256B
  8
0
 10
4149.6150695059977807
 20
115.867668065922004
 30
0.0
 40
0.0315282552578743
 50
36.9678893237300201
 51
64.5869943085042451
  0
ARC
  5
1256C
  8
0
 10
4149.6277445738023744
 20
115.8772082820025986
 30
0.0
 40
0.0156640481642594
 50
359.8185226653836253
 51
36.9678893237306667
  0
ARC
  5
1256D
  8
0
 10
4149.6246003928190476
 20
115.8772182408424953
 30
0.0
 40
0.0188082449188287
 50
323.1455166135860964
 51
359.8185226653827726
  0
ARC
  5
1256E
  8
0
 10
4149.6119179535708099
 20
115.8867247401796021
 30
0.0
 40
0.0346580964927306
 50
285.9033163154629733
 51
323.1455166135872901
  0
ARC
  5
1256F
  8
0
 10
4149.6001475737630244
 20
115.9280359041846964
 30
0.0
 40
0.0776133535901025
 50
272.200930866729891
 51
285.9033163154629733
  0
ARC
  5
12570
  8
0
 10
4149.6029071412949634
 20
115.8429999055100978
 30
0.0
 40
0.0588390670417243
 50
89.7846996910316335
 51
115.4130059146439038
  0
ARC
  5
12571
  8
0
 10
4149.5911869747224046
 20
115.867668065875506
 30
0.0
 40
0.0315282552578743
 50
115.4130059146443017
 51
143.0321108993925066
  0
ARC
  5
12572
  8
0
 10
4149.5785119068796121
 20
115.8772082819068032
 30
0.0
 40
0.0156640481642594
 50
143.0321108993925066
 51
180.1814775577348087
  0
ARC
  5
12573
  8
0
 10
4149.5816560878629389
 20
115.8772182407589071
 30
0.0
 40
0.0188082449188287
 50
180.1814775577354908
 51
216.8544836095296944
  0
ARC
  5
12574
  8
0
 10
4149.5943385270738872
 20
115.8867247401453966
 30
0.0
 40
0.0346580964927306
 50
216.854483609528387
 51
254.0966839076162103
  0
ARC
  5
12575
  8
0
 10
4149.6061089067234207
 20
115.9280359041963067
 30
0.0
 40
0.0776133535901025
 50
254.0966839076162103
 51
267.7990693563622244
  0
ARC
  5
12576
  8
0
 10
4149.7423525669710216
 20
115.8440158070189057
 30
0.0
 40
0.0588390670417243
 50
64.5869943085042451
 51
90.215300532053746
  0
ARC
  5
12577
  8
0
 10
4149.7540727334480835
 20
115.8686839674299023
 30
0.0
 40
0.0315282552578743
 50
36.9678893237300201
 51
64.5869943085042451
  0
ARC
  5
12578
  8
0
 10
4149.7667478012526772
 20
115.8782241835105964
 30
0.0
 40
0.0156640481642594
 50
359.8185226653836253
 51
36.9678893237306667
  0
ARC
  5
12579
  8
0
 10
4149.7636036202711693
 20
115.8782341423504931
 30
0.0
 40
0.0188082449188287
 50
323.1455166135860964
 51
359.8185226653827726
  0
ARC
  5
1257A
  8
0
 10
4149.7509211810220222
 20
115.8877406416875999
 30
0.0
 40
0.0346580964927306
 50
285.9033163154629733
 51
323.1455166135872901
  0
ARC
  5
1257B
  8
0
 10
4149.7391508012133272
 20
115.9290518056926942
 30
0.0
 40
0.0776133535901025
 50
272.200930866729891
 51
285.9033163154629733
  0
ARC
  5
1257C
  8
0
 10
4149.7419103687452662
 20
115.8440158070180956
 30
0.0
 40
0.0588390670417243
 50
89.7846996910316335
 51
115.4130059146439038
  0
ARC
  5
1257D
  8
0
 10
4149.7301902021727074
 20
115.8686839673834044
 30
0.0
 40
0.0315282552578743
 50
115.4130059146443017
 51
143.0321108993925066
  0
ARC
  5
1257E
  8
0
 10
4149.7175151343299149
 20
115.8782241834147015
 30
0.0
 40
0.0156640481642594
 50
143.0321108993925066
 51
180.1814775577348087
  0
ARC
  5
1257F
  8
0
 10
4149.7206593153141512
 20
115.8782341422668054
 30
0.0
 40
0.0188082449188287
 50
180.1814775577354908
 51
216.8544836095296944
  0
ARC
  5
12580
  8
0
 10
4149.73334175452419
 20
115.8877406416532949
 30
0.0
 40
0.0346580964927306
 50
216.854483609528387
 51
254.0966839076162103
  0
ARC
  5
12581
  8
0
 10
4149.7451121341719045
 20
115.9290518057043045
 30
0.0
 40
0.0776133535901025
 50
254.0966839076162103
 51
267.7990693563622244
  0
ARC
  5
12582
  8
0
 10
4149.8807736583057704
 20
115.846029614931993
 30
0.0
 40
0.0588390670417243
 50
64.5869943085042451
 51
90.215300532053746
  0
ARC
  5
12583
  8
0
 10
4149.8924938247828322
 20
115.8706977753430039
 30
0.0
 40
0.0315282552578743
 50
36.9678893237300201
 51
64.5869943085042451
  0
ARC
  5
12584
  8
0
 10
4149.9051688925874259
 20
115.8802379914235985
 30
0.0
 40
0.0156640481642594
 50
359.8185226653836253
 51
36.9678893237306667
  0
ARC
  5
12585
  8
0
 10
4149.9020247116040991
 20
115.8802479502633958
 30
0.0
 40
0.0188082449188287
 50
323.1455166135860964
 51
359.8185226653827726
  0
ARC
  5
12586
  8
0
 10
4149.889342272356771
 20
115.889754449600602
 30
0.0
 40
0.0346580964927306
 50
285.9033163154629733
 51
323.1455166135872901
  0
ARC
  5
12587
  8
0
 10
4149.877571892548076
 20
115.9310656136056963
 30
0.0
 40
0.0776133535901025
 50
272.200930866729891
 51
285.9033163154629733
  0
ARC
  5
12588
  8
0
 10
4149.8803314600800149
 20
115.8460296149310977
 30
0.0
 40
0.0588390670417243
 50
89.7846996910316335
 51
115.4130059146439038
  0
ARC
  5
12589
  8
0
 10
4149.8686112935065466
 20
115.8706977752965059
 30
0.0
 40
0.0315282552578743
 50
115.4130059146443017
 51
143.0321108993925066
  0
ARC
  5
1258A
  8
0
 10
4149.8559362256646637
 20
115.8802379913277036
 30
0.0
 40
0.0156640481642594
 50
143.0321108993925066
 51
180.1814775577348087
  0
ARC
  5
1258B
  8
0
 10
4149.8590804066479905
 20
115.8802479501797933
 30
0.0
 40
0.0188082449188287
 50
180.1814775577354908
 51
216.8544836095296944
  0
ARC
  5
1258C
  8
0
 10
4149.8717628458589388
 20
115.889754449566297
 30
0.0
 40
0.0346580964927306
 50
216.854483609528387
 51
254.0966839076162103
  0
ARC
  5
1258D
  8
0
 10
4149.8835332255075627
 20
115.9310656136173066
 30
0.0
 40
0.0776133535901025
 50
254.0966839076162103
 51
267.7990693563622244
  0
ARC
  5
1258E
  8
0
 10
4149.6726968831872
 20
115.9294421024731037
 30
0.0
 40
0.0588390670417243
 50
64.5869943085042451
 51
90.215300532053746
  0
ARC
  5
1258F
  8
0
 10
4149.6844170496633524
 20
115.9541102628841003
 30
0.0
 40
0.0315282552578743
 50
36.9678893237300201
 51
64.5869943085042451
  0
ARC
  5
12590
  8
0
 10
4149.6970921174679461
 20
115.9636504789646949
 30
0.0
 40
0.0156640481642594
 50
359.8185226653836253
 51
36.9678893237306667
  0
ARC
  5
12591
  8
0
 10
4149.6939479364837098
 20
115.9636604378046059
 30
0.0
 40
0.0188082449188287
 50
323.1455166135860964
 51
359.8185226653827726
  0
ARC
  5
12592
  8
0
 10
4149.6812654972372911
 20
115.9731669371416984
 30
0.0
 40
0.0346580964927306
 50
285.9033163154629733
 51
323.1455166135872901
  0
ARC
  5
12593
  8
0
 10
4149.6694951174276866
 20
116.0144781011468069
 30
0.0
 40
0.0776133535901025
 50
272.200930866729891
 51
285.9033163154629733
  0
ARC
  5
12594
  8
0
 10
4149.6722546849596256
 20
115.9294421024721942
 30
0.0
 40
0.0588390670417243
 50
89.7846996910316335
 51
115.4130059146439038
  0
ARC
  5
12595
  8
0
 10
4149.6605345183870668
 20
115.9541102628376024
 30
0.0
 40
0.0315282552578743
 50
115.4130059146443017
 51
143.0321108993925066
  0
ARC
  5
12596
  8
0
 10
4149.6478594505460933
 20
115.9636504788688995
 30
0.0
 40
0.0156640481642594
 50
143.0321108993925066
 51
180.1814775577348087
  0
ARC
  5
12597
  8
0
 10
4149.6510036315276011
 20
115.9636604377210034
 30
0.0
 40
0.0188082449188287
 50
180.1814775577354908
 51
216.8544836095296944
  0
ARC
  5
12598
  8
0
 10
4149.6636860707403685
 20
115.9731669371074929
 30
0.0
 40
0.0346580964927306
 50
216.854483609528387
 51
254.0966839076162103
  0
ARC
  5
12599
  8
0
 10
4149.6754564503871734
 20
116.014478101158403
 30
0.0
 40
0.0776133535901025
 50
254.0966839076162103
 51
267.7990693563622244
  0
ARC
  5
1259A
  8
0
 10
4149.5339757498759354
 20
115.9289376433929988
 30
0.0
 40
0.0588390670417243
 50
64.5869943085042451
 51
90.215300532053746
  0
ARC
  5
1259B
  8
0
 10
4149.5456959163511783
 20
115.9536058038039954
 30
0.0
 40
0.0315282552578743
 50
36.9678893237300201
 51
64.5869943085042451
  0
ARC
  5
1259C
  8
0
 10
4149.558370984155772
 20
115.9631460198847037
 30
0.0
 40
0.0156640481642594
 50
359.8185226653836253
 51
36.9678893237306667
  0
ARC
  5
1259D
  8
0
 10
4149.5552268031733547
 20
115.963155978724501
 30
0.0
 40
0.0188082449188287
 50
323.1455166135860964
 51
359.8185226653827726
  0
ARC
  5
1259E
  8
0
 10
4149.5425443639260266
 20
115.972662478061693
 30
0.0
 40
0.0346580964927306
 50
285.9033163154629733
 51
323.1455166135872901
  0
ARC
  5
1259F
  8
0
 10
4149.5307739841173316
 20
116.0139736420668015
 30
0.0
 40
0.0776133535901025
 50
272.200930866729891
 51
285.9033163154629733
  0
ARC
  5
125A0
  8
0
 10
4149.5335335516492705
 20
115.928937643392203
 30
0.0
 40
0.0588390670417243
 50
89.7846996910316335
 51
115.4130059146439038
  0
ARC
  5
125A1
  8
0
 10
4149.5218133850748927
 20
115.9536058037574975
 30
0.0
 40
0.0315282552578743
 50
115.4130059146443017
 51
143.0321108993925066
  0
ARC
  5
125A2
  8
0
 10
4149.5091383172348287
 20
115.9631460197887947
 30
0.0
 40
0.0156640481642594
 50
143.0321108993925066
 51
180.1814775577348087
  0
ARC
  5
125A3
  8
0
 10
4149.512282498217246
 20
115.9631559786408985
 30
0.0
 40
0.0188082449188287
 50
180.1814775577354908
 51
216.8544836095296944
  0
ARC
  5
125A4
  8
0
 10
4149.5249649374281944
 20
115.9726624780274022
 30
0.0
 40
0.0346580964927306
 50
216.854483609528387
 51
254.0966839076162103
  0
ARC
  5
125A5
  8
0
 10
4149.5367353170759088
 20
116.0139736420783976
 30
0.0
 40
0.0776133535901025
 50
254.0966839076162103
 51
267.7990693563622244
  0
ARC
  5
125A6
  8
0
 10
4149.533975749775891
 20
115.7584775164931017
 30
0.0
 40
0.0588390670417243
 50
64.5869943085042451
 51
90.215300532053746
  0
ARC
  5
125A7
  8
0
 10
4149.5456959162520434
 20
115.7831456769039988
 30
0.0
 40
0.0315282552578743
 50
36.9678893237300201
 51
64.5869943085042451
  0
ARC
  5
125A8
  8
0
 10
4149.5583709840548181
 20
115.7926858929846929
 30
0.0
 40
0.0156640481642594
 50
359.8185226653836253
 51
36.9678893237306667
  0
ARC
  5
125A9
  8
0
 10
4149.5552268030733103
 20
115.7926958518245044
 30
0.0
 40
0.0188082449188287
 50
323.1455166135860964
 51
359.8185226653827726
  0
ARC
  5
125AA
  8
0
 10
4149.5425443638259821
 20
115.802202351161597
 30
0.0
 40
0.0346580964927306
 50
285.9033163154629733
 51
323.1455166135872901
  0
ARC
  5
125AB
  8
0
 10
4149.5307739840172871
 20
115.843513515166805
 30
0.0
 40
0.0776133535901025
 50
272.200930866729891
 51
285.9033163154629733
  0
ARC
  5
125AC
  8
0
 10
4149.5335335515483166
 20
115.7584775164922064
 30
0.0
 40
0.0588390670417243
 50
89.7846996910316335
 51
115.4130059146439038
  0
ARC
  5
125AD
  8
0
 10
4149.5218133849757578
 20
115.7831456768575009
 30
0.0
 40
0.0315282552578743
 50
115.4130059146443017
 51
143.0321108993925066
  0
ARC
  5
125AE
  8
0
 10
4149.5091383171338748
 20
115.7926858928887981
 30
0.0
 40
0.0156640481642594
 50
143.0321108993925066
 51
180.1814775577348087
  0
ARC
  5
125AF
  8
0
 10
4149.5122824981172016
 20
115.792695851740902
 30
0.0
 40
0.0188082449188287
 50
180.1814775577354908
 51
216.8544836095296944
  0
ARC
  5
125B0
  8
0
 10
4149.52496493732815
 20
115.8022023511274057
 30
0.0
 40
0.0346580964927306
 50
216.854483609528387
 51
254.0966839076162103
  0
ARC
  5
125B1
  8
0
 10
4149.5367353169758644
 20
115.843513515178401
 30
0.0
 40
0.0776133535901025
 50
254.0966839076162103
 51
267.7990693563622244
  0
ARC
  5
125B2
  8
0
 10
4149.5339757492747594
 20
115.5912078619929986
 30
0.0
 40
0.0588390670417243
 50
64.5869943085042451
 51
90.215300532053746
  0
ARC
  5
125B3
  8
0
 10
4149.5456959157518213
 20
115.6158760224039952
 30
0.0
 40
0.0315282552578743
 50
36.9678893237300201
 51
64.5869943085042451
  0
ARC
  5
125B4
  8
0
 10
4149.558370983556415
 20
115.6254162384847035
 30
0.0
 40
0.0156640481642594
 50
359.8185226653836253
 51
36.9678893237306667
  0
ARC
  5
125B5
  8
0
 10
4149.5552268025730882
 20
115.6254261973245008
 30
0.0
 40
0.0188082449188287
 50
323.1455166135860964
 51
359.8185226653827726
  0
ARC
  5
125B6
  8
0
 10
4149.5425443633257601
 20
115.6349326966615934
 30
0.0
 40
0.0346580964927306
 50
285.9033163154629733
 51
323.1455166135872901
  0
ARC
  5
125B7
  8
0
 10
4149.5307739835161556
 20
115.6762438606668013
 30
0.0
 40
0.0776133535901025
 50
272.200930866729891
 51
285.9033163154629733
  0
ARC
  5
125B8
  8
0
 10
4149.5335335510480945
 20
115.5912078619922028
 30
0.0
 40
0.0588390670417243
 50
89.7846996910316335
 51
115.4130059146439038
  0
ARC
  5
125B9
  8
0
 10
4149.5218133844773547
 20
115.6158760223574973
 30
0.0
 40
0.0315282552578743
 50
115.4130059146443017
 51
143.0321108993925066
  0
ARC
  5
125BA
  8
0
 10
4149.5091383166336527
 20
115.6254162383887945
 30
0.0
 40
0.0156640481642594
 50
143.0321108993925066
 51
180.1814775577348087
  0
ARC
  5
125BB
  8
0
 10
4149.5122824976169795
 20
115.6254261972408983
 30
0.0
 40
0.0188082449188287
 50
180.1814775577354908
 51
216.8544836095296944
  0
ARC
  5
125BC
  8
0
 10
4149.5249649368279279
 20
115.634932696627402
 30
0.0
 40
0.0346580964927306
 50
216.854483609528387
 51
254.0966839076162103
  0
ARC
  5
125BD
  8
0
 10
4149.5367353164756423
 20
115.6762438606783974
 30
0.0
 40
0.0776133535901025
 50
254.0966839076162103
 51
267.7990693563622244
  0
ARC
  5
125BE
  8
0
 10
4149.6033447357467594
 20
115.674143767497398
 30
0.0
 40
0.0588390670417243
 50
64.5869943085042451
 51
90.215300532053746
  0
ARC
  5
125BF
  8
0
 10
4149.6150649022229118
 20
115.6988119279083946
 30
0.0
 40
0.0315282552578743
 50
36.9678893237300201
 51
64.5869943085042451
  0
ARC
  5
125C0
  8
0
 10
4149.627739970028415
 20
115.7083521439890035
 30
0.0
 40
0.0156640481642594
 50
359.8185226653836253
 51
36.9678893237306667
  0
ARC
  5
125C1
  8
0
 10
4149.6245957890441787
 20
115.7083621028288007
 30
0.0
 40
0.0188082449188287
 50
323.1455166135860964
 51
359.8185226653827726
  0
ARC
  5
125C2
  8
0
 10
4149.611913349795941
 20
115.717868602166007
 30
0.0
 40
0.0346580964927306
 50
285.9033163154629733
 51
323.1455166135872901
  0
ARC
  5
125C3
  8
0
 10
4149.6001429699881555
 20
115.7591797661711013
 30
0.0
 40
0.0776133535901025
 50
272.200930866729891
 51
285.9033163154629733
  0
ARC
  5
125C4
  8
0
 10
4149.602902537519185
 20
115.6741437674965027
 30
0.0
 40
0.0588390670417243
 50
89.7846996910316335
 51
115.4130059146439038
  0
ARC
  5
125C5
  8
0
 10
4149.5911823709466262
 20
115.6988119278618967
 30
0.0
 40
0.0315282552578743
 50
115.4130059146443017
 51
143.0321108993925066
  0
ARC
  5
125C6
  8
0
 10
4149.5785073031056527
 20
115.7083521438930944
 30
0.0
 40
0.0156640481642594
 50
143.0321108993925066
 51
180.1814775577348087
  0
ARC
  5
125C7
  8
0
 10
4149.5816514840889795
 20
115.7083621027451983
 30
0.0
 40
0.0188082449188287
 50
180.1814775577354908
 51
216.8544836095296944
  0
ARC
  5
125C8
  8
0
 10
4149.5943339232990184
 20
115.717868602131702
 30
0.0
 40
0.0346580964927306
 50
216.854483609528387
 51
254.0966839076162103
  0
ARC
  5
125C9
  8
0
 10
4149.6061043029467328
 20
115.7591797661826973
 30
0.0
 40
0.0776133535901025
 50
254.0966839076162103
 51
267.7990693563622244
  0
ARC
  5
125CA
  8
0
 10
4149.6727226729635731
 20
115.5917131814073997
 30
0.0
 40
0.0588390670417243
 50
64.5869943085042451
 51
90.215300532053746
  0
ARC
  5
125CB
  8
0
 10
4149.6844428394397255
 20
115.6163813418183963
 30
0.0
 40
0.0315282552578743
 50
36.9678893237300201
 51
64.5869943085042451
  0
ARC
  5
125CC
  8
0
 10
4149.6971179072452287
 20
115.6259215578991046
 30
0.0
 40
0.0156640481642594
 50
359.8185226653836253
 51
36.9678893237306667
  0
ARC
  5
125CD
  8
0
 10
4149.6939737262619019
 20
115.6259315167389019
 30
0.0
 40
0.0188082449188287
 50
323.1455166135860964
 51
359.8185226653827726
  0
ARC
  5
125CE
  8
0
 10
4149.6812912870145738
 20
115.6354380160759945
 30
0.0
 40
0.0346580964927306
 50
285.9033163154629733
 51
323.1455166135872901
  0
ARC
  5
125CF
  8
0
 10
4149.6695209072049693
 20
115.676749180081103
 30
0.0
 40
0.0776133535901025
 50
272.200930866729891
 51
285.9033163154629733
  0
ARC
  5
125D0
  8
0
 10
4149.6722804747369082
 20
115.5917131814066039
 30
0.0
 40
0.0588390670417243
 50
89.7846996910316335
 51
115.4130059146439038
  0
ARC
  5
125D1
  8
0
 10
4149.6605603081652589
 20
115.6163813417718984
 30
0.0
 40
0.0315282552578743
 50
115.4130059146443017
 51
143.0321108993925066
  0
ARC
  5
125D2
  8
0
 10
4149.6478852403233759
 20
115.6259215578031956
 30
0.0
 40
0.0156640481642594
 50
143.0321108993925066
 51
180.1814775577348087
  0
ARC
  5
125D3
  8
0
 10
4149.6510294213048837
 20
115.6259315166552994
 30
0.0
 40
0.0188082449188287
 50
180.1814775577354908
 51
216.8544836095296944
  0
ARC
  5
125D4
  8
0
 10
4149.6637118605167416
 20
115.6354380160418032
 30
0.0
 40
0.0346580964927306
 50
216.854483609528387
 51
254.0966839076162103
  0
ARC
  5
125D5
  8
0
 10
4149.6754822401653655
 20
115.6767491800927985
 30
0.0
 40
0.0776133535901025
 50
254.0966839076162103
 51
267.7990693563622244
  0
ARC
  5
125D6
  8
0
 10
4149.811449466628801
 20
115.590481700452699
 30
0.0
 40
0.0588390670417243
 50
64.5869943085042451
 51
90.215300532053746
  0
ARC
  5
125D7
  8
0
 10
4149.8231696331058629
 20
115.6151498608636956
 30
0.0
 40
0.0315282552578743
 50
36.9678893237300201
 51
64.5869943085042451
  0
ARC
  5
125D8
  8
0
 10
4149.8358447009095471
 20
115.6246900769444039
 30
0.0
 40
0.0156640481642594
 50
359.8185226653836253
 51
36.9678893237306667
  0
ARC
  5
125D9
  8
0
 10
4149.8327005199271298
 20
115.6247000357842012
 30
0.0
 40
0.0188082449188287
 50
323.1455166135860964
 51
359.8185226653827726
  0
ARC
  5
125DA
  8
0
 10
4149.8200180806798016
 20
115.6342065351212938
 30
0.0
 40
0.0346580964927306
 50
285.9033163154629733
 51
323.1455166135872901
  0
ARC
  5
125DB
  8
0
 10
4149.8082477008711066
 20
115.6755176991265017
 30
0.0
 40
0.0776133535901025
 50
272.200930866729891
 51
285.9033163154629733
  0
ARC
  5
125DC
  8
0
 10
4149.8110072684030456
 20
115.5904817004519032
 30
0.0
 40
0.0588390670417243
 50
89.7846996910316335
 51
115.4130059146439038
  0
ARC
  5
125DD
  8
0
 10
4149.7992871018295773
 20
115.6151498608171977
 30
0.0
 40
0.0315282552578743
 50
115.4130059146443017
 51
143.0321108993925066
  0
ARC
  5
125DE
  8
0
 10
4149.7866120339876943
 20
115.6246900768484949
 30
0.0
 40
0.0156640481642594
 50
143.0321108993925066
 51
180.1814775577348087
  0
ARC
  5
125DF
  8
0
 10
4149.7897562149710211
 20
115.6247000357005987
 30
0.0
 40
0.0188082449188287
 50
180.1814775577354908
 51
216.8544836095296944
  0
ARC
  5
125E0
  8
0
 10
4149.8024386541819695
 20
115.6342065350871025
 30
0.0
 40
0.0346580964927306
 50
216.854483609528387
 51
254.0966839076162103
  0
ARC
  5
125E1
  8
0
 10
4149.8142090338296839
 20
115.6755176991380978
 30
0.0
 40
0.0776133535901025
 50
254.0966839076162103
 51
267.7990693563622244
  0
ARC
  5
125E2
  8
0
 10
4149.7439881622549365
 20
115.6778583313859059
 30
0.0
 40
0.0588390670417243
 50
64.5869943085042451
 51
90.215300532053746
  0
ARC
  5
125E3
  8
0
 10
4149.7557083287319983
 20
115.7025264917969025
 30
0.0
 40
0.0315282552578743
 50
36.9678893237300201
 51
64.5869943085042451
  0
ARC
  5
125E4
  8
0
 10
4149.7683833965356826
 20
115.7120667078774972
 30
0.0
 40
0.0156640481642594
 50
359.8185226653836253
 51
36.9678893237306667
  0
ARC
  5
125E5
  8
0
 10
4149.7652392155532652
 20
115.7120766667173939
 30
0.0
 40
0.0188082449188287
 50
323.1455166135860964
 51
359.8185226653827726
  0
ARC
  5
125E6
  8
0
 10
4149.7525567763059371
 20
115.7215831660545007
 30
0.0
 40
0.0346580964927306
 50
285.9033163154629733
 51
323.1455166135872901
  0
ARC
  5
125E7
  8
0
 10
4149.7407863964963326
 20
115.7628943300595949
 30
0.0
 40
0.0776133535901025
 50
272.200930866729891
 51
285.9033163154629733
  0
ARC
  5
125E8
  8
0
 10
4149.7435459640282716
 20
115.6778583313849964
 30
0.0
 40
0.0588390670417243
 50
89.7846996910316335
 51
115.4130059146439038
  0
ARC
  5
125E9
  8
0
 10
4149.7318257974548033
 20
115.7025264917504046
 30
0.0
 40
0.0315282552578743
 50
115.4130059146443017
 51
143.0321108993925066
  0
ARC
  5
125EA
  8
0
 10
4149.7191507296147392
 20
115.7120667077817018
 30
0.0
 40
0.0156640481642594
 50
143.0321108993925066
 51
180.1814775577348087
  0
ARC
  5
125EB
  8
0
 10
4149.7222949105971566
 20
115.7120766666338056
 30
0.0
 40
0.0188082449188287
 50
180.1814775577354908
 51
216.8544836095296944
  0
ARC
  5
125EC
  8
0
 10
4149.7349773498071954
 20
115.7215831660202952
 30
0.0
 40
0.0346580964927306
 50
216.854483609528387
 51
254.0966839076162103
  0
ARC
  5
125ED
  8
0
 10
4149.7467477294549099
 20
115.7628943300712052
 30
0.0
 40
0.0776133535901025
 50
254.0966839076162103
 51
267.7990693563622244
  0
ARC
  5
125EE
  8
0
 10
4149.880795167126962
 20
115.6744508243956062
 30
0.0
 40
0.0588390670417243
 50
64.5869943085042451
 51
90.215300532053746
  0
ARC
  5
125EF
  8
0
 10
4149.8925153336031144
 20
115.6991189848066028
 30
0.0
 40
0.0315282552578743
 50
36.9678893237300201
 51
64.5869943085042451
  0
ARC
  5
125F0
  8
0
 10
4149.9051904014067986
 20
115.7086592008871975
 30
0.0
 40
0.0156640481642594
 50
359.8185226653836253
 51
36.9678893237306667
  0
ARC
  5
125F1
  8
0
 10
4149.9020462204243813
 20
115.7086691597270942
 30
0.0
 40
0.0188082449188287
 50
323.1455166135860964
 51
359.8185226653827726
  0
ARC
  5
125F2
  8
0
 10
4149.8893637811761437
 20
115.718175659064201
 30
0.0
 40
0.0346580964927306
 50
285.9033163154629733
 51
323.1455166135872901
  0
ARC
  5
125F3
  8
0
 10
4149.8775934013683582
 20
115.7594868230692953
 30
0.0
 40
0.0776133535901025
 50
272.200930866729891
 51
285.9033163154629733
  0
ARC
  5
125F4
  8
0
 10
4149.8803529688993876
 20
115.6744508243946967
 30
0.0
 40
0.0588390670417243
 50
89.7846996910316335
 51
115.4130059146439038
  0
ARC
  5
125F5
  8
0
 10
4149.8686328023268288
 20
115.6991189847601049
 30
0.0
 40
0.0315282552578743
 50
115.4130059146443017
 51
143.0321108993925066
  0
ARC
  5
125F6
  8
0
 10
4149.8559577344858553
 20
115.7086592007914021
 30
0.0
 40
0.0156640481642594
 50
143.0321108993925066
 51
180.1814775577348087
  0
ARC
  5
125F7
  8
0
 10
4149.8591019154700916
 20
115.708669159643506
 30
0.0
 40
0.0188082449188287
 50
180.1814775577354908
 51
216.8544836095296944
  0
ARC
  5
125F8
  8
0
 10
4149.871784354679221
 20
115.7181756590299955
 30
0.0
 40
0.0346580964927306
 50
216.854483609528387
 51
254.0966839076162103
  0
ARC
  5
125F9
  8
0
 10
4149.8835547343260259
 20
115.7594868230809055
 30
0.0
 40
0.0776133535901025
 50
254.0966839076162103
 51
267.7990693563622244
  0
ARC
  5
125FA
  8
0
 10
4149.9501697058367427
 20
115.5902587762120959
 30
0.0
 40
0.0588390670417243
 50
64.5869943085042451
 51
90.215300532053746
  0
ARC
  5
125FB
  8
0
 10
4149.9618898723119855
 20
115.6149269366231067
 30
0.0
 40
0.0315282552578743
 50
36.9678893237300201
 51
64.5869943085042451
  0
ARC
  5
125FC
  8
0
 10
4149.9745649401183982
 20
115.6244671527037013
 30
0.0
 40
0.0156640481642594
 50
359.8185226653836253
 51
36.9678893237306667
  0
ARC
  5
125FD
  8
0
 10
4149.9714207591350714
 20
115.6244771115435981
 30
0.0
 40
0.0188082449188287
 50
323.1455166135860964
 51
359.8185226653827726
  0
ARC
  5
125FE
  8
0
 10
4149.9587383198868338
 20
115.6339836108807049
 30
0.0
 40
0.0346580964927306
 50
285.9033163154629733
 51
323.1455166135872901
  0
ARC
  5
125FF
  8
0
 10
4149.9469679400781388
 20
115.6752947748857991
 30
0.0
 40
0.0776133535901025
 50
272.200930866729891
 51
285.9033163154629733
  0
ARC
  5
12600
  8
0
 10
4149.9497275076100777
 20
115.5902587762112006
 30
0.0
 40
0.0588390670417243
 50
89.7846996910316335
 51
115.4130059146439038
  0
ARC
  5
12601
  8
0
 10
4149.9380073410366094
 20
115.6149269365765946
 30
0.0
 40
0.0315282552578743
 50
115.4130059146443017
 51
143.0321108993925066
  0
ARC
  5
12602
  8
0
 10
4149.9253322731965454
 20
115.624467152607906
 30
0.0
 40
0.0156640481642594
 50
143.0321108993925066
 51
180.1814775577348087
  0
ARC
  5
12603
  8
0
 10
4149.9284764541789627
 20
115.6244771114599956
 30
0.0
 40
0.0188082449188287
 50
180.1814775577354908
 51
216.8544836095296944
  0
ARC
  5
12604
  8
0
 10
4149.9411588933899111
 20
115.6339836108464993
 30
0.0
 40
0.0346580964927306
 50
216.854483609528387
 51
254.0966839076162103
  0
ARC
  5
12605
  8
0
 10
4149.952929273036716
 20
115.6752947748973952
 30
0.0
 40
0.0776133535901025
 50
254.0966839076162103
 51
267.7990693563622244
  0
ARC
  5
12606
  8
0
 10
4149.6021751690414021
 20
115.1703784743046981
 30
0.0
 40
0.0588390670417243
 50
64.5869943085042451
 51
90.215300532053746
  0
ARC
  5
12607
  8
0
 10
4149.6138953355175545
 20
115.1950466347156947
 30
0.0
 40
0.0315282552578743
 50
36.9678893237300201
 51
64.5869943085042451
  0
ARC
  5
12608
  8
0
 10
4149.6265704033221482
 20
115.2045868507963036
 30
0.0
 40
0.0156640481642594
 50
359.8185226653836253
 51
36.9678893237306667
  0
ARC
  5
12609
  8
0
 10
4149.6234262223388214
 20
115.2045968096362003
 30
0.0
 40
0.0188082449188287
 50
323.1455166135860964
 51
359.8185226653827726
  0
ARC
  5
1260A
  8
0
 10
4149.6107437830924027
 20
115.2141033089733071
 30
0.0
 40
0.0346580964927306
 50
285.9033163154629733
 51
323.1455166135872901
  0
ARC
  5
1260B
  8
0
 10
4149.5989734032818887
 20
115.2554144729784014
 30
0.0
 40
0.0776133535901025
 50
272.200930866729891
 51
285.9033163154629733
  0
ARC
  5
1260C
  8
0
 10
4149.6017329708138277
 20
115.1703784743038028
 30
0.0
 40
0.0588390670417243
 50
89.7846996910316335
 51
115.4130059146439038
  0
ARC
  5
1260D
  8
0
 10
4149.5900128042421784
 20
115.1950466346691968
 30
0.0
 40
0.0315282552578743
 50
115.4130059146443017
 51
143.0321108993925066
  0
ARC
  5
1260E
  8
0
 10
4149.5773377364002954
 20
115.2045868507003945
 30
0.0
 40
0.0156640481642594
 50
143.0321108993925066
 51
180.1814775577348087
  0
ARC
  5
1260F
  8
0
 10
4149.5804819173827127
 20
115.2045968095525978
 30
0.0
 40
0.0188082449188287
 50
180.1814775577354908
 51
216.8544836095296944
  0
ARC
  5
12610
  8
0
 10
4149.5931643565936611
 20
115.2141033089391016
 30
0.0
 40
0.0346580964927306
 50
216.854483609528387
 51
254.0966839076162103
  0
ARC
  5
12611
  8
0
 10
4149.6049347362413755
 20
115.2554144729899974
 30
0.0
 40
0.0776133535901025
 50
254.0966839076162103
 51
267.7990693563622244
  0
LINE
  5
12612
  8
0
 10
4149.5337546492155525
 20
118.9607364122658026
 30
0.0
 11
4151.3679247444533758
 21
120.3860960958455024
 31
0.0
  0
ATTDEF
  5
12613
  8
DEFPOINTS
 10
4149.5303393869908177
 20
118.9647814865797955
 30
0.0
 40
0.001
  1
K-9245T
  3

  2
MODELNUMBER
 70
     0
1001
ACDBATTR
1070
     0
1070
     1
  0
ATTDEF
  5
12614
  8
DEFPOINTS
 10
4149.5303393869908177
 20
118.9631148199131019
 30
0.0
 40
0.001
  1
MOXIE
  3

  2
TRADENAME
 70
     0
1001
ACDBATTR
1070
     0
1070
     1
  0
ATTDEF
  5
12615
  8
DEFPOINTS
 10
4149.5303393869908177
 20
118.9614481532463941
 30
0.0
 40
0.001
  1
SHOWERHEAD
  3

  2
PRODUCT
 70
     0
1001
ACDBATTR
1070
     0
1070
     1
  0
ENDSEC
  0
EOF
