  0
SECTION
  2
HEADER
  9
$ACADVER
  1
AC1009
  9
$INSBASE
 10
-28.3814085814437504
 20
-86.2583110690008112
 30
0.0
  9
$EXTMIN
 10
-61.8482802593143504
 20
-86.26016568008788
 30
-0.0015258207003583
  9
$EXTMAX
 10
5.0858985474899612
 20
-67.6035366478379842
 30
0.0000000349246037
  9
$LIMMIN
 10
0.0
 20
0.0
  9
$LIMMAX
 10
11.6929133858000007
 20
8.2677165353999982
  9
$ORTHOMODE
 70
     0
  9
$REGENMODE
 70
     1
  9
$FILLMODE
 70
     1
  9
$QTEXTMODE
 70
     0
  9
$MIRRTEXT
 70
     0
  9
$DRAGMODE
 70
     2
  9
$LTSCALE
 40
0.6431102362
  9
$OSMODE
 70
  4095
  9
$ATTMODE
 70
     1
  9
$TEXTSIZE
 40
0.2
  9
$TRACEWID
 40
0.05
  9
$TEXTSTYLE
  7
STANDARD
  9
$CLAYER
  8
0
  9
$CELTYPE
  6
BYLAYER
  9
$CECOLOR
 62
   256
  9
$DIMSCALE
 40
1.0
  9
$DIMASZ
 40
0.1875
  9
$DIMEXO
 40
0.0625
  9
$DIMDLI
 40
0.4443307087
  9
$DIMRND
 40
0.0
  9
$DIMDLE
 40
0.0
  9
$DIMEXE
 40
0.125
  9
$DIMTP
 40
0.01
  9
$DIMTM
 40
0.01
  9
$DIMTXT
 40
1.0
  9
$DIMCEN
 40
0.1052362205
  9
$DIMTSZ
 40
0.0
  9
$DIMTOL
 70
     1
  9
$DIMLIM
 70
     0
  9
$DIMTIH
 70
     1
  9
$DIMTOH
 70
     1
  9
$DIMSE1
 70
     0
  9
$DIMSE2
 70
     0
  9
$DIMTAD
 70
     0
  9
$DIMZIN
 70
     0
  9
$DIMBLK
  1

  9
$DIMASO
 70
     1
  9
$DIMSHO
 70
     1
  9
$DIMPOST
  1
\X
  9
$DIMAPOST
  1

  9
$DIMALT
 70
     1
  9
$DIMALTD
 70
     2
  9
$DIMALTF
 40
25.3999999999999986
  9
$DIMLFAC
 40
1.0
  9
$DIMTOFL
 70
     0
  9
$DIMTVP
 40
0.0
  9
$DIMTIX
 70
     0
  9
$DIMSOXD
 70
     0
  9
$DIMSAH
 70
     0
  9
$DIMBLK1
  1

  9
$DIMBLK2
  1

  9
$DIMSTYLE
  2
STANDARD
  9
$DIMCLRD
 70
     0
  9
$DIMCLRE
 70
     0
  9
$DIMCLRT
 70
     0
  9
$DIMTFAC
 40
1.0
  9
$DIMGAP
 40
0.09
  9
$LUNITS
 70
     2
  9
$LUPREC
 70
     4
  9
$SKETCHINC
 40
0.1
  9
$FILLETRAD
 40
0.0
  9
$AUNITS
 70
     0
  9
$AUPREC
 70
     0
  9
$MENU
  1
.
  9
$ELEVATION
 40
0.0
  9
$PELEVATION
 40
0.0
  9
$THICKNESS
 40
0.0
  9
$LIMCHECK
 70
     0
  9
$BLIPMODE
 70
     0
  9
$CHAMFERA
 40
0.0
  9
$CHAMFERB
 40
0.0
  9
$SKPOLY
 70
     0
  9
$TDCREATE
 40
2458172.4620254631154239
  9
$TDUPDATE
 40
2459112.3833449077792466
  9
$TDINDWG
 40
0.1633161227
  9
$TDUSRTIMER
 40
0.1633161227
  9
$USRTIMER
 70
     1
  9
$ANGBASE
 50
0.0
  9
$ANGDIR
 70
     0
  9
$PDMODE
 70
     0
  9
$PDSIZE
 40
0.3125
  9
$PLINEWID
 40
0.0
  9
$COORDS
 70
     1
  9
$SPLFRAME
 70
     0
  9
$SPLINETYPE
 70
     6
  9
$SPLINESEGS
 70
     8
  9
$ATTDIA
 70
     1
  9
$ATTREQ
 70
     1
  9
$HANDLING
 70
     1
  9
$HANDSEED
  5
A6CD
  9
$SURFTAB1
 70
     6
  9
$SURFTAB2
 70
     6
  9
$SURFTYPE
 70
     6
  9
$SURFU
 70
     6
  9
$SURFV
 70
     6
  9
$UCSNAME
  2

  9
$UCSORG
 10
0.0
 20
0.0
 30
0.0
  9
$UCSXDIR
 10
1.0
 20
0.0
 30
0.0
  9
$UCSYDIR
 10
0.0
 20
1.0
 30
0.0
  9
$PUCSNAME
  2

  9
$PUCSORG
 10
0.0
 20
0.0
 30
0.0
  9
$PUCSXDIR
 10
1.0
 20
0.0
 30
0.0
  9
$PUCSYDIR
 10
0.0
 20
1.0
 30
0.0
  9
$USERI1
 70
     0
  9
$USERI2
 70
     0
  9
$USERI3
 70
     0
  9
$USERI4
 70
     0
  9
$USERI5
 70
     0
  9
$USERR1
 40
0.0
  9
$USERR2
 40
0.0
  9
$USERR3
 40
0.0
  9
$USERR4
 40
0.0
  9
$USERR5
 40
0.0
  9
$WORLDVIEW
 70
     1
  9
$SHADEDGE
 70
     3
  9
$SHADEDIF
 70
    70
  9
$TILEMODE
 70
     1
  9
$MAXACTVP
 70
    64
  9
$PLIMCHECK
 70
     0
  9
$PEXTMIN
 10
1.0000000000000000E+20
 20
1.0000000000000000E+20
 30
1.0000000000000000E+20
  9
$PEXTMAX
 10
-1.0000000000000000E+20
 20
-1.0000000000000000E+20
 30
-1.0000000000000000E+20
  9
$PLIMMIN
 10
0.0
 20
0.0
  9
$PLIMMAX
 10
12.0
 20
9.0
  9
$UNITMODE
 70
     0
  9
$VISRETAIN
 70
     1
  9
$PLINEGEN
 70
     0
  9
$PSLTSCALE
 70
     1
  0
ENDSEC
  0
SECTION
  2
TABLES
  0
TABLE
  2
VPORT
 70
     1
  0
VPORT
  2
*ACTIVE
 70
     0
 10
0.0
 20
0.0
 11
1.0
 21
1.0
 12
-152.9923494559847938
 22
-82.2441253343407368
 13
0.0
 23
0.0
 14
1.0
 24
1.0
 15
0.0
 25
0.0
 16
0.0
 26
0.0
 36
30.6214257250603907
 17
124.6111586000725993
 27
5.3122741703778242
 37
0.0
 40
25.35082694900672
 41
2.6486111111111108
 42
50.0
 43
0.0
 44
0.0
 50
0.0
 51
0.0
 71
     0
 72
   100
 73
     1
 74
     1
 75
     0
 76
     0
 77
     0
 78
     0
  0
ENDTAB
  0
TABLE
  2
LTYPE
 70
     2
  0
LTYPE
  2
CONTINUOUS
 70
     0
  3
Solid line
 72
    65
 73
     0
 40
0.0
  0
LTYPE
  2
PHANTOM2
 70
     0
  3
___ _ _ ___ _ _ ___ _ _ ___ _ _
 72
    65
 73
     6
 40
1.25
 49
0.625
 49
-0.125
 49
0.125
 49
-0.125
 49
0.125
 49
-0.125
  0
ENDTAB
  0
TABLE
  2
LAYER
 70
     2
  0
LAYER
  2
0
 70
     0
 62
   255
  6
CONTINUOUS
  0
LAYER
  2
DEFPOINTS
 70
     0
 62
     7
  6
CONTINUOUS
  0
ENDTAB
  0
TABLE
  2
STYLE
 70
     1
  0
STYLE
  2
STANDARD
 70
     0
 40
0.0
 41
0.8
 50
0.0
 71
     0
 42
0.2
  3
txt
  4

  0
ENDTAB
  0
TABLE
  2
VIEW
 70
     0
  0
ENDTAB
  0
TABLE
  2
UCS
 70
     0
  0
ENDTAB
  0
TABLE
  2
APPID
 70
     9
  0
APPID
  2
ACAD
 70
     0
  0
APPID
  2
ACAD_MLEADERVER
 70
     0
  0
APPID
  2
ACAD_EXEMPT_FROM_CAD_STANDARDS
 70
     0
  0
APPID
  2
ACAD_DSTYLE_DIMJAG
 70
     0
  0
APPID
  2
ACAD_DSTYLE_DIMTALN
 70
     0
  0
APPID
  2
ACAD_NAV_VCDISPLAY
 70
     0
  0
APPID
  2
ACAECLAYERSTANDARD
 70
     0
  0
APPID
  2
ACCMTRANSPARENCY
 70
     0
  0
APPID
  2
ACDBATTR
 70
     0
  0
ENDTAB
  0
TABLE
  2
DIMSTYLE
 70
     1
  0
DIMSTYLE
  2
STANDARD
 70
     0
  3

  4

  5

  6

  7

 40
1.0
 41
0.1875
 42
0.0625
 43
0.38
 44
0.125
 45
0.0
 46
0.0
 47
0.01
 48
0.01
140
0.15625
141
0.09
142
0.0
143
25.3999999999999986
144
1.0
145
0.0
146
1.0
147
0.09
 71
     1
 72
     0
 73
     1
 74
     1
 75
     0
 76
     0
 77
     0
 78
     4
170
     0
171
     2
172
     0
173
     0
174
     0
175
     0
176
     0
177
     0
178
     0
  0
ENDTAB
  0
ENDSEC
  0
SECTION
  2
BLOCKS
  0
BLOCK
  8
0
  2
$MODEL_SPACE
 70
     0
 10
0.0
 20
0.0
 30
0.0
  3
$MODEL_SPACE
  1

  0
ENDBLK
  5
21
  8
0
  0
BLOCK
 67
     1
  8
0
  2
$PAPER_SPACE
 70
     0
 10
0.0
 20
0.0
 30
0.0
  3
$PAPER_SPACE
  1

  0
ENDBLK
  5
1D
 67
     1
  8
0
  0
BLOCK
  8
0
  2
_FILLED
 70
     0
 10
0.0
 20
0.0
 30
0.0
  3
_FILLED
  1

  0
SOLID
  5
9844
  8
0
  6
BYBLOCK
 62
     0
 10
0.0
 20
0.0
 30
0.0
 11
-1.0
 21
0.1666666667
 31
0.0
 12
-1.0
 22
-0.1666666667
 32
0.0
 13
-1.0
 23
-0.1666666667
 33
0.0
  0
ENDBLK
  5
9845
  8
0
  6
BYBLOCK
 62
     0
  0
ENDSEC
  0
SECTION
  2
ENTITIES
  0
ATTDEF
  5
9A0E
  8
DEFPOINTS
 10
-28.3808351602730902
 20
-86.2539478928303964
 30
0.0
 40
0.001
  1
K-9286T
  3

  2
MODELNUMBER
 70
     0
1001
ACDBATTR
1070
     0
1070
     1
  0
ATTDEF
  5
9A0F
  8
DEFPOINTS
 10
-28.3808351602730902
 20
-86.2556145594970474
 30
0.0
 40
0.001
  1
LOVEE
  3

  2
TRADENAME
 70
     0
1001
ACDBATTR
1070
     0
1070
     1
  0
ATTDEF
  5
9A10
  8
DEFPOINTS
 10
-28.3808351602730902
 20
-86.2572812261637267
 30
0.0
 40
0.001
  1
BATH
  3

  2
PRODUCT
 70
     0
1001
ACDBATTR
1070
     0
1070
     1
  0
LINE
  5
A25D
  8
0
 10
-61.4736718834437497
 20
-67.6058529781008133
 30
0.0
 11
4.7108547205562408
 21
-67.6058529781008133
 31
0.0
  0
LINE
  5
A25E
  8
0
 10
-61.8460154281404684
 20
-68.974846502100803
 30
0.0
 11
-61.7482137293437532
 21
-67.8574242301008042
 31
0.0
  0
ARC
  5
A25F
  8
0
 10
-61.4736718834044993
 20
-67.8814435292910048
 30
0.0
 40
0.2755905511902019
 50
90.0000000081601286
 51
174.9999999985444958
  0
LINE
  5
A260
  8
0
 10
-61.8460154281404684
 20
-68.974846502100803
 30
0.0
 11
5.0831982652751071
 21
-68.974846502100803
 31
0.0
  0
LINE
  5
A261
  8
0
 10
5.0831982652751071
 20
-68.974846502100803
 30
0.0
 11
4.9853965665062807
 21
-67.8574242301215236
 31
0.0
  0
ARC
  5
A262
  8
0
 10
4.7108547205562408
 20
-67.8814435293008103
 30
0.0
 40
0.2755905512
 50
4.9999999990026502
 51
90.0
  0
LINE
  5
A263
  8
0
 10
-59.4479013112014627
 20
-68.974846502100803
 30
0.0
 11
-59.2414137064412571
 21
-69.3664147346631808
 31
0.0
  0
ARC
  5
A264
  8
0
 10
-58.3730708856438625
 20
-68.9039208377008805
 30
0.0
 40
0.9838291818998801
 50
208.0405107221216952
 51
227.8115475298683066
  0
ARC
  5
A265
  8
0
 10
-58.3789398008435896
 20
-68.9103959714390015
 30
0.0
 40
0.9750901017109601
 50
227.8115475298683918
 51
253.8844271512047897
  0
ARC
  5
A266
  8
0
 10
-58.3566033033581206
 20
-68.8330882295390012
 30
0.0
 40
1.0555600096119679
 50
253.8844271512047044
 51
270.9548633553345098
  0
LINE
  5
A267
  8
0
 10
-58.3390126723296305
 20
-69.8885016573444489
 30
0.0
 11
-54.8053160764437592
 21
-69.9510933834008028
 31
0.0
  0
ARC
  5
A268
  8
0
 10
-54.8223977065696602
 20
-70.1483913932739256
 30
0.0
 40
0.1980360744603088
 50
13.4352730071555602
 51
85.0517955698457655
  0
LINE
  5
A269
  8
0
 10
-54.6297812808261725
 20
-70.1023783590178056
 30
0.0
 11
-51.7066194618558583
 21
-82.7788783951571077
 31
0.0
  0
ARC
  5
A26A
  8
0
 10
-50.2046110929676033
 20
-82.4269713860472564
 30
0.0
 40
1.5426819773599021
 50
193.1860471759632958
 51
267.9091274268756138
  0
LINE
  5
A26B
  8
0
 10
-50.2608950914354224
 20
-83.9686262744018279
 30
0.0
 11
-42.8899129790489084
 21
-84.2260965048613741
 31
0.0
  0
LINE
  5
A26C
  8
0
 10
-42.7121172428437532
 20
-86.2583110690008112
 30
0.0
 11
-42.9183338960437482
 21
-83.9012439371008156
 31
0.0
  0
LINE
  5
A26D
  8
0
 10
-42.9183338960437482
 20
-83.9012439371008156
 30
0.0
 11
-41.8482169256500569
 21
-83.9774740584567638
 31
0.0
  0
LINE
  5
A26E
  8
0
 10
-41.8550034721437427
 20
-83.848156505700814
 30
0.0
 11
-41.2870323472437519
 21
-83.8722782251008141
 31
0.0
  0
LINE
  5
A26F
  8
0
 10
-41.2870323472437519
 20
-83.8722782251008141
 30
0.0
 11
-41.3735345656437516
 21
-85.5205768424008141
 31
0.0
  0
LINE
  5
A270
  8
0
 10
-41.3735345656437516
 20
-85.5205768424008141
 30
0.0
 11
-41.3856222393534168
 21
-85.5205768424008141
 31
0.0
  0
LINE
  5
A271
  8
0
 10
-41.7551476793340797
 20
-85.5205768424008141
 30
0.0
 11
-41.7672353530437519
 21
-85.5205768424008141
 31
0.0
  0
LINE
  5
A272
  8
0
 10
-41.7672353530437519
 20
-85.5205768424008141
 30
0.0
 11
-41.8550034721437427
 21
-83.848156505700814
 31
0.0
  0
LINE
  5
A273
  8
0
 10
-42.7121172428437532
 20
-86.2583110690008112
 30
0.0
 11
-41.837554299143747
 21
-86.2583110690008112
 31
0.0
  0
LINE
  5
A274
  8
0
 10
-41.837554299143747
 20
-86.2583110690008112
 30
0.0
 11
-41.8066054315437583
 21
-85.6677714954008138
 31
0.0
  0
ARC
  5
A275
  8
0
 10
-41.5703849593937491
 20
-85.6677598879359863
 30
0.0
 40
0.2362204724351856
 50
359.9971845846463907
 51
180.0028154153536093
  0
LINE
  5
A276
  8
0
 10
-41.334164487243747
 20
-85.6677714954008138
 30
0.0
 11
-41.303215619643737
 21
-86.2583110690008112
 31
0.0
  0
LINE
  5
A277
  8
0
 10
-41.303215619643737
 20
-86.2583110690008112
 30
0.0
 11
-40.4286526759437521
 21
-86.2583110690008112
 31
0.0
  0
LINE
  5
A278
  8
0
 10
-40.4286526759437521
 20
-86.2583110690008112
 30
0.0
 11
-40.2330505151437592
 21
-84.022568140900816
 31
0.0
  0
LINE
  5
A279
  8
0
 10
-40.2330505151437592
 20
-84.022568140900816
 30
0.0
 11
-41.2934502939050674
 21
-83.9945721130892053
 31
0.0
  0
LINE
  5
A27A
  8
0
 10
-40.2588951409509903
 20
-84.3179735655729985
 30
0.0
 11
-37.9342254203534068
 21
-84.3991528210197401
 31
0.0
  0
LINE
  5
A27B
  8
0
 10
-37.8700883108437623
 20
-84.8016181557008082
 30
0.0
 11
-37.9591882524437523
 21
-84.242509114300816
 31
0.0
  0
LINE
  5
A27C
  8
0
 10
-37.9591882524437523
 20
-84.242509114300816
 30
0.0
 11
-37.9591882524437523
 21
-84.242509114300816
 31
0.0
  0
ARC
  5
A27D
  8
0
 10
-37.6791301472209526
 20
-84.1887401175134755
 30
0.0
 40
0.2851730129526761
 50
155.5702531870188068
 51
190.8680992617705954
  0
ARC
  5
A27E
  8
0
 10
-37.0222686330988608
 20
-84.4871170153189297
 30
0.0
 40
1.0066269767499141
 50
134.5945692053882112
 51
155.5702531870188068
  0
ARC
  5
A27F
  8
0
 10
-37.2861150207174177
 20
-84.2147885922310451
 30
0.0
 40
0.6274699397109438
 50
118.2874459831894995
 51
134.8972523972965121
  0
ARC
  5
A280
  8
0
 10
-37.4432841627206514
 20
-83.9227405390263499
 30
0.0
 40
0.2958161977168526
 50
57.8727136123793429
 51
118.2874459831894995
  0
ARC
  5
A281
  8
0
 10
-37.7221738730078897
 20
-84.3668588450621542
 30
0.0
 40
0.820240205805932
 50
31.2488073404579794
 51
57.8727136123793429
  0
ARC
  5
A282
  8
0
 10
-38.301143503878869
 20
-84.7181697523173511
 30
0.0
 40
1.497458920127495
 50
24.2943126184390188
 51
31.2488073404579794
  0
ARC
  5
A283
  8
0
 10
-37.1803549757851428
 20
-84.2122482560032637
 30
0.0
 40
0.2677746170890194
 50
354.0161689285349098
 51
24.2943126184390188
  0
ARC
  5
A284
  8
0
 10
-48095.7925596855930053
 20
7527.4819774215302459
 30
0.0
 40
48657.9296577264685766
 50
350.9999781148786724
 51
351.0000656370100955
  0
LINE
  5
A285
  8
0
 10
-36.9256667052185108
 20
-84.3135754721720474
 30
0.0
 11
-37.0028579962104729
 21
-84.8009421023396754
 31
0.0
  0
LINE
  5
A286
  8
0
 10
-37.002965072543752
 20
-84.8016181557008082
 30
0.0
 11
-37.8700883108437623
 21
-84.8016181557008082
 31
0.0
  0
LINE
  5
A287
  8
0
 10
-36.9446938324520602
 20
-84.4337080255005219
 30
0.0
 11
-30.7428267883437591
 21
-84.6502819950007961
 31
0.0
  0
ARC
  5
A288
  8
0
 10
-30.7565668500775615
 20
-85.0437458828701267
 30
0.0
 40
0.3937037215390274
 50
47.0450617604321621
 51
87.9999999996814637
  0
ARC
  5
A289
  8
0
 10
-45.6021822480901307
 20
-100.988843016316693
 30
0.0
 40
22.1799016261931392
 50
45.5516979038501404
 51
47.0450617604321621
  0
ARC
  5
A28A
  8
0
 10
-29.7978379893295511
 20
-84.8690784368288149
 30
0.0
 40
0.3949939715463344
 50
226.3738148991602941
 51
270.5652090963798742
  0
LINE
  5
A28B
  8
0
 10
-29.7939415319166692
 20
-85.2640531894112854
 30
0.0
 11
-26.9689175717437593
 21
-85.2640606152008047
 31
0.0
  0
ARC
  5
A28C
  8
0
 10
-26.9649437356482906
 20
-84.8705257507655233
 30
0.0
 40
0.3935549274236152
 50
269.4214583785245054
 51
313.6775174613493959
  0
LINE
  5
A28D
  8
0
 10
-26.6931552263191385
 20
-85.1551597035822141
 30
0.0
 11
-26.2783309684048589
 21
-84.7590563379211375
 31
0.0
  0
ARC
  5
A28E
  8
0
 10
-26.0063158624548905
 20
-85.0439275969140027
 30
0.0
 40
0.3938830436375054
 50
91.98972269446665
 51
133.6775174613493107
  0
LINE
  5
A28F
  8
0
 10
-26.0199915733437486
 20
-84.6502820368008173
 30
0.0
 11
-19.8179478877480086
 21
-84.4348157266005046
 31
0.0
  0
LINE
  5
A290
  8
0
 10
-19.7598520903437489
 20
-84.8016181557008082
 30
0.0
 11
-19.8448606730437511
 21
-84.2693180330008147
 31
0.0
  0
ARC
  5
A291
  8
0
 10
-19.4919933865730286
 20
-84.2129649595656247
 30
0.0
 40
0.3573387618868121
 50
174.3755359395981941
 51
189.0735430171594942
  0
ARC
  5
A292
  8
0
 10
-19.05944172206069
 20
-84.3827789768488685
 30
0.0
 40
0.8143524128805057
 50
138.135850048587713
 51
165.4317899130386991
  0
ARC
  5
A293
  8
0
 10
-19.0300954789084606
 20
-84.360184328517434
 30
0.0
 40
0.8219354128889609
 50
126.1325194228480058
 51
140.6748744358872898
  0
ARC
  5
A294
  8
0
 10
-19.3199841969265691
 20
-83.9337779482879967
 30
0.0
 40
0.3070995406489385
 50
54.9454058155814309
 51
129.3623545138898976
  0
ARC
  5
A295
  8
0
 10
-19.6076699542519002
 20
-84.3739339507300201
 30
0.0
 40
0.8328275673381074
 50
37.2547570522193467
 51
56.1360533451082517
  0
ARC
  5
A296
  8
0
 10
-19.8601228635541496
 20
-84.5659366860229653
 30
0.0
 40
1.149998691142182
 50
27.3877858121624698
 51
37.2547570522193467
  0
ARC
  5
A297
  8
0
 10
-19.1849268043640286
 20
-84.2161308823246202
 30
0.0
 40
0.3895686689528211
 50
15.3096507914900108
 51
27.3877858121625692
  0
ARC
  5
A298
  8
0
 10
-19.0871679376843701
 20
-84.189369383242564
 30
0.0
 40
0.2882129890547038
 50
349.3450603813366797
 51
15.3096507914900108
  0
LINE
  5
A299
  8
0
 10
-18.80392416984375
 20
-84.242658172300807
 30
0.0
 11
-18.8927288520437493
 21
-84.8016181557008082
 31
0.0
  0
LINE
  5
A29A
  8
0
 10
-18.8927288520437493
 20
-84.8016181557008366
 30
0.0
 11
-19.7598520903437489
 21
-84.8016181557008082
 31
0.0
  0
LINE
  5
A29B
  8
0
 10
-18.8289867902506813
 20
-84.3991666163899907
 30
0.0
 11
-16.5039220218900091
 21
-84.3179735655748743
 31
0.0
  0
LINE
  5
A29C
  8
0
 10
-14.0506999200437495
 20
-86.2583110690008112
 30
0.0
 11
-13.8444832668437492
 21
-83.9012439371008156
 31
0.0
  0
LINE
  5
A29D
  8
0
 10
-13.8444832668437492
 20
-83.9012439371008156
 30
0.0
 11
-14.9146002372374404
 21
-83.9774740584567638
 31
0.0
  0
LINE
  5
A29E
  8
0
 10
-14.9078136907437599
 20
-83.848156505700814
 30
0.0
 11
-15.4757848156437507
 21
-83.8722782251008141
 31
0.0
  0
LINE
  5
A29F
  8
0
 10
-15.4757848156437507
 20
-83.8722782251008141
 30
0.0
 11
-15.3892825972437493
 21
-85.5205768424008141
 31
0.0
  0
LINE
  5
A2A0
  8
0
 10
-15.3892825972437493
 20
-85.5205768424008141
 30
0.0
 11
-15.3771949235340806
 21
-85.5205768424008141
 31
0.0
  0
LINE
  5
A2A1
  8
0
 10
-15.0076694835534301
 20
-85.5205768424008141
 30
0.0
 11
-14.9955818098437508
 21
-85.5205768424008141
 31
0.0
  0
LINE
  5
A2A2
  8
0
 10
-14.9955818098437508
 20
-85.5205768424008141
 30
0.0
 11
-14.9078136907437599
 21
-83.848156505700814
 31
0.0
  0
LINE
  5
A2A3
  8
0
 10
-14.0506999200437495
 20
-86.2583110690008112
 30
0.0
 11
-14.9252628637437503
 21
-86.2583110690008112
 31
0.0
  0
LINE
  5
A2A4
  8
0
 10
-14.9252628637437503
 20
-86.2583110690008112
 30
0.0
 11
-14.9562117313437604
 21
-85.6677714954008138
 31
0.0
  0
ARC
  5
A2A5
  8
0
 10
-15.19243220349375
 20
-85.6677598879359863
 30
0.0
 40
0.2362204724351856
 50
359.9971845846463907
 51
180.0028154153536093
  0
LINE
  5
A2A6
  8
0
 10
-15.4286526756437503
 20
-85.6677714954008138
 30
0.0
 11
-15.4596015432437497
 21
-86.2583110690008112
 31
0.0
  0
LINE
  5
A2A7
  8
0
 10
-15.4596015432437497
 20
-86.2583110690008112
 30
0.0
 11
-16.3341644869437488
 21
-86.2583110690008112
 31
0.0
  0
LINE
  5
A2A8
  8
0
 10
-16.3341644869437488
 20
-86.2583110690008112
 30
0.0
 11
-16.5297666477437488
 21
-84.022568140900816
 31
0.0
  0
LINE
  5
A2A9
  8
0
 10
-16.5297666477437488
 20
-84.022568140900816
 30
0.0
 11
-15.46936686898243
 21
-83.9945721130892053
 31
0.0
  0
LINE
  5
A2AA
  8
0
 10
-13.8729148381027105
 20
-84.2262182842523259
 30
0.0
 11
-6.2652717035437488
 21
-83.9603000940008144
 31
0.0
  0
ARC
  5
A2AB
  8
0
 10
-6.3098014333492074
 20
-82.4426825924727353
 30
0.0
 40
1.5184024951550199
 50
271.6807106130539182
 51
332.0949273049769772
  0
LINE
  5
A2AC
  8
0
 10
-4.9679524055437554
 20
-83.1533071937008117
 30
0.0
 11
2.6781992467562432
 21
-68.974846502100803
 31
0.0
  0
LINE
  5
A2AE
  8
0
 10
-32.7356629686791365
 20
-84.438693623062818
 30
0.0
 11
-24.0271541942083715
 21
-84.438693623062818
 31
0.0
  0
ARC
  5
A2AF
  8
0
 10
-38.2731296968855617
 20
-199.6586936870251066
 30
0.0
 40
115.3529884853681011
 50
87.2484851977524869
 51
89.3307004928907418
  0
ARC
  5
A2B0
  8
0
 10
0.1084462039070146
 20
1332.1163994478429231
 30
0.0
 40
1416.9154281841219927
 50
268.3677931427437215
 51
268.4607663026798718
  0
ARC
  5
A2B1
  8
0
 10
-18.4896874660019499
 20
-199.6586936870251066
 30
0.0
 40
115.3529884853681011
 50
90.6692995071092582
 51
92.7515148022475273
  0
ARC
  5
A2B2
  8
0
 10
-56.8712633667945227
 20
1332.1163994478429231
 30
0.0
 40
1416.9154281841219927
 50
271.5392336973200145
 51
271.6322068572562216
  0
ARC
  5
A2B3
  8
0
 10
-55.9783946634546581
 20
8.1060443748393141
 30
0.0
 40
77.5411452955686258
 50
267.5882166698016249
 51
271.1233717249957067
  0
ARC
  5
A2B4
  8
0
 10
-57.5929197877417209
 20
280.1976942281773972
 30
0.0
 40
349.6319446501649963
 50
270.5137111583491105
 51
270.9537867970612979
  0
ARC
  5
A2B5
  8
0
 10
-61.7891871153607823
 20
477.7644818009314918
 30
0.0
 40
547.2419611555911843
 50
271.0487488655434731
 51
271.6028232937285907
  0
ARC
  5
A2B6
  8
0
 10
-62.4515458525997218
 20
-1333.1760249341850795
 30
0.0
 40
1263.2480724391680269
 50
89.4001432169538361
 51
89.6531960902696596
  0
ARC
  5
A2B7
  8
0
 10
-48.7038757827698205
 20
-20.1047787938211791
 30
0.0
 40
49.8951398088171914
 50
269.4001432169537225
 51
273.3076781940706041
  0
ARC
  5
A2B8
  8
0
 10
-49.2490928647060784
 20
-72.7072890227443622
 30
0.0
 40
4.4176397628967461
 50
39.2110196550391805
 51
57.6607064882265234
  0
ENDSEC
  0
EOF
