  0
SECTION
  2
HEADER
  9
$ACADVER
  1
AC1009
  9
$INSBASE
 10
3529.6671590095820648
 20
146.8616874853566969
 30
0.0
  9
$EXTMIN
 10
3521.9516408336698987
 20
144.4123498542166999
 30
-0.0015258207003583
  9
$EXTMAX
 10
3537.3341664889921958
 20
146.8661696903222946
 30
0.0000000349246037
  9
$LIMMIN
 10
0.0
 20
0.0
  9
$LIMMAX
 10
11.6929133858000007
 20
8.2677165353999982
  9
$ORTHOMODE
 70
     0
  9
$REGENMODE
 70
     1
  9
$FILLMODE
 70
     1
  9
$QTEXTMODE
 70
     0
  9
$MIRRTEXT
 70
     0
  9
$DRAGMODE
 70
     2
  9
$LTSCALE
 40
0.6431102362
  9
$OSMODE
 70
  3839
  9
$ATTMODE
 70
     1
  9
$TEXTSIZE
 40
0.2
  9
$TRACEWID
 40
0.05
  9
$TEXTSTYLE
  7
STANDARD
  9
$CLAYER
  8
0
  9
$CELTYPE
  6
BYLAYER
  9
$CECOLOR
 62
   256
  9
$DIMSCALE
 40
1.0
  9
$DIMASZ
 40
0.1875
  9
$DIMEXO
 40
0.0625
  9
$DIMDLI
 40
0.4443307087
  9
$DIMRND
 40
0.0
  9
$DIMDLE
 40
0.0
  9
$DIMEXE
 40
0.125
  9
$DIMTP
 40
0.01
  9
$DIMTM
 40
0.01
  9
$DIMTXT
 40
2.0
  9
$DIMCEN
 40
0.1052362205
  9
$DIMTSZ
 40
0.0
  9
$DIMTOL
 70
     1
  9
$DIMLIM
 70
     0
  9
$DIMTIH
 70
     1
  9
$DIMTOH
 70
     1
  9
$DIMSE1
 70
     0
  9
$DIMSE2
 70
     0
  9
$DIMTAD
 70
     0
  9
$DIMZIN
 70
     0
  9
$DIMBLK
  1

  9
$DIMASO
 70
     1
  9
$DIMSHO
 70
     1
  9
$DIMPOST
  1
\X
  9
$DIMAPOST
  1

  9
$DIMALT
 70
     1
  9
$DIMALTD
 70
     2
  9
$DIMALTF
 40
25.3999999999999986
  9
$DIMLFAC
 40
1.0
  9
$DIMTOFL
 70
     0
  9
$DIMTVP
 40
0.0
  9
$DIMTIX
 70
     0
  9
$DIMSOXD
 70
     0
  9
$DIMSAH
 70
     0
  9
$DIMBLK1
  1

  9
$DIMBLK2
  1

  9
$DIMSTYLE
  2
STANDARD
  9
$DIMCLRD
 70
     0
  9
$DIMCLRE
 70
     0
  9
$DIMCLRT
 70
     0
  9
$DIMTFAC
 40
1.0
  9
$DIMGAP
 40
0.09
  9
$LUNITS
 70
     2
  9
$LUPREC
 70
     4
  9
$SKETCHINC
 40
0.1
  9
$FILLETRAD
 40
0.0
  9
$AUNITS
 70
     0
  9
$AUPREC
 70
     0
  9
$MENU
  1
.
  9
$ELEVATION
 40
0.0
  9
$PELEVATION
 40
0.0
  9
$THICKNESS
 40
0.0
  9
$LIMCHECK
 70
     0
  9
$BLIPMODE
 70
     0
  9
$CHAMFERA
 40
0.0
  9
$CHAMFERB
 40
0.0
  9
$SKPOLY
 70
     0
  9
$TDCREATE
 40
2458060.468368056230247
  9
$TDUPDATE
 40
2459214.8199768518097699
  9
$TDINDWG
 40
0.5805394676
  9
$TDUSRTIMER
 40
0.5805394676
  9
$USRTIMER
 70
     1
  9
$ANGBASE
 50
0.0
  9
$ANGDIR
 70
     0
  9
$PDMODE
 70
     0
  9
$PDSIZE
 40
0.3125
  9
$PLINEWID
 40
0.0
  9
$COORDS
 70
     1
  9
$SPLFRAME
 70
     0
  9
$SPLINETYPE
 70
     6
  9
$SPLINESEGS
 70
     8
  9
$ATTDIA
 70
     1
  9
$ATTREQ
 70
     1
  9
$HANDLING
 70
     1
  9
$HANDSEED
  5
107C9
  9
$SURFTAB1
 70
     6
  9
$SURFTAB2
 70
     6
  9
$SURFTYPE
 70
     6
  9
$SURFU
 70
     6
  9
$SURFV
 70
     6
  9
$UCSNAME
  2

  9
$UCSORG
 10
0.0
 20
0.0
 30
0.0
  9
$UCSXDIR
 10
1.0
 20
0.0
 30
0.0
  9
$UCSYDIR
 10
0.0
 20
1.0
 30
0.0
  9
$PUCSNAME
  2

  9
$PUCSORG
 10
0.0
 20
0.0
 30
0.0
  9
$PUCSXDIR
 10
1.0
 20
0.0
 30
0.0
  9
$PUCSYDIR
 10
0.0
 20
1.0
 30
0.0
  9
$USERI1
 70
     0
  9
$USERI2
 70
     0
  9
$USERI3
 70
     0
  9
$USERI4
 70
     0
  9
$USERI5
 70
     0
  9
$USERR1
 40
0.0
  9
$USERR2
 40
0.0
  9
$USERR3
 40
0.0
  9
$USERR4
 40
0.0
  9
$USERR5
 40
0.0
  9
$WORLDVIEW
 70
     1
  9
$SHADEDGE
 70
     3
  9
$SHADEDIF
 70
    70
  9
$TILEMODE
 70
     1
  9
$MAXACTVP
 70
    64
  9
$PLIMCHECK
 70
     0
  9
$PEXTMIN
 10
1.0000000000000000E+20
 20
1.0000000000000000E+20
 30
1.0000000000000000E+20
  9
$PEXTMAX
 10
-1.0000000000000000E+20
 20
-1.0000000000000000E+20
 30
-1.0000000000000000E+20
  9
$PLIMMIN
 10
0.0
 20
0.0
  9
$PLIMMAX
 10
12.0
 20
9.0
  9
$UNITMODE
 70
     0
  9
$VISRETAIN
 70
     1
  9
$PLINEGEN
 70
     0
  9
$PSLTSCALE
 70
     1
  0
ENDSEC
  0
SECTION
  2
TABLES
  0
TABLE
  2
VPORT
 70
     1
  0
VPORT
  2
*ACTIVE
 70
     0
 10
0.0
 20
0.0
 11
1.0
 21
1.0
 12
-0.029708109227613
 22
-1.219939824934414
 13
0.0
 23
0.0
 14
1.0
 24
1.0
 15
0.0
 25
0.0
 16
0.0
 26
0.0
 36
0.0433829766133159
 17
3529.6726117705579782
 27
146.8591995972039115
 37
0.0
 40
5.190336560859464
 41
2.9735537190082639
 42
50.0
 43
0.0
 44
0.0
 50
0.0
 51
0.0
 71
     0
 72
   100
 73
     1
 74
     1
 75
     0
 76
     0
 77
     0
 78
     0
  0
ENDTAB
  0
TABLE
  2
LTYPE
 70
     2
  0
LTYPE
  2
CONTINUOUS
 70
     0
  3
Solid line
 72
    65
 73
     0
 40
0.0
  0
LTYPE
  2
PHANTOM2
 70
     0
  3
___ _ _ ___ _ _ ___ _ _ ___ _ _
 72
    65
 73
     6
 40
1.25
 49
0.625
 49
-0.125
 49
0.125
 49
-0.125
 49
0.125
 49
-0.125
  0
ENDTAB
  0
TABLE
  2
LAYER
 70
     2
  0
LAYER
  2
0
 70
     0
 62
   255
  6
CONTINUOUS
  0
LAYER
  2
DEFPOINTS
 70
     0
 62
     7
  6
CONTINUOUS
  0
ENDTAB
  0
TABLE
  2
STYLE
 70
     1
  0
STYLE
  2
STANDARD
 70
     0
 40
0.0
 41
0.8
 50
0.0
 71
     0
 42
0.2
  3
txt
  4

  0
ENDTAB
  0
TABLE
  2
VIEW
 70
     0
  0
ENDTAB
  0
TABLE
  2
UCS
 70
     0
  0
ENDTAB
  0
TABLE
  2
APPID
 70
     9
  0
APPID
  2
ACAD
 70
     0
  0
APPID
  2
ACAD_MLEADERVER
 70
     0
  0
APPID
  2
ACAD_EXEMPT_FROM_CAD_STANDARDS
 70
     0
  0
APPID
  2
ACAD_NAV_VCDISPLAY
 70
     0
  0
APPID
  2
ACAECLAYERSTANDARD
 70
     0
  0
APPID
  2
ACCMTRANSPARENCY
 70
     0
  0
APPID
  2
ACAD_DSTYLE_DIMJAG
 70
     0
  0
APPID
  2
ACAD_DSTYLE_DIMTALN
 70
     0
  0
APPID
  2
ACDBATTR
 70
     0
  0
ENDTAB
  0
TABLE
  2
DIMSTYLE
 70
     1
  0
DIMSTYLE
  2
STANDARD
 70
     0
  3

  4

  5

  6

  7

 40
1.0
 41
0.1875
 42
0.0625
 43
0.38
 44
0.125
 45
0.0
 46
0.0
 47
0.01
 48
0.01
140
0.15625
141
0.09
142
0.0
143
25.3999999999999986
144
1.0
145
0.0
146
1.0
147
0.09
 71
     1
 72
     0
 73
     1
 74
     1
 75
     0
 76
     0
 77
     0
 78
     4
170
     0
171
     2
172
     0
173
     0
174
     0
175
     0
176
     0
177
     0
178
     0
  0
ENDTAB
  0
ENDSEC
  0
SECTION
  2
BLOCKS
  0
BLOCK
  8
0
  2
$MODEL_SPACE
 70
     0
 10
0.0
 20
0.0
 30
0.0
  3
$MODEL_SPACE
  1

  0
ENDBLK
  5
21
  8
0
  0
BLOCK
 67
     1
  8
0
  2
$PAPER_SPACE
 70
     0
 10
0.0
 20
0.0
 30
0.0
  3
$PAPER_SPACE
  1

  0
ENDBLK
  5
1D
 67
     1
  8
0
  0
BLOCK
  8
0
  2
_FILLED
 70
     0
 10
0.0
 20
0.0
 30
0.0
  3
_FILLED
  1

  0
SOLID
  5
103EF
  8
0
  6
BYBLOCK
 62
     0
 10
0.0
 20
0.0
 30
0.0
 11
-1.0
 21
0.1666666667
 31
0.0
 12
-1.0
 22
-0.1666666667
 32
0.0
 13
-1.0
 23
-0.1666666667
 33
0.0
  0
ENDBLK
  5
103F0
  8
0
  6
BYBLOCK
 62
     0
  0
ENDSEC
  0
SECTION
  2
ENTITIES
  0
ATTDEF
  5
FFD0
  8
DEFPOINTS
 10
3529.6672784370671252
 20
146.8603662638705885
 30
0.0
 40
0.001
  1
K-9301M-CL
  3

  2
MODELNUMBER
 70
     0
1001
ACDBATTR
1070
     0
1070
     1
  0
ATTDEF
  5
FFD1
  8
DEFPOINTS
 10
3529.6672784370671252
 20
146.8586995972038949
 30
0.0
 40
0.001
  1
LOURE
  3

  2
TRADENAME
 70
     0
1001
ACDBATTR
1070
     0
1070
     1
  0
ATTDEF
  5
FFD2
  8
DEFPOINTS
 10
3529.6672784370671252
 20
146.8570329305372013
 30
0.0
 40
0.001
  1
SHOWERHEAD
  3

  2
PRODUCT
 70
     0
1001
ACDBATTR
1070
     0
1070
     1
  0
LINE
  5
10453
  8
0
 10
3537.2262106758889786
 20
144.538854241967698
 30
0.0
 11
3537.2262106758889786
 21
144.4601145160480087
 31
0.0
  0
LINE
  5
10454
  8
0
 10
3536.5962928679318793
 20
144.7357035569669108
 30
0.0
 11
3536.5962928679318793
 21
144.538854241967698
 31
0.0
  0
LINE
  5
10455
  8
0
 10
3537.2262106758889786
 20
144.4601145160480087
 30
0.0
 11
3522.1081073432751509
 21
144.4601145160480087
 31
0.0
  0
LINE
  5
10456
  8
0
 10
3537.2262106758889786
 20
144.538854241967698
 30
0.0
 11
3522.1081073432751509
 21
144.538854241967698
 31
0.0
  0
LINE
  5
10457
  8
0
 10
3536.5372380732710553
 20
144.7947583515567089
 30
0.0
 11
3522.7970799458930742
 21
144.7947583515567089
 31
0.0
  0
LINE
  5
10458
  8
0
 10
3530.3856590093241721
 20
145.3619319243622101
 30
0.0
 11
3530.3856590093241721
 21
144.7947583515567089
 31
0.0
  0
LINE
  5
10459
  8
0
 10
3530.3561316121290474
 20
145.8343702802804103
 30
0.0
 11
3530.3561316121290474
 21
145.3619319243622101
 31
0.0
  0
LINE
  5
1045A
  8
0
 10
3530.1632192833558292
 20
146.8416875949527025
 30
0.0
 11
3530.1632192833558292
 21
146.7337354306121995
 31
0.0
  0
LINE
  5
1045B
  8
0
 10
3530.121880927183156
 20
146.6923970744394126
 30
0.0
 11
3530.1218809272540966
 21
146.1938045027870885
 31
0.0
  0
LINE
  5
1045C
  8
0
 10
3530.3856590093241721
 20
145.3619319243622101
 30
0.0
 11
3530.3561316121290474
 21
145.3619319243622101
 31
0.0
  0
LINE
  5
1045D
  8
0
 10
3528.9781864070350821
 20
145.3619319243622101
 30
0.0
 11
3528.9486590098399574
 21
145.3619319243622101
 31
0.0
  0
LINE
  5
1045E
  8
0
 10
3530.3561316121290474
 20
145.8343702802804103
 30
0.0
 11
3528.9781864070350821
 21
145.8343702802804103
 31
0.0
  0
LINE
  5
1045F
  8
0
 10
3529.1710987358092098
 20
146.7337354306121995
 30
0.0
 11
3529.2124370919809735
 21
146.6923970744394126
 31
0.0
  0
LINE
  5
10460
  8
0
 10
3529.2124370919809735
 20
146.1938045026844861
 30
0.0
 11
3529.2124370919809735
 21
146.6923970744394126
 31
0.0
  0
LINE
  5
10461
  8
0
 10
3529.1710987358092098
 20
146.8416875949527025
 30
0.0
 11
3529.1710987358092098
 21
146.7337354306121995
 31
0.0
  0
LINE
  5
10462
  8
0
 10
3530.121880927183156
 20
146.6923970744394126
 30
0.0
 11
3530.1632192833558292
 21
146.7337354306121995
 31
0.0
  0
LINE
  5
10463
  8
0
 10
3528.9781864070350821
 20
145.3619319243622101
 30
0.0
 11
3528.9781864070350821
 21
145.8343702802804103
 31
0.0
  0
LINE
  5
10464
  8
0
 10
3528.9486590098399574
 20
145.3619319243622101
 30
0.0
 11
3528.9486590098399574
 21
144.7947583515567089
 31
0.0
  0
LINE
  5
10465
  8
0
 10
3530.143219392951778
 20
146.8616874853566969
 30
0.0
 11
3529.1910986262118968
 21
146.8616874853566969
 31
0.0
  0
ARC
  5
10466
  8
0
 10
3536.5372380732710553
 20
144.7357035568961976
 30
0.0
 40
0.0590547946604938
 50
0.0000000686096025
 51
89.9999998343676992
  0
ARC
  5
10467
  8
0
 10
3529.673063181291127
 20
145.581262072884897
 30
0.0
 40
0.5350465109348124
 50
129.5308549223734929
 51
151.7669969882682039
  0
ARC
  5
10468
  8
0
 10
3529.661439237920149
 20
145.5814283436826031
 30
0.0
 40
0.5348009009860105
 50
28.2269130171412392
 51
50.47304416161343
  0
ARC
  5
10469
  8
0
 10
3529.9348740783298126
 20
146.3248387390846119
 30
0.0
 40
0.2283452049568505
 50
291.9122121958836829
 51
324.9813717543077018
  0
ARC
  5
1046A
  8
0
 10
3530.0462120504907944
 20
146.0480473222619935
 30
0.0
 40
0.0699996164203292
 50
111.9122122699407953
 51
230.6290104611437073
  0
ARC
  5
1046B
  8
0
 10
3530.143219392951778
 20
146.8416875949527025
 30
0.0
 40
0.019999890404
 50
0.0
 51
90.0
  0
ARC
  5
1046C
  8
0
 10
3529.3970307758681884
 20
146.3217991853516935
 30
0.0
 40
0.2246273957520673
 50
214.7368987915579055
 51
248.369517295290791
  0
ARC
  5
1046D
  8
0
 10
3529.2881059685191758
 20
146.048047322282514
 30
0.0
 40
0.0699996164701768
 50
309.3709895621130954
 51
68.087787620728264
  0
ARC
  5
1046E
  8
0
 10
3529.1910986262118968
 20
146.8416875949527025
 30
0.0
 40
0.019999890404
 50
90.0
 51
180.0
  0
LINE
  5
1046F
  8
0
 10
3530.1829077099268943
 20
144.4207446528880894
 30
0.0
 11
3530.2931433263538565
 21
144.4207446528880894
 31
0.0
  0
LINE
  5
10470
  8
0
 10
3531.3246392598098282
 20
144.4207446528880894
 30
0.0
 11
3531.4348748762367904
 21
144.4207446528880894
 31
0.0
  0
LINE
  5
10471
  8
0
 10
3532.4663715433098332
 20
144.4207446528880894
 30
0.0
 11
3532.5766071597367954
 21
144.4207446528880894
 31
0.0
  0
LINE
  5
10472
  8
0
 10
3533.6081045603268649
 20
144.4207446528880894
 30
0.0
 11
3533.7183401767551914
 21
144.4207446528880894
 31
0.0
  0
LINE
  5
10473
  8
0
 10
3534.7498368438268699
 20
144.4207446528880894
 30
0.0
 11
3534.8600724601551519
 21
144.4207446528880894
 31
0.0
  0
LINE
  5
10474
  8
0
 10
3535.8876353339051093
 20
144.4207446528880894
 30
0.0
 11
3535.9978709502329366
 21
144.4207446528880894
 31
0.0
  0
LINE
  5
10475
  8
0
 10
3530.1710967510480259
 20
144.4325556116660891
 30
0.0
 11
3530.1710967510480259
 21
144.4601145159479927
 31
0.0
  0
LINE
  5
10476
  8
0
 10
3530.3049542852318154
 20
144.4325556116660891
 30
0.0
 11
3530.3049542852318154
 21
144.4601145159479927
 31
0.0
  0
LINE
  5
10477
  8
0
 10
3531.3128283009318693
 20
144.4325556116660891
 30
0.0
 11
3531.3128283009318693
 21
144.4601145159479927
 31
0.0
  0
LINE
  5
10478
  8
0
 10
3531.4466858351161136
 20
144.4325556116660891
 30
0.0
 11
3531.4466858351161136
 21
144.4601145159479927
 31
0.0
  0
LINE
  5
10479
  8
0
 10
3532.4545605844318743
 20
144.4325556116660891
 30
0.0
 11
3532.4545605844318743
 21
144.4601145159479927
 31
0.0
  0
LINE
  5
1047A
  8
0
 10
3532.5884181186161186
 20
144.4325556116660891
 30
0.0
 11
3532.5884181186161186
 21
144.4601145159479927
 31
0.0
  0
LINE
  5
1047B
  8
0
 10
3533.5962936014479965
 20
144.4325556116660891
 30
0.0
 11
3533.5962936014479965
 21
144.4601145159479927
 31
0.0
  0
LINE
  5
1047C
  8
0
 10
3533.730151135631786
 20
144.4325556116660891
 30
0.0
 11
3533.730151135631786
 21
144.4601145159479927
 31
0.0
  0
LINE
  5
1047D
  8
0
 10
3534.7380258848479571
 20
144.4325556116660891
 30
0.0
 11
3534.7380258848479571
 21
144.4601145159479927
 31
0.0
  0
LINE
  5
1047E
  8
0
 10
3534.8718834190322013
 20
144.4325556116660891
 30
0.0
 11
3534.8718834190322013
 21
144.4601145159479927
 31
0.0
  0
LINE
  5
1047F
  8
0
 10
3535.875824374927106
 20
144.4325556116660891
 30
0.0
 11
3535.875824374927106
 21
144.4601145159479927
 31
0.0
  0
LINE
  5
10480
  8
0
 10
3536.0096819092109399
 20
144.4325556116660891
 30
0.0
 11
3536.0096819092109399
 21
144.4601145159479927
 31
0.0
  0
ARC
  5
10481
  8
0
 10
3530.1829077098409471
 20
144.4325556116806979
 30
0.0
 40
0.0118109587925923
 50
180.0000000710506072
 51
270.0000004140937904
  0
ARC
  5
10482
  8
0
 10
3530.2931433264388943
 20
144.4325556116806979
 30
0.0
 40
0.0118109587925931
 50
269.9999995859062096
 51
359.9999999289494212
  0
ARC
  5
10483
  8
0
 10
3531.4348748763218282
 20
144.4325556116806979
 30
0.0
 40
0.0118109587925931
 50
269.9999995859062096
 51
359.9999999289494212
  0
ARC
  5
10484
  8
0
 10
3531.3246392597247905
 20
144.4325556116806979
 30
0.0
 40
0.0118109587925923
 50
180.0000000710506072
 51
270.0000004140937904
  0
ARC
  5
10485
  8
0
 10
3532.5766071598231974
 20
144.4325556116806979
 30
0.0
 40
0.0118109587925931
 50
269.9999995859062096
 51
359.9999999289494212
  0
ARC
  5
10486
  8
0
 10
3532.466371543223886
 20
144.4325556116806979
 30
0.0
 40
0.0118109587925923
 50
180.0000000710506072
 51
270.0000004140937904
  0
ARC
  5
10487
  8
0
 10
3533.7183401768397744
 20
144.4325556116806979
 30
0.0
 40
0.0118109587925931
 50
269.9999995859062096
 51
359.9999999289494212
  0
ARC
  5
10488
  8
0
 10
3533.6081045602409176
 20
144.4325556116806979
 30
0.0
 40
0.0118109587925923
 50
180.0000000710506072
 51
270.0000004140937904
  0
ARC
  5
10489
  8
0
 10
3534.8600724602401897
 20
144.4325556116806979
 30
0.0
 40
0.0118109587925931
 50
269.9999995859062096
 51
359.9999999289494212
  0
ARC
  5
1048A
  8
0
 10
3534.7498368437409226
 20
144.4325556116806979
 30
0.0
 40
0.0118109587925923
 50
180.0000000710506072
 51
270.0000004140937904
  0
ARC
  5
1048B
  8
0
 10
3535.9978709503179743
 20
144.4325556116806979
 30
0.0
 40
0.0118109587925931
 50
269.9999995859062096
 51
359.9999999289494212
  0
ARC
  5
1048C
  8
0
 10
3535.887635333819162
 20
144.4325556116806979
 30
0.0
 40
0.0118109587925923
 50
180.0000000710506072
 51
270.0000004140937904
  0
LINE
  5
1048D
  8
0
 10
3522.1081073432751509
 20
144.538854241967698
 30
0.0
 11
3522.1081073432751509
 21
144.4601145160480087
 31
0.0
  0
LINE
  5
1048E
  8
0
 10
3522.7380251512331597
 20
144.7357035569669108
 30
0.0
 11
3522.7380251512331597
 21
144.538854241967698
 31
0.0
  0
ARC
  5
1048F
  8
0
 10
3522.7970799458930742
 20
144.7357035568961976
 30
0.0
 40
0.0590547946604938
 50
90.0000001656322866
 51
179.9999999313887997
  0
LINE
  5
10490
  8
0
 10
3529.1514103092381447
 20
144.4207446528880894
 30
0.0
 11
3529.0411746928098182
 21
144.4207446528880894
 31
0.0
  0
LINE
  5
10491
  8
0
 10
3528.0096787593538465
 20
144.4207446528880894
 30
0.0
 11
3527.8994431429268843
 21
144.4207446528880894
 31
0.0
  0
LINE
  5
10492
  8
0
 10
3526.8679464758538415
 20
144.4207446528880894
 30
0.0
 11
3526.7577108594268793
 21
144.4207446528880894
 31
0.0
  0
LINE
  5
10493
  8
0
 10
3525.7262134588368099
 20
144.4207446528880894
 30
0.0
 11
3525.6159778424098477
 21
144.4207446528880894
 31
0.0
  0
LINE
  5
10494
  8
0
 10
3524.5844811753368049
 20
144.4207446528880894
 30
0.0
 11
3524.4742455590098871
 21
144.4207446528880894
 31
0.0
  0
LINE
  5
10495
  8
0
 10
3523.4466826852590202
 20
144.4207446528880894
 30
0.0
 11
3523.3364470689311929
 21
144.4207446528880894
 31
0.0
  0
LINE
  5
10496
  8
0
 10
3529.1632212681161036
 20
144.4325556116660891
 30
0.0
 11
3529.1632212681161036
 21
144.4601145159479927
 31
0.0
  0
LINE
  5
10497
  8
0
 10
3529.0293637339318593
 20
144.4325556116660891
 30
0.0
 11
3529.0293637339318593
 21
144.4601145159479927
 31
0.0
  0
LINE
  5
10498
  8
0
 10
3528.0214897182318055
 20
144.4325556116660891
 30
0.0
 11
3528.0214897182318055
 21
144.4601145159479927
 31
0.0
  0
LINE
  5
10499
  8
0
 10
3527.8876321840489254
 20
144.4325556116660891
 30
0.0
 11
3527.8876321840489254
 21
144.4601145159479927
 31
0.0
  0
LINE
  5
1049A
  8
0
 10
3526.8797574347318005
 20
144.4325556116660891
 30
0.0
 11
3526.8797574347318005
 21
144.4601145159479927
 31
0.0
  0
LINE
  5
1049B
  8
0
 10
3526.7458999005489204
 20
144.4325556116660891
 30
0.0
 11
3526.7458999005489204
 21
144.4601145159479927
 31
0.0
  0
LINE
  5
1049C
  8
0
 10
3525.738024417716133
 20
144.4325556116660891
 30
0.0
 11
3525.738024417716133
 21
144.4601145159479927
 31
0.0
  0
LINE
  5
1049D
  8
0
 10
3525.6041668835318887
 20
144.4325556116660891
 30
0.0
 11
3525.6041668835318887
 21
144.4601145159479927
 31
0.0
  0
LINE
  5
1049E
  8
0
 10
3524.5962921343161725
 20
144.4325556116660891
 30
0.0
 11
3524.5962921343161725
 21
144.4601145159479927
 31
0.0
  0
LINE
  5
1049F
  8
0
 10
3524.4624346001319282
 20
144.4325556116660891
 30
0.0
 11
3524.4624346001319282
 21
144.4601145159479927
 31
0.0
  0
LINE
  5
104A0
  8
0
 10
3523.458493644237933
 20
144.4325556116660891
 30
0.0
 11
3523.458493644237933
 21
144.4601145159479927
 31
0.0
  0
LINE
  5
104A1
  8
0
 10
3523.3246361099540991
 20
144.4325556116660891
 30
0.0
 11
3523.3246361099540991
 21
144.4601145159479927
 31
0.0
  0
ARC
  5
104A2
  8
0
 10
3529.1514103093231824
 20
144.4325556116806979
 30
0.0
 40
0.0118109587925923
 50
269.9999995859062096
 51
359.9999999289494212
  0
ARC
  5
104A3
  8
0
 10
3529.0411746927247805
 20
144.4325556116806979
 30
0.0
 40
0.0118109587925931
 50
180.0000000710506072
 51
270.0000004140937904
  0
ARC
  5
104A4
  8
0
 10
3527.8994431428418466
 20
144.4325556116806979
 30
0.0
 40
0.0118109587925931
 50
180.0000000710506072
 51
270.0000004140937904
  0
ARC
  5
104A5
  8
0
 10
3528.0096787594388843
 20
144.4325556116806979
 30
0.0
 40
0.0118109587925923
 50
269.9999995859062096
 51
359.9999999289494212
  0
ARC
  5
104A6
  8
0
 10
3526.7577108593409321
 20
144.4325556116806979
 30
0.0
 40
0.0118109587925931
 50
180.0000000710506072
 51
270.0000004140937904
  0
ARC
  5
104A7
  8
0
 10
3526.8679464759397888
 20
144.4325556116806979
 30
0.0
 40
0.0118109587925923
 50
269.9999995859062096
 51
359.9999999289494212
  0
ARC
  5
104A8
  8
0
 10
3525.6159778423248099
 20
144.4325556116806979
 30
0.0
 40
0.0118109587925931
 50
180.0000000710506072
 51
270.0000004140937904
  0
ARC
  5
104A9
  8
0
 10
3525.7262134589232119
 20
144.4325556116806979
 30
0.0
 40
0.0118109587925923
 50
269.9999995859062096
 51
359.9999999289494212
  0
ARC
  5
104AA
  8
0
 10
3524.4742455589248493
 20
144.4325556116806979
 30
0.0
 40
0.0118109587925931
 50
180.0000000710506072
 51
270.0000004140937904
  0
ARC
  5
104AB
  8
0
 10
3524.5844811754232069
 20
144.4325556116806979
 30
0.0
 40
0.0118109587925923
 50
269.9999995859062096
 51
359.9999999289494212
  0
ARC
  5
104AC
  8
0
 10
3523.3364470688461552
 20
144.4325556116806979
 30
0.0
 40
0.0118109587925931
 50
180.0000000710506072
 51
270.0000004140937904
  0
ARC
  5
104AD
  8
0
 10
3523.4466826853449675
 20
144.4325556116806979
 30
0.0
 40
0.0118109587925923
 50
269.9999995859062096
 51
359.9999999289494212
  0
ENDSEC
  0
EOF
