  0
SECTION
  2
HEADER
  9
$ACADVER
  1
AC1009
  9
$INSBASE
 10
3529.755577022685884
 20
154.9287121805004119
 30
0.0
  9
$EXTMIN
 10
3522.9466965846240782
 20
148.3489947781270075
 30
-0.0000000000112498
  9
$EXTMAX
 10
3536.5031613564829058
 20
161.508628300653811
 30
0.0000000000002956
  9
$LIMMIN
 10
0.0
 20
0.0
  9
$LIMMAX
 10
11.6929133858000007
 20
8.2677165353999982
  9
$ORTHOMODE
 70
     0
  9
$REGENMODE
 70
     1
  9
$FILLMODE
 70
     1
  9
$QTEXTMODE
 70
     0
  9
$MIRRTEXT
 70
     0
  9
$DRAGMODE
 70
     2
  9
$LTSCALE
 40
0.6431102362
  9
$OSMODE
 70
  4095
  9
$ATTMODE
 70
     1
  9
$TEXTSIZE
 40
0.2
  9
$TRACEWID
 40
0.05
  9
$TEXTSTYLE
  7
STANDARD
  9
$CLAYER
  8
0
  9
$CELTYPE
  6
BYLAYER
  9
$CECOLOR
 62
   256
  9
$DIMSCALE
 40
1.0
  9
$DIMASZ
 40
0.1875
  9
$DIMEXO
 40
0.0625
  9
$DIMDLI
 40
0.4443307087
  9
$DIMRND
 40
0.0
  9
$DIMDLE
 40
0.0
  9
$DIMEXE
 40
0.125
  9
$DIMTP
 40
0.01
  9
$DIMTM
 40
0.01
  9
$DIMTXT
 40
2.0
  9
$DIMCEN
 40
0.1052362205
  9
$DIMTSZ
 40
0.0
  9
$DIMTOL
 70
     1
  9
$DIMLIM
 70
     0
  9
$DIMTIH
 70
     1
  9
$DIMTOH
 70
     1
  9
$DIMSE1
 70
     0
  9
$DIMSE2
 70
     0
  9
$DIMTAD
 70
     0
  9
$DIMZIN
 70
     0
  9
$DIMBLK
  1

  9
$DIMASO
 70
     1
  9
$DIMSHO
 70
     1
  9
$DIMPOST
  1
\X
  9
$DIMAPOST
  1

  9
$DIMALT
 70
     1
  9
$DIMALTD
 70
     2
  9
$DIMALTF
 40
25.3999999999999986
  9
$DIMLFAC
 40
1.0
  9
$DIMTOFL
 70
     0
  9
$DIMTVP
 40
0.0
  9
$DIMTIX
 70
     0
  9
$DIMSOXD
 70
     0
  9
$DIMSAH
 70
     0
  9
$DIMBLK1
  1

  9
$DIMBLK2
  1

  9
$DIMSTYLE
  2
STANDARD
  9
$DIMCLRD
 70
     0
  9
$DIMCLRE
 70
     0
  9
$DIMCLRT
 70
     0
  9
$DIMTFAC
 40
1.0
  9
$DIMGAP
 40
0.09
  9
$LUNITS
 70
     2
  9
$LUPREC
 70
     4
  9
$SKETCHINC
 40
0.1
  9
$FILLETRAD
 40
0.0
  9
$AUNITS
 70
     0
  9
$AUPREC
 70
     0
  9
$MENU
  1
.
  9
$ELEVATION
 40
0.0
  9
$PELEVATION
 40
0.0
  9
$THICKNESS
 40
0.0
  9
$LIMCHECK
 70
     0
  9
$BLIPMODE
 70
     0
  9
$CHAMFERA
 40
0.0
  9
$CHAMFERB
 40
0.0
  9
$SKPOLY
 70
     0
  9
$TDCREATE
 40
2458060.468368056230247
  9
$TDUPDATE
 40
2459095.7394097219221294
  9
$TDINDWG
 40
0.5588380787
  9
$TDUSRTIMER
 40
0.5588380787
  9
$USRTIMER
 70
     1
  9
$ANGBASE
 50
0.0
  9
$ANGDIR
 70
     0
  9
$PDMODE
 70
     0
  9
$PDSIZE
 40
0.3125
  9
$PLINEWID
 40
0.0
  9
$COORDS
 70
     1
  9
$SPLFRAME
 70
     0
  9
$SPLINETYPE
 70
     6
  9
$SPLINESEGS
 70
     8
  9
$ATTDIA
 70
     1
  9
$ATTREQ
 70
     1
  9
$HANDLING
 70
     1
  9
$HANDSEED
  5
104F4
  9
$SURFTAB1
 70
     6
  9
$SURFTAB2
 70
     6
  9
$SURFTYPE
 70
     6
  9
$SURFU
 70
     6
  9
$SURFV
 70
     6
  9
$UCSNAME
  2

  9
$UCSORG
 10
0.0
 20
0.0
 30
0.0
  9
$UCSXDIR
 10
1.0
 20
0.0
 30
0.0
  9
$UCSYDIR
 10
0.0
 20
1.0
 30
0.0
  9
$PUCSNAME
  2

  9
$PUCSORG
 10
0.0
 20
0.0
 30
0.0
  9
$PUCSXDIR
 10
1.0
 20
0.0
 30
0.0
  9
$PUCSYDIR
 10
0.0
 20
1.0
 30
0.0
  9
$USERI1
 70
     0
  9
$USERI2
 70
     0
  9
$USERI3
 70
     0
  9
$USERI4
 70
     0
  9
$USERI5
 70
     0
  9
$USERR1
 40
0.0
  9
$USERR2
 40
0.0
  9
$USERR3
 40
0.0
  9
$USERR4
 40
0.0
  9
$USERR5
 40
0.0
  9
$WORLDVIEW
 70
     1
  9
$SHADEDGE
 70
     3
  9
$SHADEDIF
 70
    70
  9
$TILEMODE
 70
     1
  9
$MAXACTVP
 70
    64
  9
$PLIMCHECK
 70
     0
  9
$PEXTMIN
 10
1.0000000000000000E+20
 20
1.0000000000000000E+20
 30
1.0000000000000000E+20
  9
$PEXTMAX
 10
-1.0000000000000000E+20
 20
-1.0000000000000000E+20
 30
-1.0000000000000000E+20
  9
$PLIMMIN
 10
0.0
 20
0.0
  9
$PLIMMAX
 10
12.0
 20
9.0
  9
$UNITMODE
 70
     0
  9
$VISRETAIN
 70
     1
  9
$PLINEGEN
 70
     0
  9
$PSLTSCALE
 70
     1
  0
ENDSEC
  0
SECTION
  2
TABLES
  0
TABLE
  2
VPORT
 70
     1
  0
VPORT
  2
*ACTIVE
 70
     0
 10
0.0
 20
0.0
 11
1.0
 21
1.0
 12
226.0318137361782931
 22
-40.3327000364973003
 13
0.0
 23
0.0
 14
1.0
 24
1.0
 15
0.0
 25
0.0
 16
0.0
 26
0.0
 36
96.5995694866707311
 17
3303.693115234375
 27
195.2615115758877096
 37
0.0
 40
13.2780110354730692
 41
2.848348348348348
 42
50.0
 43
0.0
 44
0.0
 50
0.0
 51
0.0
 71
     0
 72
   100
 73
     1
 74
     1
 75
     0
 76
     0
 77
     0
 78
     0
  0
ENDTAB
  0
TABLE
  2
LTYPE
 70
     2
  0
LTYPE
  2
CONTINUOUS
 70
     0
  3
Solid line
 72
    65
 73
     0
 40
0.0
  0
LTYPE
  2
PHANTOM2
 70
     0
  3
___ _ _ ___ _ _ ___ _ _ ___ _ _
 72
    65
 73
     6
 40
1.25
 49
0.625
 49
-0.125
 49
0.125
 49
-0.125
 49
0.125
 49
-0.125
  0
ENDTAB
  0
TABLE
  2
LAYER
 70
     2
  0
LAYER
  2
0
 70
     0
 62
   255
  6
CONTINUOUS
  0
LAYER
  2
DEFPOINTS
 70
     0
 62
     7
  6
CONTINUOUS
  0
ENDTAB
  0
TABLE
  2
STYLE
 70
     1
  0
STYLE
  2
STANDARD
 70
     0
 40
0.0
 41
0.8
 50
0.0
 71
     0
 42
0.2
  3
txt
  4

  0
ENDTAB
  0
TABLE
  2
VIEW
 70
     0
  0
ENDTAB
  0
TABLE
  2
UCS
 70
     0
  0
ENDTAB
  0
TABLE
  2
APPID
 70
     9
  0
APPID
  2
ACAD
 70
     0
  0
APPID
  2
ACAD_MLEADERVER
 70
     0
  0
APPID
  2
ACAD_EXEMPT_FROM_CAD_STANDARDS
 70
     0
  0
APPID
  2
ACAD_NAV_VCDISPLAY
 70
     0
  0
APPID
  2
ACAECLAYERSTANDARD
 70
     0
  0
APPID
  2
ACCMTRANSPARENCY
 70
     0
  0
APPID
  2
ACAD_DSTYLE_DIMJAG
 70
     0
  0
APPID
  2
ACAD_DSTYLE_DIMTALN
 70
     0
  0
APPID
  2
ACDBATTR
 70
     0
  0
ENDTAB
  0
TABLE
  2
DIMSTYLE
 70
     1
  0
DIMSTYLE
  2
STANDARD
 70
     0
  3

  4

  5

  6

  7

 40
1.0
 41
0.1875
 42
0.0625
 43
0.38
 44
0.125
 45
0.0
 46
0.0
 47
0.01
 48
0.01
140
0.15625
141
0.09
142
0.0
143
25.3999999999999986
144
1.0
145
0.0
146
1.0
147
0.09
 71
     1
 72
     0
 73
     1
 74
     1
 75
     0
 76
     0
 77
     0
 78
     4
170
     0
171
     2
172
     0
173
     0
174
     0
175
     0
176
     0
177
     0
178
     0
  0
ENDTAB
  0
ENDSEC
  0
SECTION
  2
BLOCKS
  0
BLOCK
  8
0
  2
$MODEL_SPACE
 70
     0
 10
0.0
 20
0.0
 30
0.0
  3
$MODEL_SPACE
  1

  0
ENDBLK
  5
21
  8
0
  0
BLOCK
 67
     1
  8
0
  2
$PAPER_SPACE
 70
     0
 10
0.0
 20
0.0
 30
0.0
  3
$PAPER_SPACE
  1

  0
ENDBLK
  5
1D
 67
     1
  8
0
  0
BLOCK
  8
0
  2
_FILLED
 70
     0
 10
0.0
 20
0.0
 30
0.0
  3
_FILLED
  1

  0
SOLID
  5
9E2C
  8
0
  6
BYBLOCK
 62
     0
 10
0.0
 20
0.0
 30
0.0
 11
-1.0
 21
0.1666666667
 31
0.0
 12
-1.0
 22
-0.1666666667
 32
0.0
 13
-1.0
 23
-0.1666666667
 33
0.0
  0
ENDBLK
  5
9E2D
  8
0
  6
BYBLOCK
 62
     0
  0
BLOCK
  8
0
  2
A$C6B0F1CD5
 70
     2
 10
0.0
 20
0.0
 30
0.0
  3
A$C6B0F1CD5
  1

  0
ATTDEF
  5
B779
  8
DEFPOINTS
 10
0.0005209962714616
 20
0.000347009907216
 30
0.0
 40
0.001
  1
BATH FAUCET
  3

  2
PRODUCT
 70
     0
1001
ACDBATTR
1070
     0
1070
     1
  0
ATTDEF
  5
B77A
  8
DEFPOINTS
 10
0.0005209962714616
 20
0.0020136765738812
 30
0.0
 40
0.001
  1
SINGULIER
  3

  2
TRADENAME
 70
     0
1001
ACDBATTR
1070
     0
1070
     1
  0
ATTDEF
  5
B77B
  8
DEFPOINTS
 10
0.0005209962714616
 20
0.0036803432405463
 30
0.0
 40
0.001
  1
K-10873W
  3

  2
MODELNUMBER
 70
     0
1001
ACDBATTR
1070
     0
1070
     1
  0
ENDBLK
  5
B77F
  8
0
  0
ENDSEC
  0
SECTION
  2
ENTITIES
  0
LINE
  5
FF2D
  8
0
 10
3523.1807738730358324
 20
161.4247751726003912
 30
0.0
 11
3523.1807738730358324
 21
148.4326491884004042
 31
0.0
  0
LINE
  5
FF2E
  8
0
 10
3523.2595140305361383
 20
148.3539090309004109
 30
0.0
 11
3536.2516400148360844
 21
148.3539090309004109
 31
0.0
  0
LINE
  5
FF2F
  8
0
 10
3536.3303801722349817
 20
148.4326491884004042
 30
0.0
 11
3536.3303801722349817
 21
161.4247751726003912
 31
0.0
  0
LINE
  5
FF30
  8
0
 10
3536.2516400148360844
 20
161.5035153301004129
 30
0.0
 11
3523.2595140305361383
 21
161.5035153301004129
 31
0.0
  0
ARC
  5
FF31
  8
0
 10
3523.2595140305361383
 20
148.4326491884004042
 30
0.0
 40
0.0787401575
 50
180.0
 51
270.0
  0
ARC
  5
FF32
  8
0
 10
3523.2595140305361383
 20
161.4247751726003912
 30
0.0
 40
0.0787401575
 50
90.0
 51
180.0
  0
ARC
  5
FF33
  8
0
 10
3536.2516400148360844
 20
148.4326491884004042
 30
0.0
 40
0.0787401575
 50
270.0
 51
0.0
  0
ARC
  5
FF34
  8
0
 10
3536.2516400148360844
 20
161.4247751726003912
 30
0.0
 40
0.0787401575
 50
0.0
 51
90.0
  0
LINE
  5
FF35
  8
0
 10
3535.7004589124358063
 20
149.1019405269003926
 30
0.0
 11
3535.7004589124358063
 21
160.7554838340003869
 31
0.0
  0
LINE
  5
FF36
  8
0
 10
3523.8106951329359617
 20
160.7554838340003869
 30
0.0
 11
3523.8106951329359617
 21
149.1019405269003926
 31
0.0
  0
LINE
  5
FF37
  8
0
 10
3535.5823486762360517
 20
160.8735940702003973
 30
0.0
 11
3523.9288053691361711
 21
160.8735940702003973
 31
0.0
  0
LINE
  5
FF38
  8
0
 10
3535.5823486762360517
 20
148.9838302907004106
 30
0.0
 11
3523.9288053691361711
 21
148.9838302907004106
 31
0.0
  0
ARC
  5
FF39
  8
0
 10
3535.5823486762360517
 20
149.1019405269003926
 30
0.0
 40
0.118110236199994
 50
270.0
 51
0.0
  0
ARC
  5
FF3A
  8
0
 10
3535.5823486762360517
 20
160.7554838340003869
 30
0.0
 40
0.118110236199994
 50
0.0
 51
90.0
  0
ARC
  5
FF3B
  8
0
 10
3523.9288053691361711
 20
149.1019405269003926
 30
0.0
 40
0.118110236199994
 50
180.0
 51
270.0
  0
ARC
  5
FF3C
  8
0
 10
3523.9288053691361711
 20
160.7554838340003869
 30
0.0
 40
0.118110236199994
 50
90.0
 51
180.0
  0
CIRCLE
  5
FF3D
  8
0
 10
3535.3854982825350817
 20
160.5586334403004116
 30
0.0
 40
0.1524803150000007
  0
CIRCLE
  5
FF3E
  8
0
 10
3535.3854982825350817
 20
160.5586334403004116
 30
0.0
 40
0.1023622046999999
  0
CIRCLE
  5
FF3F
  8
0
 10
3535.3854982825350817
 20
160.5586334403004116
 30
0.0
 40
0.0649606298999999
  0
CIRCLE
  5
FF40
  8
0
 10
3532.9051833219350556
 20
160.5586334403004116
 30
0.0
 40
0.1524803150000007
  0
CIRCLE
  5
FF41
  8
0
 10
3532.9051833219350556
 20
160.5586334403004116
 30
0.0
 40
0.1023622046999999
  0
CIRCLE
  5
FF42
  8
0
 10
3532.9051833219350556
 20
160.5586334403004116
 30
0.0
 40
0.0649606298999999
  0
CIRCLE
  5
FF43
  8
0
 10
3529.7555770227359062
 20
160.5586334403004116
 30
0.0
 40
0.1524803150000007
  0
CIRCLE
  5
FF44
  8
0
 10
3529.7555770227359062
 20
160.5586334403004116
 30
0.0
 40
0.1023622046999999
  0
CIRCLE
  5
FF45
  8
0
 10
3529.7555770227359062
 20
160.5586334403004116
 30
0.0
 40
0.0649606298999999
  0
CIRCLE
  5
FF46
  8
0
 10
3526.6059707235358474
 20
160.5586334403004116
 30
0.0
 40
0.1524803150000007
  0
CIRCLE
  5
FF47
  8
0
 10
3526.6059707235358474
 20
160.5586334403004116
 30
0.0
 40
0.1023622046999999
  0
CIRCLE
  5
FF48
  8
0
 10
3526.6059707235358474
 20
160.5586334403004116
 30
0.0
 40
0.0649606298999999
  0
CIRCLE
  5
FF49
  8
0
 10
3524.1256557628357768
 20
160.5586334403004116
 30
0.0
 40
0.1524803150000007
  0
CIRCLE
  5
FF4A
  8
0
 10
3524.1256557628357768
 20
160.5586334403004116
 30
0.0
 40
0.1023622046999999
  0
CIRCLE
  5
FF4B
  8
0
 10
3524.1256557628357768
 20
160.5586334403004116
 30
0.0
 40
0.0649606298999999
  0
CIRCLE
  5
FF4C
  8
0
 10
3524.1256557628357768
 20
158.0783184797004139
 30
0.0
 40
0.1524803150000007
  0
CIRCLE
  5
FF4D
  8
0
 10
3524.1256557628357768
 20
158.0783184797004139
 30
0.0
 40
0.1023622046999999
  0
CIRCLE
  5
FF4E
  8
0
 10
3524.1256557628357768
 20
158.0783184797004139
 30
0.0
 40
0.0649606298999999
  0
CIRCLE
  5
FF4F
  8
0
 10
3524.1256557628357768
 20
154.9287121805004119
 30
0.0
 40
0.1524803150000007
  0
CIRCLE
  5
FF50
  8
0
 10
3524.1256557628357768
 20
154.9287121805004119
 30
0.0
 40
0.1023622046999999
  0
CIRCLE
  5
FF51
  8
0
 10
3524.1256557628357768
 20
154.9287121805004119
 30
0.0
 40
0.0649606298999999
  0
CIRCLE
  5
FF52
  8
0
 10
3524.1256557628357768
 20
151.7791058812003939
 30
0.0
 40
0.1524803150000007
  0
CIRCLE
  5
FF53
  8
0
 10
3524.1256557628357768
 20
151.7791058812003939
 30
0.0
 40
0.1023622046999999
  0
CIRCLE
  5
FF54
  8
0
 10
3524.1256557628357768
 20
151.7791058812003939
 30
0.0
 40
0.0649606298999999
  0
CIRCLE
  5
FF55
  8
0
 10
3524.1256557628357768
 20
149.2987909206003962
 30
0.0
 40
0.1524803150000007
  0
CIRCLE
  5
FF56
  8
0
 10
3524.1256557628357768
 20
149.2987909206003962
 30
0.0
 40
0.1023622046999999
  0
CIRCLE
  5
FF57
  8
0
 10
3524.1256557628357768
 20
149.2987909206003962
 30
0.0
 40
0.0649606298999999
  0
CIRCLE
  5
FF58
  8
0
 10
3526.6059707235358474
 20
149.2987909206003962
 30
0.0
 40
0.1524803150000007
  0
CIRCLE
  5
FF59
  8
0
 10
3526.6059707235358474
 20
149.2987909206003962
 30
0.0
 40
0.1023622046999999
  0
CIRCLE
  5
FF5A
  8
0
 10
3526.6059707235358474
 20
149.2987909206003962
 30
0.0
 40
0.0649606298999999
  0
CIRCLE
  5
FF5B
  8
0
 10
3529.7555770227359062
 20
149.2987909206003962
 30
0.0
 40
0.1524803150000007
  0
CIRCLE
  5
FF5C
  8
0
 10
3529.7555770227359062
 20
149.2987909206003962
 30
0.0
 40
0.1023622046999999
  0
CIRCLE
  5
FF5D
  8
0
 10
3529.7555770227359062
 20
149.2987909206003962
 30
0.0
 40
0.0649606298999999
  0
CIRCLE
  5
FF5E
  8
0
 10
3532.9051833219350556
 20
149.2987909206003962
 30
0.0
 40
0.1524803150000007
  0
CIRCLE
  5
FF5F
  8
0
 10
3532.9051833219350556
 20
149.2987909206003962
 30
0.0
 40
0.1023622046999999
  0
CIRCLE
  5
FF60
  8
0
 10
3532.9051833219350556
 20
149.2987909206003962
 30
0.0
 40
0.0649606298999999
  0
CIRCLE
  5
FF61
  8
0
 10
3535.3854982825350817
 20
149.2987909206003962
 30
0.0
 40
0.1524803150000007
  0
CIRCLE
  5
FF62
  8
0
 10
3535.3854982825350817
 20
149.2987909206003962
 30
0.0
 40
0.1023622046999999
  0
CIRCLE
  5
FF63
  8
0
 10
3535.3854982825350817
 20
149.2987909206003962
 30
0.0
 40
0.0649606298999999
  0
CIRCLE
  5
FF64
  8
0
 10
3535.3854982825350817
 20
151.7791058812003939
 30
0.0
 40
0.1524803150000007
  0
CIRCLE
  5
FF65
  8
0
 10
3535.3854982825350817
 20
151.7791058812003939
 30
0.0
 40
0.1023622046999999
  0
CIRCLE
  5
FF66
  8
0
 10
3535.3854982825350817
 20
151.7791058812003939
 30
0.0
 40
0.0649606298999999
  0
CIRCLE
  5
FF67
  8
0
 10
3535.3854982825350817
 20
154.9287121805004119
 30
0.0
 40
0.1524803150000007
  0
CIRCLE
  5
FF68
  8
0
 10
3535.3854982825350817
 20
154.9287121805004119
 30
0.0
 40
0.1023622046999999
  0
CIRCLE
  5
FF69
  8
0
 10
3535.3854982825350817
 20
154.9287121805004119
 30
0.0
 40
0.0649606298999999
  0
CIRCLE
  5
FF6A
  8
0
 10
3535.3854982825350817
 20
158.0783184797004139
 30
0.0
 40
0.1524803150000007
  0
CIRCLE
  5
FF6B
  8
0
 10
3535.3854982825350817
 20
158.0783184797004139
 30
0.0
 40
0.1023622046999999
  0
CIRCLE
  5
FF6C
  8
0
 10
3535.3854982825350817
 20
158.0783184797004139
 30
0.0
 40
0.0649606298999999
  0
CIRCLE
  5
FF6D
  8
0
 10
3529.755577022685884
 20
154.9287121805004119
 30
0.0
 40
0.5039370078999998
  0
CIRCLE
  5
FF6E
  8
0
 10
3529.755577022685884
 20
154.9287121805004119
 30
0.0
 40
0.4351000236999996
  0
LINE
  5
FF6F
  8
0
 10
3529.5517156530331704
 20
155.6176885584004026
 30
0.0
 11
3529.9594383923390524
 21
155.6176885584004026
 31
0.0
  0
LINE
  5
FF70
  8
0
 10
3529.9594383919998108
 20
154.2397358025004053
 30
0.0
 11
3529.5517156533710477
 21
154.2397358025004053
 31
0.0
  0
CIRCLE
  5
FF71
  8
0
 10
3529.755577022685884
 20
154.9287121805004119
 30
0.0
 40
0.4960629920999997
  0
CIRCLE
  5
FF72
  8
0
 10
3529.755577022685884
 20
154.9287121805004119
 30
0.0
 40
0.2933070865999998
  0
CIRCLE
  5
FF73
  8
0
 10
3529.755577022685884
 20
154.9287121805004119
 30
0.0
 40
0.3800000825999996
  0
CIRCLE
  5
FF74
  8
0
 10
3529.755577022685884
 20
154.9287121805004119
 30
0.0
 40
0.0787401574999998
  0
CIRCLE
  5
FF75
  8
0
 10
3529.755577022685884
 20
154.9287121805004119
 30
0.0
 40
0.2440944882
  0
CIRCLE
  5
FF76
  8
0
 10
3529.755577022685884
 20
154.9287121805004119
 30
0.0
 40
0.7185039368999924
  0
CIRCLE
  5
FFB0
  8
0
 10
3529.6340859764859488
 20
155.0959302600003866
 30
0.0
 40
0.0196850394000006
  0
CIRCLE
  5
FFB1
  8
0
 10
3529.6748683612850073
 20
155.0685036827003955
 30
0.0
 40
0.0196850394000006
  0
CIRCLE
  5
FFB2
  8
0
 10
3529.6917053997849507
 20
155.1252888226003961
 30
0.0
 40
0.0196850394000006
  0
CIRCLE
  5
FFB3
  8
0
 10
3529.755577022685884
 20
155.1354050939004026
 30
0.0
 40
0.0196850394000006
  0
CIRCLE
  5
FFB4
  8
0
 10
3529.755577022685884
 20
155.0901295033004033
 30
0.0
 40
0.0196850394000006
  0
CIRCLE
  5
FFB5
  8
0
 10
3529.8194486454849539
 20
155.1252888226003961
 30
0.0
 40
0.0196850394000006
  0
CIRCLE
  5
FFB6
  8
0
 10
3529.8362856840858512
 20
155.0685036827003955
 30
0.0
 40
0.0196850394000006
  0
CIRCLE
  5
FFB7
  8
0
 10
3529.8770680688858192
 20
155.0959302600003866
 30
0.0
 40
0.0196850394000006
  0
CIRCLE
  5
FFB8
  8
0
 10
3529.9227951021857734
 20
155.050203226700404
 30
0.0
 40
0.0196850394000006
  0
CIRCLE
  5
FFB9
  8
0
 10
3529.895368524884816
 20
155.0094208419004076
 30
0.0
 40
0.0196850394000006
  0
CIRCLE
  5
FFBA
  8
0
 10
3529.9521536647848734
 20
154.9925838033003913
 30
0.0
 40
0.0196850394000006
  0
CIRCLE
  5
FFBB
  8
0
 10
3529.9622699360847946
 20
154.9287121805004119
 30
0.0
 40
0.0196850394000006
  0
CIRCLE
  5
FFBC
  8
0
 10
3529.9169943454858185
 20
154.9287121805004119
 30
0.0
 40
0.0196850394000006
  0
CIRCLE
  5
FFBD
  8
0
 10
3529.9521536647848734
 20
154.8648405576003881
 30
0.0
 40
0.0196850394000006
  0
CIRCLE
  5
FFBE
  8
0
 10
3529.9227951021857734
 20
154.8072211342004039
 30
0.0
 40
0.0196850394000006
  0
CIRCLE
  5
FFBF
  8
0
 10
3529.895368524884816
 20
154.8480035191003878
 30
0.0
 40
0.0196850394000006
  0
CIRCLE
  5
FFC0
  8
0
 10
3529.8362856840858512
 20
154.7889206783003999
 30
0.0
 40
0.0196850394000006
  0
CIRCLE
  5
FFC1
  8
0
 10
3529.8770680688858192
 20
154.7614941009003928
 30
0.0
 40
0.0196850394000006
  0
CIRCLE
  5
FFC2
  8
0
 10
3529.8194486454849539
 20
154.7321355383004118
 30
0.0
 40
0.0196850394000006
  0
CIRCLE
  5
FFC3
  8
0
 10
3529.755577022685884
 20
154.7672948576004046
 30
0.0
 40
0.0196850394000006
  0
CIRCLE
  5
FFC4
  8
0
 10
3529.755577022685884
 20
154.7220192671003929
 30
0.0
 40
0.0196850394000006
  0
CIRCLE
  5
FFC5
  8
0
 10
3529.6917053997849507
 20
154.7321355383004118
 30
0.0
 40
0.0196850394000006
  0
CIRCLE
  5
FFC6
  8
0
 10
3529.6748683612850073
 20
154.7889206783003999
 30
0.0
 40
0.0196850394000006
  0
CIRCLE
  5
FFC7
  8
0
 10
3529.6340859764859488
 20
154.7614941009003928
 30
0.0
 40
0.0196850394000006
  0
CIRCLE
  5
FFC8
  8
0
 10
3529.5883589430859502
 20
154.8072211342004039
 30
0.0
 40
0.0196850394000006
  0
CIRCLE
  5
FFC9
  8
0
 10
3529.6157855204860425
 20
154.8480035191003878
 30
0.0
 40
0.0196850394000006
  0
CIRCLE
  5
FFCA
  8
0
 10
3529.5590003804859407
 20
154.8648405576003881
 30
0.0
 40
0.0196850394000006
  0
CIRCLE
  5
FFCB
  8
0
 10
3529.5488841092851544
 20
154.9287121805004119
 30
0.0
 40
0.0196850394000006
  0
CIRCLE
  5
FFCC
  8
0
 10
3529.5941596998859495
 20
154.9287121805004119
 30
0.0
 40
0.0196850394000006
  0
CIRCLE
  5
FFCD
  8
0
 10
3529.6157855204860425
 20
155.0094208419004076
 30
0.0
 40
0.0196850394000006
  0
CIRCLE
  5
FFCE
  8
0
 10
3529.5590003804859407
 20
154.9925838033003913
 30
0.0
 40
0.0196850394000006
  0
CIRCLE
  5
FFCF
  8
0
 10
3529.5883589430859502
 20
155.050203226700404
 30
0.0
 40
0.0196850394000006
  0
ATTDEF
  5
FFD3
  8
DEFPOINTS
 10
3529.7564784659380166
 20
154.9271206773383938
 30
0.0
 40
0.001
  1
K-9302IN
  3

  2
MODELNUMBER
 70
     0
1001
ACDBATTR
1070
     0
1070
     1
  0
ATTDEF
  5
FFD4
  8
DEFPOINTS
 10
3529.7564784659380166
 20
154.9254540106717002
 30
0.0
 40
0.001
  1
KATALYST
  3

  2
TRADENAME
 70
     0
1001
ACDBATTR
1070
     0
1070
     1
  0
ATTDEF
  5
FFD5
  8
DEFPOINTS
 10
3529.7564784659380166
 20
154.9237873440050066
 30
0.0
 40
0.001
  1
SHOWERHEAD
  3

  2
PRODUCT
 70
     0
1001
ACDBATTR
1070
     0
1070
     1
  0
ENDSEC
  0
EOF
