  0
SECTION
  2
HEADER
  9
$ACADVER
  1
AC1009
  9
$INSBASE
 10
1039.7255678129499756
 20
133.5186322695097942
 30
0.0
  9
$EXTMIN
 10
1033.6407493016229182
 20
128.2940711756066037
 30
-0.0000000000112498
  9
$EXTMAX
 10
1045.848537924852053
 20
133.5201269814116927
 30
0.0000000000002956
  9
$LIMMIN
 10
0.0
 20
0.0
  9
$LIMMAX
 10
11.6929133858000007
 20
8.2677165353999982
  9
$ORTHOMODE
 70
     0
  9
$REGENMODE
 70
     1
  9
$FILLMODE
 70
     1
  9
$QTEXTMODE
 70
     0
  9
$MIRRTEXT
 70
     0
  9
$DRAGMODE
 70
     2
  9
$LTSCALE
 40
0.6431102362
  9
$OSMODE
 70
  4095
  9
$ATTMODE
 70
     1
  9
$TEXTSIZE
 40
0.2
  9
$TRACEWID
 40
0.05
  9
$TEXTSTYLE
  7
STANDARD
  9
$CLAYER
  8
0
  9
$CELTYPE
  6
BYLAYER
  9
$CECOLOR
 62
   256
  9
$DIMSCALE
 40
1.0
  9
$DIMASZ
 40
0.1875
  9
$DIMEXO
 40
0.0625
  9
$DIMDLI
 40
0.4443307087
  9
$DIMRND
 40
0.0
  9
$DIMDLE
 40
0.0
  9
$DIMEXE
 40
0.125
  9
$DIMTP
 40
0.01
  9
$DIMTM
 40
0.01
  9
$DIMTXT
 40
1.0
  9
$DIMCEN
 40
0.1052362205
  9
$DIMTSZ
 40
0.0
  9
$DIMTOL
 70
     1
  9
$DIMLIM
 70
     0
  9
$DIMTIH
 70
     0
  9
$DIMTOH
 70
     1
  9
$DIMSE1
 70
     0
  9
$DIMSE2
 70
     0
  9
$DIMTAD
 70
     0
  9
$DIMZIN
 70
     0
  9
$DIMBLK
  1

  9
$DIMASO
 70
     1
  9
$DIMSHO
 70
     1
  9
$DIMPOST
  1
\X
  9
$DIMAPOST
  1

  9
$DIMALT
 70
     1
  9
$DIMALTD
 70
     2
  9
$DIMALTF
 40
25.3999999999999986
  9
$DIMLFAC
 40
1.0
  9
$DIMTOFL
 70
     0
  9
$DIMTVP
 40
0.0
  9
$DIMTIX
 70
     0
  9
$DIMSOXD
 70
     0
  9
$DIMSAH
 70
     0
  9
$DIMBLK1
  1

  9
$DIMBLK2
  1

  9
$DIMSTYLE
  2
STANDARD
  9
$DIMCLRD
 70
     0
  9
$DIMCLRE
 70
     0
  9
$DIMCLRT
 70
     0
  9
$DIMTFAC
 40
1.0
  9
$DIMGAP
 40
0.09
  9
$LUNITS
 70
     2
  9
$LUPREC
 70
     4
  9
$SKETCHINC
 40
0.1
  9
$FILLETRAD
 40
0.0
  9
$AUNITS
 70
     0
  9
$AUPREC
 70
     0
  9
$MENU
  1
.
  9
$ELEVATION
 40
0.0
  9
$PELEVATION
 40
0.0
  9
$THICKNESS
 40
0.0
  9
$LIMCHECK
 70
     0
  9
$BLIPMODE
 70
     0
  9
$CHAMFERA
 40
0.0
  9
$CHAMFERB
 40
0.0
  9
$SKPOLY
 70
     0
  9
$TDCREATE
 40
2458172.5207638889551163
  9
$TDUPDATE
 40
2459381.6722800931893289
  9
$TDINDWG
 40
0.4537044213
  9
$TDUSRTIMER
 40
0.4537044213
  9
$USRTIMER
 70
     1
  9
$ANGBASE
 50
0.0
  9
$ANGDIR
 70
     0
  9
$PDMODE
 70
     0
  9
$PDSIZE
 40
0.3125
  9
$PLINEWID
 40
0.0
  9
$COORDS
 70
     1
  9
$SPLFRAME
 70
     0
  9
$SPLINETYPE
 70
     6
  9
$SPLINESEGS
 70
     8
  9
$ATTDIA
 70
     1
  9
$ATTREQ
 70
     1
  9
$HANDLING
 70
     1
  9
$HANDSEED
  5
C4EA
  9
$SURFTAB1
 70
     6
  9
$SURFTAB2
 70
     6
  9
$SURFTYPE
 70
     6
  9
$SURFU
 70
     6
  9
$SURFV
 70
     6
  9
$UCSNAME
  2

  9
$UCSORG
 10
0.0
 20
0.0
 30
0.0
  9
$UCSXDIR
 10
1.0
 20
0.0
 30
0.0
  9
$UCSYDIR
 10
0.0
 20
1.0
 30
0.0
  9
$PUCSNAME
  2

  9
$PUCSORG
 10
0.0
 20
0.0
 30
0.0
  9
$PUCSXDIR
 10
1.0
 20
0.0
 30
0.0
  9
$PUCSYDIR
 10
0.0
 20
1.0
 30
0.0
  9
$USERI1
 70
     0
  9
$USERI2
 70
     0
  9
$USERI3
 70
     0
  9
$USERI4
 70
     0
  9
$USERI5
 70
     0
  9
$USERR1
 40
0.0
  9
$USERR2
 40
0.0
  9
$USERR3
 40
0.0
  9
$USERR4
 40
0.0
  9
$USERR5
 40
0.0
  9
$WORLDVIEW
 70
     1
  9
$SHADEDGE
 70
     3
  9
$SHADEDIF
 70
    70
  9
$TILEMODE
 70
     1
  9
$MAXACTVP
 70
    64
  9
$PLIMCHECK
 70
     0
  9
$PEXTMIN
 10
1.0000000000000000E+20
 20
1.0000000000000000E+20
 30
1.0000000000000000E+20
  9
$PEXTMAX
 10
-1.0000000000000000E+20
 20
-1.0000000000000000E+20
 30
-1.0000000000000000E+20
  9
$PLIMMIN
 10
0.0
 20
0.0
  9
$PLIMMAX
 10
12.0
 20
9.0
  9
$UNITMODE
 70
     0
  9
$VISRETAIN
 70
     1
  9
$PLINEGEN
 70
     0
  9
$PSLTSCALE
 70
     1
  0
ENDSEC
  0
SECTION
  2
TABLES
  0
TABLE
  2
VPORT
 70
     1
  0
VPORT
  2
*ACTIVE
 70
     0
 10
0.0
 20
0.0
 11
1.0
 21
1.0
 12
573.0024419054077498
 22
41.7739519585794028
 13
0.0
 23
0.0
 14
1.0
 24
1.0
 15
0.0
 25
0.0
 16
0.0
 26
0.0
 36
24.1179433675886514
 17
466.74220170783002
 27
89.133147119929788
 37
0.0
 40
5.2690096891405034
 41
2.6159122085048012
 42
50.0
 43
0.0
 44
0.0
 50
0.0
 51
0.0
 71
     0
 72
   100
 73
     1
 74
     1
 75
     0
 76
     0
 77
     0
 78
     0
  0
ENDTAB
  0
TABLE
  2
LTYPE
 70
     2
  0
LTYPE
  2
CONTINUOUS
 70
     0
  3
Solid line
 72
    65
 73
     0
 40
0.0
  0
LTYPE
  2
PHANTOM2
 70
     0
  3
___ _ _ ___ _ _ ___ _ _ ___ _ _
 72
    65
 73
     6
 40
1.25
 49
0.625
 49
-0.125
 49
0.125
 49
-0.125
 49
0.125
 49
-0.125
  0
ENDTAB
  0
TABLE
  2
LAYER
 70
     2
  0
LAYER
  2
0
 70
     0
 62
   255
  6
CONTINUOUS
  0
LAYER
  2
DEFPOINTS
 70
     0
 62
     7
  6
CONTINUOUS
  0
ENDTAB
  0
TABLE
  2
STYLE
 70
     1
  0
STYLE
  2
STANDARD
 70
     0
 40
0.0
 41
0.8
 50
0.0
 71
     0
 42
0.2
  3
txt
  4

  0
ENDTAB
  0
TABLE
  2
VIEW
 70
     0
  0
ENDTAB
  0
TABLE
  2
UCS
 70
     0
  0
ENDTAB
  0
TABLE
  2
APPID
 70
    11
  0
APPID
  2
ACAD
 70
     0
  0
APPID
  2
ACAD_MLEADERVER
 70
     0
  0
APPID
  2
ACAD_EXEMPT_FROM_CAD_STANDARDS
 70
     0
  0
APPID
  2
ACAD_DSTYLE_DIMJAG
 70
     0
  0
APPID
  2
ACAD_DSTYLE_DIMTALN
 70
     0
  0
APPID
  2
ACAD_NAV_VCDISPLAY
 70
     0
  0
APPID
  2
ACAECLAYERSTANDARD
 70
     0
  0
APPID
  2
ACCMTRANSPARENCY
 70
     0
  0
APPID
  2
DCO15
 70
     0
  0
APPID
  2
ACDBATTR
 70
     0
  0
APPID
  2
ACADANNOTATIVE
 70
     0
  0
ENDTAB
  0
TABLE
  2
DIMSTYLE
 70
     1
  0
DIMSTYLE
  2
STANDARD
 70
     0
  3

  4

  5

  6

  7

 40
1.0
 41
0.1875
 42
0.0625
 43
0.38
 44
0.125
 45
0.0
 46
0.0
 47
0.01
 48
0.01
140
0.15625
141
0.09
142
0.0
143
25.3999999999999986
144
1.0
145
0.0
146
1.0
147
0.09
 71
     1
 72
     0
 73
     1
 74
     1
 75
     0
 76
     0
 77
     0
 78
     4
170
     0
171
     2
172
     0
173
     0
174
     0
175
     0
176
     0
177
     0
178
     0
  0
ENDTAB
  0
ENDSEC
  0
SECTION
  2
BLOCKS
  0
BLOCK
  8
0
  2
$MODEL_SPACE
 70
     0
 10
0.0
 20
0.0
 30
0.0
  3
$MODEL_SPACE
  1

  0
ENDBLK
  5
21
  8
0
  0
BLOCK
 67
     1
  8
0
  2
$PAPER_SPACE
 70
     0
 10
0.0
 20
0.0
 30
0.0
  3
$PAPER_SPACE
  1

  0
ENDBLK
  5
1D
 67
     1
  8
0
  0
ENDSEC
  0
SECTION
  2
ENTITIES
  0
ATTDEF
  5
829
  8
DEFPOINTS
 10
1039.7212295606620955
 20
133.5168793575759025
 30
0.0
 40
0.001
  1
K-944T-4
  3

  2
MODELNUMBER
 70
     0
1001
ACDBATTR
1070
     0
1070
     1
  0
ATTDEF
  5
82A
  8
DEFPOINTS
 10
1039.7212295606620955
 20
133.515212690909209
 30
0.0
 40
0.001
  1
STILLNESS
  3

  2
TRADENAME
 70
     0
1001
ACDBATTR
1070
     0
1070
     1
  0
ATTDEF
  5
82B
  8
DEFPOINTS
 10
1039.7212295606620955
 20
133.5135460242426007
 30
0.0
 40
0.001
  1
BATHROOM SINK FAUCET
  3

  2
PRODUCT
 70
     0
1001
ACDBATTR
1070
     0
1070
     1
  0
LINE
  5
C1DD
  8
0
 10
1040.7205678129500939
 20
133.5186322695097942
 30
0.0
 11
1038.7305678129500848
 21
133.5186322695097942
 31
0.0
  0
LINE
  5
C1DE
  8
0
 10
1040.7205678129500939
 20
133.368474789109797
 30
0.0
 11
1038.7305678129500848
 21
133.368474789109797
 31
0.0
  0
LINE
  5
C1DF
  8
0
 10
1039.3505678129499756
 20
133.368474789109797
 30
0.0
 11
1039.3505678129499756
 21
128.4759357382446012
 31
0.0
  0
LINE
  5
C1E0
  8
0
 10
1040.1005678129499756
 20
133.368474789109797
 30
0.0
 11
1040.1005678129499756
 21
128.4759357382446012
 31
0.0
  0
LINE
  5
C1E1
  8
0
 10
1038.7305678129500848
 20
133.368474789109797
 30
0.0
 11
1038.7305678129500848
 21
133.5186322695097942
 31
0.0
  0
LINE
  5
C1E2
  8
0
 10
1040.7205678129500939
 20
133.368474789109797
 30
0.0
 11
1040.7205678129500939
 21
133.5186322695097942
 31
0.0
  0
ARC
  5
C1E3
  8
0
 10
1039.9573118689629609
 20
128.5002157542261898
 30
0.0
 40
0.145298949285638
 50
303.2431056780790186
 51
350.3805258791550159
  0
ARC
  5
C1E4
  8
0
 10
1039.8165932646229521
 20
128.6899043817342942
 30
0.0
 40
0.3813326683112677
 50
285.9061886286577874
 51
305.3026552884608122
  0
ARC
  5
C1E5
  8
0
 10
1039.7086249098160806
 20
129.124780463304802
 30
0.0
 40
0.8292902887487446
 50
271.170668946681019
 51
284.8456598230649774
  0
ARC
  5
C1E6
  8
0
 10
1039.4938237569360808
 20
128.5002157542261898
 30
0.0
 40
0.145298949285638
 50
189.6194741208450125
 51
236.7568943219210098
  0
ARC
  5
C1E7
  8
0
 10
1039.6345423612760897
 20
128.6899043817342942
 30
0.0
 40
0.3813326683112677
 50
234.6973447115391878
 51
254.0938113713422126
  0
ARC
  5
C1E8
  8
0
 10
1039.7425107160829612
 20
129.124780463304802
 30
0.0
 40
0.8292902887487391
 50
255.1543401769349089
 51
268.829331053318981
  0
ARC
  5
C1E9
  8
0
 10
1039.4925227105040904
 20
128.8464226038285858
 30
0.0
 40
0.1444527425223043
 50
190.6705124805260994
 51
237.328651215743804
  0
ARC
  5
C1EA
  8
0
 10
1039.684189535780888
 20
129.1453030152582073
 30
0.0
 40
0.4995100227574858
 50
237.328651215743804
 51
259.2009266498637885
  0
ARC
  5
C1EB
  8
0
 10
1039.7235715961430742
 20
129.3517691470802902
 30
0.0
 40
0.7096985340227117
 50
259.2009266498637885
 51
270.1611599057609965
  0
ARC
  5
C1EC
  8
0
 10
1039.9586129153949514
 20
128.8464226038285858
 30
0.0
 40
0.1444527425223043
 50
302.6713487842562245
 51
349.329487519472309
  0
ARC
  5
C1ED
  8
0
 10
1039.7669460901179264
 20
129.1453030152582073
 30
0.0
 40
0.4995100227574858
 50
280.7990733501362115
 51
302.6713487842562245
  0
ARC
  5
C1EE
  8
0
 10
1039.7275640297571044
 20
129.3517691470802902
 30
0.0
 40
0.7096985340227117
 50
269.8388400942388898
 51
280.7990733501362115
  0
LINE
  5
C1EF
  8
0
 10
1045.792575686949931
 20
131.2689472301098021
 30
0.0
 11
1045.792575686949931
 21
131.6289472301097874
 31
0.0
  0
LINE
  5
C1F0
  8
0
 10
1042.7225756869499946
 20
133.368474789109797
 30
0.0
 11
1042.7225756869499946
 21
133.5186322695097942
 31
0.0
  0
LINE
  5
C1F1
  8
0
 10
1043.1325756869500765
 20
131.2689472301098021
 30
0.0
 11
1043.1325756869500765
 21
131.6289472301097874
 31
0.0
  0
LINE
  5
C1F2
  8
0
 10
1042.7225756869499946
 20
133.368474789109797
 30
0.0
 11
1044.6025756869501038
 21
133.368474789109797
 31
0.0
  0
LINE
  5
C1F3
  8
0
 10
1042.7225756869499946
 20
133.5186322695097942
 30
0.0
 11
1044.6025756869501038
 21
133.5186322695097942
 31
0.0
  0
LINE
  5
C1F4
  8
0
 10
1044.6025756869501038
 20
133.368474789109797
 30
0.0
 11
1044.6025756869501038
 21
133.5186322695097942
 31
0.0
  0
LINE
  5
C1F5
  8
0
 10
1043.1525756869500583
 20
131.2489472301097919
 30
0.0
 11
1045.7725756869499492
 21
131.2489472301097919
 31
0.0
  0
LINE
  5
C1F6
  8
0
 10
1045.7725756869499492
 20
131.6489472301097976
 30
0.0
 11
1043.1325756869500765
 21
131.6489472301097976
 31
0.0
  0
LINE
  5
C1F7
  8
0
 10
1044.1925756869500219
 20
131.6489472301097976
 30
0.0
 11
1044.1925756869500219
 21
133.3584747891098061
 31
0.0
  0
ARC
  5
C1F8
  8
0
 10
1043.1525756869500583
 20
131.2689472301098021
 30
0.0
 40
0.02
 50
180.0000000000048885
 51
270.0
  0
ARC
  5
C1F9
  8
0
 10
1045.7725756869499492
 20
131.2689472301098021
 30
0.0
 40
0.02
 50
270.0000000000130171
 51
359.9999999999852776
  0
ARC
  5
C1FA
  8
0
 10
1045.7725756869499492
 20
131.6289472301097874
 30
0.0
 40
0.02
 50
0.0000000000097707
 51
89.9999999999869686
  0
ARC
  5
C1FB
  8
0
 10
1043.1525756869500583
 20
131.6289472301097874
 30
0.0
 40
0.02
 50
90.0
 51
180.0
  0
LINE
  5
C1FC
  8
0
 10
1043.1325756869500765
 20
131.6489472301097976
 30
0.0
 11
1043.1325756869500765
 21
133.3584747891098061
 31
0.0
  0
ARC
  5
C1FD
  8
0
 10
1044.182575686950031
 20
133.3584747891098061
 30
0.0
 40
0.01
 50
0.0
 51
90.0
  0
ARC
  5
C1FE
  8
0
 10
1043.1425756869500674
 20
133.3584747891098061
 30
0.0
 40
0.01
 50
90.0
 51
180.0
  0
LINE
  5
C1FF
  8
0
 10
1044.177657117327044
 20
131.2689472301098021
 30
0.0
 11
1044.177657117327044
 21
131.6289472301097874
 31
0.0
  0
ARC
  5
C200
  8
0
 10
1044.1576571173270622
 20
131.2689472301098021
 30
0.0
 40
0.02
 50
270.0
 51
0.0
  0
ARC
  5
C201
  8
0
 10
1044.1576571173270622
 20
131.6289472301097874
 30
0.0
 40
0.02
 50
0.0
 51
90.0
  0
LINE
  5
C202
  8
0
 10
1033.6585599389500203
 20
131.2689472301098021
 30
0.0
 11
1033.6585599389500203
 21
131.6289472301097874
 31
0.0
  0
LINE
  5
C203
  8
0
 10
1036.7285599389490471
 20
133.368474789109797
 30
0.0
 11
1036.7285599389490471
 21
133.5186322695097942
 31
0.0
  0
LINE
  5
C204
  8
0
 10
1036.3185599389501022
 20
131.2689472301098021
 30
0.0
 11
1036.3185599389501022
 21
131.6289472301097874
 31
0.0
  0
LINE
  5
C205
  8
0
 10
1036.7285599389490471
 20
133.368474789109797
 30
0.0
 11
1034.8485599389500749
 21
133.368474789109797
 31
0.0
  0
LINE
  5
C206
  8
0
 10
1036.7285599389490471
 20
133.5186322695097942
 30
0.0
 11
1034.8485599389500749
 21
133.5186322695097942
 31
0.0
  0
LINE
  5
C207
  8
0
 10
1034.8485599389500749
 20
133.368474789109797
 30
0.0
 11
1034.8485599389500749
 21
133.5186322695097942
 31
0.0
  0
LINE
  5
C208
  8
0
 10
1036.298559938949893
 20
131.2489472301097919
 30
0.0
 11
1033.6785599389500021
 21
131.2489472301097919
 31
0.0
  0
LINE
  5
C209
  8
0
 10
1033.6785599389500021
 20
131.6489472301097976
 30
0.0
 11
1036.3185599389501022
 21
131.6489472301097976
 31
0.0
  0
LINE
  5
C20A
  8
0
 10
1035.2585599389499293
 20
131.6489472301097976
 30
0.0
 11
1035.2585599389499293
 21
133.3584747891098061
 31
0.0
  0
ARC
  5
C20B
  8
0
 10
1036.298559938949893
 20
131.2689472301098021
 30
0.0
 40
0.02
 50
270.0
 51
359.9999999999951115
  0
ARC
  5
C20C
  8
0
 10
1033.6785599389500021
 20
131.2689472301098021
 30
0.0
 40
0.02
 50
180.0000000000146088
 51
269.9999999999869829
  0
ARC
  5
C20D
  8
0
 10
1033.6785599389500021
 20
131.6289472301097874
 30
0.0
 40
0.02
 50
90.0000000000130314
 51
179.9999999999901945
  0
ARC
  5
C20E
  8
0
 10
1036.298559938949893
 20
131.6289472301097874
 30
0.0
 40
0.02
 50
0.0
 51
90.0
  0
LINE
  5
C20F
  8
0
 10
1036.3185599389501022
 20
131.6489472301097976
 30
0.0
 11
1036.3185599389501022
 21
133.3584747891098061
 31
0.0
  0
ARC
  5
C210
  8
0
 10
1035.2685599389499203
 20
133.3584747891098061
 30
0.0
 40
0.01
 50
90.0
 51
180.0
  0
ARC
  5
C211
  8
0
 10
1036.3085599389501112
 20
133.3584747891098061
 30
0.0
 40
0.01
 50
0.0
 51
90.0
  0
LINE
  5
C212
  8
0
 10
1035.2734785085719977
 20
131.2689472301098021
 30
0.0
 11
1035.2734785085719977
 21
131.6289472301097874
 31
0.0
  0
ARC
  5
C213
  8
0
 10
1035.2934785085719795
 20
131.2689472301098021
 30
0.0
 40
0.02
 50
180.0
 51
270.0
  0
ARC
  5
C214
  8
0
 10
1035.2934785085719795
 20
131.6289472301097874
 30
0.0
 40
0.02
 50
90.0
 51
180.0
  0
ENDSEC
  0
EOF
