  0
SECTION
  2
HEADER
  9
$ACADVER
  1
AC1009
  9
$INSBASE
 10
1004.3364712986709719
 20
140.4513717546489886
 30
0.0
  9
$EXTMIN
 10
998.1853167762260455
 20
134.4520432355743935
 30
-0.0000000349181948
  9
$EXTMAX
 10
1010.4715346567089682
 20
140.4531225699923027
 30
0.0000000814935746
  9
$LIMMIN
 10
0.0
 20
0.0
  9
$LIMMAX
 10
11.6929133858000007
 20
8.2677165353999982
  9
$ORTHOMODE
 70
     0
  9
$REGENMODE
 70
     1
  9
$FILLMODE
 70
     1
  9
$QTEXTMODE
 70
     0
  9
$MIRRTEXT
 70
     0
  9
$DRAGMODE
 70
     2
  9
$LTSCALE
 40
0.6431102362
  9
$OSMODE
 70
  2039
  9
$ATTMODE
 70
     1
  9
$TEXTSIZE
 40
0.2
  9
$TRACEWID
 40
0.05
  9
$TEXTSTYLE
  7
STANDARD
  9
$CLAYER
  8
0
  9
$CELTYPE
  6
BYLAYER
  9
$CECOLOR
 62
   256
  9
$DIMSCALE
 40
1.0
  9
$DIMASZ
 40
0.1875
  9
$DIMEXO
 40
0.0625
  9
$DIMDLI
 40
0.4443307087
  9
$DIMRND
 40
0.0
  9
$DIMDLE
 40
0.0
  9
$DIMEXE
 40
0.125
  9
$DIMTP
 40
0.01
  9
$DIMTM
 40
0.01
  9
$DIMTXT
 40
1.0
  9
$DIMCEN
 40
0.1052362205
  9
$DIMTSZ
 40
0.0
  9
$DIMTOL
 70
     1
  9
$DIMLIM
 70
     0
  9
$DIMTIH
 70
     0
  9
$DIMTOH
 70
     1
  9
$DIMSE1
 70
     0
  9
$DIMSE2
 70
     0
  9
$DIMTAD
 70
     0
  9
$DIMZIN
 70
     0
  9
$DIMBLK
  1

  9
$DIMASO
 70
     1
  9
$DIMSHO
 70
     1
  9
$DIMPOST
  1
\X
  9
$DIMAPOST
  1

  9
$DIMALT
 70
     1
  9
$DIMALTD
 70
     2
  9
$DIMALTF
 40
25.3999999999999986
  9
$DIMLFAC
 40
1.0
  9
$DIMTOFL
 70
     0
  9
$DIMTVP
 40
0.0
  9
$DIMTIX
 70
     0
  9
$DIMSOXD
 70
     0
  9
$DIMSAH
 70
     0
  9
$DIMBLK1
  1

  9
$DIMBLK2
  1

  9
$DIMSTYLE
  2
STANDARD
  9
$DIMCLRD
 70
     0
  9
$DIMCLRE
 70
     0
  9
$DIMCLRT
 70
     0
  9
$DIMTFAC
 40
1.0
  9
$DIMGAP
 40
0.09
  9
$LUNITS
 70
     2
  9
$LUPREC
 70
     4
  9
$SKETCHINC
 40
0.1
  9
$FILLETRAD
 40
0.0
  9
$AUNITS
 70
     0
  9
$AUPREC
 70
     0
  9
$MENU
  1
.
  9
$ELEVATION
 40
0.0
  9
$PELEVATION
 40
0.0
  9
$THICKNESS
 40
0.0
  9
$LIMCHECK
 70
     0
  9
$BLIPMODE
 70
     0
  9
$CHAMFERA
 40
0.0
  9
$CHAMFERB
 40
0.0
  9
$SKPOLY
 70
     0
  9
$TDCREATE
 40
2458172.5207638889551163
  9
$TDUPDATE
 40
2459328.7747916667722166
  9
$TDINDWG
 40
0.4539243287
  9
$TDUSRTIMER
 40
0.4539243287
  9
$USRTIMER
 70
     1
  9
$ANGBASE
 50
0.0
  9
$ANGDIR
 70
     0
  9
$PDMODE
 70
     0
  9
$PDSIZE
 40
0.3125
  9
$PLINEWID
 40
0.0
  9
$COORDS
 70
     1
  9
$SPLFRAME
 70
     0
  9
$SPLINETYPE
 70
     6
  9
$SPLINESEGS
 70
     8
  9
$ATTDIA
 70
     1
  9
$ATTREQ
 70
     1
  9
$HANDLING
 70
     1
  9
$HANDSEED
  5
CECF
  9
$SURFTAB1
 70
     6
  9
$SURFTAB2
 70
     6
  9
$SURFTYPE
 70
     6
  9
$SURFU
 70
     6
  9
$SURFV
 70
     6
  9
$UCSNAME
  2

  9
$UCSORG
 10
0.0
 20
0.0
 30
0.0
  9
$UCSXDIR
 10
1.0
 20
0.0
 30
0.0
  9
$UCSYDIR
 10
0.0
 20
1.0
 30
0.0
  9
$PUCSNAME
  2

  9
$PUCSORG
 10
0.0
 20
0.0
 30
0.0
  9
$PUCSXDIR
 10
1.0
 20
0.0
 30
0.0
  9
$PUCSYDIR
 10
0.0
 20
1.0
 30
0.0
  9
$USERI1
 70
     0
  9
$USERI2
 70
     0
  9
$USERI3
 70
     0
  9
$USERI4
 70
     0
  9
$USERI5
 70
     0
  9
$USERR1
 40
0.0
  9
$USERR2
 40
0.0
  9
$USERR3
 40
0.0
  9
$USERR4
 40
0.0
  9
$USERR5
 40
0.0
  9
$WORLDVIEW
 70
     1
  9
$SHADEDGE
 70
     3
  9
$SHADEDIF
 70
    70
  9
$TILEMODE
 70
     1
  9
$MAXACTVP
 70
    64
  9
$PLIMCHECK
 70
     0
  9
$PEXTMIN
 10
1.0000000000000000E+20
 20
1.0000000000000000E+20
 30
1.0000000000000000E+20
  9
$PEXTMAX
 10
-1.0000000000000000E+20
 20
-1.0000000000000000E+20
 30
-1.0000000000000000E+20
  9
$PLIMMIN
 10
0.0
 20
0.0
  9
$PLIMMAX
 10
12.0
 20
9.0
  9
$UNITMODE
 70
     0
  9
$VISRETAIN
 70
     1
  9
$PLINEGEN
 70
     0
  9
$PSLTSCALE
 70
     1
  0
ENDSEC
  0
SECTION
  2
TABLES
  0
TABLE
  2
VPORT
 70
     1
  0
VPORT
  2
*ACTIVE
 70
     0
 10
0.0
 20
0.0
 11
1.0
 21
1.0
 12
537.5862240086371457
 22
48.3194357828535885
 13
0.0
 23
0.0
 14
1.0
 24
1.0
 15
0.0
 25
0.0
 16
0.0
 26
0.0
 36
24.1179433675886514
 17
466.74220170783002
 27
89.133147119929788
 37
0.0
 40
6.0510189682688198
 41
2.6486111111111099
 42
50.0
 43
0.0
 44
0.0
 50
0.0
 51
0.0
 71
     0
 72
   100
 73
     1
 74
     1
 75
     0
 76
     0
 77
     0
 78
     0
  0
ENDTAB
  0
TABLE
  2
LTYPE
 70
     2
  0
LTYPE
  2
CONTINUOUS
 70
     0
  3
Solid line
 72
    65
 73
     0
 40
0.0
  0
LTYPE
  2
PHANTOM2
 70
     0
  3
___ _ _ ___ _ _ ___ _ _ ___ _ _
 72
    65
 73
     6
 40
1.25
 49
0.625
 49
-0.125
 49
0.125
 49
-0.125
 49
0.125
 49
-0.125
  0
ENDTAB
  0
TABLE
  2
LAYER
 70
     2
  0
LAYER
  2
0
 70
     0
 62
   255
  6
CONTINUOUS
  0
LAYER
  2
DEFPOINTS
 70
     0
 62
     7
  6
CONTINUOUS
  0
ENDTAB
  0
TABLE
  2
STYLE
 70
     1
  0
STYLE
  2
STANDARD
 70
     0
 40
0.0
 41
0.8
 50
0.0
 71
     0
 42
0.2
  3
txt
  4

  0
ENDTAB
  0
TABLE
  2
VIEW
 70
     0
  0
ENDTAB
  0
TABLE
  2
UCS
 70
     0
  0
ENDTAB
  0
TABLE
  2
APPID
 70
    11
  0
APPID
  2
ACAD
 70
     0
  0
APPID
  2
ACAD_MLEADERVER
 70
     0
  0
APPID
  2
ACAD_EXEMPT_FROM_CAD_STANDARDS
 70
     0
  0
APPID
  2
ACAD_DSTYLE_DIMJAG
 70
     0
  0
APPID
  2
ACAD_DSTYLE_DIMTALN
 70
     0
  0
APPID
  2
ACAD_NAV_VCDISPLAY
 70
     0
  0
APPID
  2
ACAECLAYERSTANDARD
 70
     0
  0
APPID
  2
ACCMTRANSPARENCY
 70
     0
  0
APPID
  2
DCO15
 70
     0
  0
APPID
  2
ACDBATTR
 70
     0
  0
APPID
  2
ACADANNOTATIVE
 70
     0
  0
ENDTAB
  0
TABLE
  2
DIMSTYLE
 70
     1
  0
DIMSTYLE
  2
STANDARD
 70
     0
  3

  4

  5

  6

  7

 40
1.0
 41
0.1875
 42
0.0625
 43
0.38
 44
0.125
 45
0.0
 46
0.0
 47
0.01
 48
0.01
140
0.15625
141
0.09
142
0.0
143
25.3999999999999986
144
1.0
145
0.0
146
1.0
147
0.09
 71
     1
 72
     0
 73
     1
 74
     1
 75
     0
 76
     0
 77
     0
 78
     4
170
     0
171
     2
172
     0
173
     0
174
     0
175
     0
176
     0
177
     0
178
     0
  0
ENDTAB
  0
ENDSEC
  0
SECTION
  2
BLOCKS
  0
BLOCK
  8
0
  2
$MODEL_SPACE
 70
     0
 10
0.0
 20
0.0
 30
0.0
  3
$MODEL_SPACE
  1

  0
ENDBLK
  5
21
  8
0
  0
BLOCK
 67
     1
  8
0
  2
$PAPER_SPACE
 70
     0
 10
0.0
 20
0.0
 30
0.0
  3
$PAPER_SPACE
  1

  0
ENDBLK
  5
1D
 67
     1
  8
0
  0
BLOCK
  8
0
  2
_FILLED
 70
     0
 10
0.0
 20
0.0
 30
0.0
  3
_FILLED
  1

  0
SOLID
  5
C1E3
  8
0
  6
BYBLOCK
 62
     0
 10
0.0
 20
0.0
 30
0.0
 11
-1.0
 21
0.1666666667
 31
0.0
 12
-1.0
 22
-0.1666666667
 32
0.0
 13
-1.0
 23
-0.1666666667
 33
0.0
  0
ENDBLK
  5
C1E4
  8
0
  6
BYBLOCK
 62
     0
  0
ENDSEC
  0
SECTION
  2
ENTITIES
  0
LINE
  5
C753
  8
0
 10
1005.3314712986709765
 20
140.4513717546489886
 30
0.0
 11
1003.3414712986709674
 21
140.4513717546489886
 31
0.0
  0
LINE
  5
C754
  8
0
 10
1005.3314712986709765
 20
140.3012142742489914
 30
0.0
 11
1003.3414712986709674
 21
140.3012142742489914
 31
0.0
  0
LINE
  5
C755
  8
0
 10
1003.9614712986709719
 20
140.3012142742489914
 30
0.0
 11
1003.9614715041440149
 21
134.6323324818195033
 31
0.0
  0
LINE
  5
C756
  8
0
 10
1004.7114712986709719
 20
140.3012142742489914
 30
0.0
 11
1004.7114715041440149
 21
134.6323324818195033
 31
0.0
  0
LINE
  5
C757
  8
0
 10
1003.3414712986709674
 20
140.3012142742489914
 30
0.0
 11
1003.3414712986709674
 21
140.4513717546489886
 31
0.0
  0
LINE
  5
C758
  8
0
 10
1005.3314712986709765
 20
140.3012142742489914
 30
0.0
 11
1005.3314712986709765
 21
140.4513717546489886
 31
0.0
  0
ARC
  5
C759
  8
0
 10
1004.5682155601570003
 20
134.6566124978010066
 30
0.0
 40
0.145298949285638
 50
303.2431056780790186
 51
350.380525879153879
  0
ARC
  5
C75A
  8
0
 10
1004.4274969558169914
 20
134.8463011253091111
 30
0.0
 40
0.3813326683112677
 50
285.9061886286580147
 51
305.3026552884599027
  0
ARC
  5
C75B
  8
0
 10
1004.3195286010100062
 20
135.2811772068795904
 30
0.0
 40
0.8292902887487446
 50
271.170668946681019
 51
284.845659823065489
  0
ARC
  5
C75C
  8
0
 10
1004.1047274481300065
 20
134.6566124978010066
 30
0.0
 40
0.145298949285638
 50
189.6194741208460925
 51
236.7568943219210098
  0
ARC
  5
C75D
  8
0
 10
1004.2454460524700153
 20
134.8463011253091111
 30
0.0
 40
0.3813326683112677
 50
234.6973447115400973
 51
254.0938113713419
  0
ARC
  5
C75E
  8
0
 10
1004.3534144072770005
 20
135.2811772068795904
 30
0.0
 40
0.8292902887487391
 50
255.154340176934511
 51
268.829331053318981
  0
ARC
  5
C75F
  8
0
 10
1004.1034264016990392
 20
135.0028193474034026
 30
0.0
 40
0.1444527425223043
 50
190.6705124805241098
 51
237.3286512157434061
  0
ARC
  5
C760
  8
0
 10
1004.295093226975041
 20
135.3016997588331094
 30
0.0
 40
0.4995100227574858
 50
237.3286512157434061
 51
259.2009266498636748
  0
ARC
  5
C761
  8
0
 10
1004.3344752873369998
 20
135.5081658906551922
 30
0.0
 40
0.7096985340227117
 50
259.2009266498636748
 51
270.1611599057609965
  0
ARC
  5
C762
  8
0
 10
1004.5695166065889907
 20
135.0028193474034026
 30
0.0
 40
0.1444527425223043
 50
302.6713487842566224
 51
349.3294875194742986
  0
ARC
  5
C763
  8
0
 10
1004.3778497813119657
 20
135.3016997588331094
 30
0.0
 40
0.4995100227574858
 50
280.7990733501363252
 51
302.6713487842566224
  0
ARC
  5
C764
  8
0
 10
1004.3384677209510301
 20
135.5081658906551922
 30
0.0
 40
0.7096985340227117
 50
269.8388400942388898
 51
280.7990733501363252
  0
LINE
  5
C765
  8
0
 10
998.2064712986215227
 20
137.6363717546489909
 30
0.0
 11
998.2064712986215227
 21
137.9963717546490045
 31
0.0
  0
LINE
  5
C766
  8
0
 10
1001.3314712986209543
 20
140.3012142742489914
 30
0.0
 11
1001.3314712986209543
 21
140.4513717546489886
 31
0.0
  0
LINE
  5
C767
  8
0
 10
1000.8664712986210361
 20
137.6363717546489909
 30
0.0
 11
1000.8664712986210361
 21
137.9963717546490045
 31
0.0
  0
LINE
  5
C768
  8
0
 10
1001.3314712986209543
 20
140.3012142742489914
 30
0.0
 11
999.341471298621741
 21
140.3012142742489914
 31
0.0
  0
LINE
  5
C769
  8
0
 10
1001.3314712986209543
 20
140.4513717546489886
 30
0.0
 11
999.341471298621741
 21
140.4513717546489886
 31
0.0
  0
LINE
  5
C76A
  8
0
 10
999.341471298621741
 20
140.3012142742489914
 30
0.0
 11
999.341471298621741
 21
140.4513717546489886
 31
0.0
  0
LINE
  5
C76B
  8
0
 10
1000.8464712986210543
 20
137.6163717546490091
 30
0.0
 11
998.2264712986213908
 21
137.6163717546490091
 31
0.0
  0
LINE
  5
C76C
  8
0
 10
998.2264712986213908
 20
138.0163717546489863
 30
0.0
 11
1000.8464712986210543
 21
138.0163717546489863
 31
0.0
  0
LINE
  5
C76D
  8
0
 10
999.8064712986216591
 20
138.0308717546490129
 30
0.0
 11
999.8064712986216591
 21
140.3012142742489914
 31
0.0
  0
ARC
  5
C76E
  8
0
 10
1000.8464712986210543
 20
137.6363717546489909
 30
0.0
 40
0.02
 50
270.0
 51
359.9999999999951115
  0
ARC
  5
C76F
  8
0
 10
998.2264712986213908
 20
137.6363717546489909
 30
0.0
 40
0.02
 50
180.0000000000146088
 51
269.9999999999869829
  0
ARC
  5
C770
  8
0
 10
998.2264712986213908
 20
137.9963717546490045
 30
0.0
 40
0.02
 50
90.0000000000130314
 51
179.9999999999901945
  0
ARC
  5
C771
  8
0
 10
1000.8464712986210543
 20
137.9963717546490045
 30
0.0
 40
0.02
 50
0.0
 51
90.0
  0
LINE
  5
C772
  8
0
 10
1000.8664712986210361
 20
138.0308717546490129
 30
0.0
 11
1000.8664712986210361
 21
140.3012142742489914
 31
0.0
  0
LINE
  5
C773
  8
0
 10
999.8213898682441823
 20
137.6363717546489909
 30
0.0
 11
999.8213898682441823
 21
137.9963717546490045
 31
0.0
  0
ARC
  5
C774
  8
0
 10
999.8413898682440504
 20
137.6363717546489909
 30
0.0
 40
0.02
 50
180.0
 51
270.0
  0
ARC
  5
C775
  8
0
 10
999.8413898682440504
 20
137.9963717546490045
 30
0.0
 40
0.02
 50
90.0
 51
180.0
  0
ARC
  5
CC8D
  8
0
 10
999.8114712986215409
 20
138.0308717546490129
 30
0.0
 40
0.0050000000000022
 50
180.0000000000194973
 51
269.9999999999739089
  0
LINE
  5
CC8E
  8
0
 10
999.8114712986215409
 20
138.0258717546489891
 30
0.0
 11
1000.8614712986210407
 21
138.0258717546485059
 31
0.0
  0
ARC
  5
CC8F
  8
0
 10
1000.8614712986210407
 20
138.0308717546485013
 30
0.0
 40
0.0049999999999972
 50
269.999999999980389
 51
0.0000000053934065
  0
LINE
  5
CC90
  8
0
 10
1000.8164712986209679
 20
138.0258717546485059
 30
0.0
 11
1000.8164712986209679
 21
138.0163717546489863
 31
0.0
  0
LINE
  5
CC91
  8
0
 10
999.8564712986215
 20
138.0258717546489891
 30
0.0
 11
999.8564712986215
 21
138.0163717546489863
 31
0.0
  0
LINE
  5
CC93
  8
0
 10
1010.4664712987209896
 20
137.6363717546489909
 30
0.0
 11
1010.4664712987209896
 21
137.9963717546490045
 31
0.0
  0
LINE
  5
CC94
  8
0
 10
1007.3414712987209896
 20
140.3012142742489914
 30
0.0
 11
1007.3414712987209896
 21
140.4513717546489886
 31
0.0
  0
LINE
  5
CC95
  8
0
 10
1007.8064712987210214
 20
137.6363717546489909
 30
0.0
 11
1007.8064712987210214
 21
137.9963717546490045
 31
0.0
  0
LINE
  5
CC96
  8
0
 10
1007.3414712987209896
 20
140.3012142742489914
 30
0.0
 11
1009.3314712987209987
 21
140.3012142742489914
 31
0.0
  0
LINE
  5
CC97
  8
0
 10
1007.3414712987209896
 20
140.4513717546489886
 30
0.0
 11
1009.3314712987209987
 21
140.4513717546489886
 31
0.0
  0
LINE
  5
CC98
  8
0
 10
1009.3314712987209987
 20
140.3012142742489914
 30
0.0
 11
1009.3314712987209987
 21
140.4513717546489886
 31
0.0
  0
LINE
  5
CC99
  8
0
 10
1007.8264712987210032
 20
137.6163717546490091
 30
0.0
 11
1010.4464712987210078
 21
137.6163717546490091
 31
0.0
  0
LINE
  5
CC9A
  8
0
 10
1010.4464712987210078
 20
138.0163717546489863
 30
0.0
 11
1007.8264712987210032
 21
138.0163717546489863
 31
0.0
  0
LINE
  5
CC9B
  8
0
 10
1008.8664712987209668
 20
138.0308717546490129
 30
0.0
 11
1008.8664712987209668
 21
140.3012142742489914
 31
0.0
  0
ARC
  5
CC9C
  8
0
 10
1007.8264712987210032
 20
137.6363717546489909
 30
0.0
 40
0.02
 50
180.0000000000048885
 51
270.0
  0
ARC
  5
CC9D
  8
0
 10
1010.4464712987210078
 20
137.6363717546489909
 30
0.0
 40
0.02
 50
270.0000000000130171
 51
359.9999999999852776
  0
ARC
  5
CC9E
  8
0
 10
1010.4464712987210078
 20
137.9963717546490045
 30
0.0
 40
0.02
 50
0.0000000000097707
 51
89.9999999999869686
  0
ARC
  5
CC9F
  8
0
 10
1007.8264712987210032
 20
137.9963717546490045
 30
0.0
 40
0.02
 50
90.0
 51
180.0
  0
LINE
  5
CCA0
  8
0
 10
1007.8064712987210214
 20
138.0308717546490129
 30
0.0
 11
1007.8064712987210214
 21
140.3012142742489914
 31
0.0
  0
LINE
  5
CCA1
  8
0
 10
1008.8515527290990121
 20
137.6363717546489909
 30
0.0
 11
1008.8515527290990121
 21
137.9963717546490045
 31
0.0
  0
ARC
  5
CCA2
  8
0
 10
1008.8315527290980071
 20
137.6363717546489909
 30
0.0
 40
0.02
 50
270.0
 51
0.0
  0
ARC
  5
CCA3
  8
0
 10
1008.8315527290980071
 20
137.9963717546490045
 30
0.0
 40
0.02
 50
0.0
 51
90.0
  0
ARC
  5
CCAC
  8
0
 10
1008.8614712987209714
 20
138.0308717546490129
 30
0.0
 40
0.0050000000000022
 50
270.0000000000259774
 51
359.9999999999789111
  0
LINE
  5
CCAD
  8
0
 10
1008.8614712987209714
 20
138.0258717546489891
 30
0.0
 11
1007.8114712987210169
 21
138.0258717546485059
 31
0.0
  0
ARC
  5
CCAE
  8
0
 10
1007.8114712987210169
 20
138.0308717546485013
 30
0.0
 40
0.0049999999999972
 50
179.9999999946049059
 51
270.000000000019611
  0
LINE
  5
CCAF
  8
0
 10
1007.8564712987209759
 20
138.0258717546485059
 30
0.0
 11
1007.8564712987209759
 21
138.0163717546489863
 31
0.0
  0
LINE
  5
CCB0
  8
0
 10
1008.8164712987210123
 20
138.0258717546489891
 30
0.0
 11
1008.8164712987210123
 21
138.0163717546489863
 31
0.0
  0
ATTDEF
  5
CCBE
  8
DEFPOINTS
 10
1004.33748394623899
 20
140.4496793628557896
 30
0.0
 40
0.001
  1
K-944W-4
  3

  2
MODELNUMBER
 70
     0
1001
ACDBATTR
1070
     0
1070
     1
  0
ATTDEF
  5
CCBF
  8
DEFPOINTS
 10
1004.33748394623899
 20
140.4480126961892097
 30
0.0
 40
0.001
  1
STILLNESS
  3

  2
TRADENAME
 70
     0
1001
ACDBATTR
1070
     0
1070
     1
  0
ATTDEF
  5
CCC0
  8
DEFPOINTS
 10
1004.33748394623899
 20
140.4463460295224877
 30
0.0
 40
0.001
  1
BATHROOM SINK FAUCET
  3

  2
PRODUCT
 70
     0
1001
ACDBATTR
1070
     0
1070
     1
  0
ENDSEC
  0
EOF
