  0
SECTION
  2
HEADER
  9
$ACADVER
  1
AC1009
  9
$INSBASE
 10
4860.2133008934706595
 20
329.9977105909014199
 30
0.0
  9
$EXTMIN
 10
4836.2080578554368913
 20
329.9753370829500909
 30
-0.0000000000112498
  9
$EXTMAX
 10
4860.5224532728625491
 20
348.3241173067710861
 30
0.0000000000002956
  9
$LIMMIN
 10
0.0
 20
0.0
  9
$LIMMAX
 10
11.6929133858000007
 20
8.2677165353999982
  9
$ORTHOMODE
 70
     0
  9
$REGENMODE
 70
     1
  9
$FILLMODE
 70
     1
  9
$QTEXTMODE
 70
     0
  9
$MIRRTEXT
 70
     0
  9
$DRAGMODE
 70
     2
  9
$LTSCALE
 40
0.6431102362
  9
$OSMODE
 70
  4095
  9
$ATTMODE
 70
     1
  9
$TEXTSIZE
 40
0.2
  9
$TRACEWID
 40
0.05
  9
$TEXTSTYLE
  7
STANDARD
  9
$CLAYER
  8
0
  9
$CELTYPE
  6
BYLAYER
  9
$CECOLOR
 62
   256
  9
$DIMSCALE
 40
1.0
  9
$DIMASZ
 40
0.1875
  9
$DIMEXO
 40
0.0625
  9
$DIMDLI
 40
0.4443307087
  9
$DIMRND
 40
0.0
  9
$DIMDLE
 40
0.0
  9
$DIMEXE
 40
0.125
  9
$DIMTP
 40
0.01
  9
$DIMTM
 40
0.01
  9
$DIMTXT
 40
2.0
  9
$DIMCEN
 40
0.1052362205
  9
$DIMTSZ
 40
0.0
  9
$DIMTOL
 70
     1
  9
$DIMLIM
 70
     0
  9
$DIMTIH
 70
     1
  9
$DIMTOH
 70
     1
  9
$DIMSE1
 70
     0
  9
$DIMSE2
 70
     0
  9
$DIMTAD
 70
     0
  9
$DIMZIN
 70
     0
  9
$DIMBLK
  1

  9
$DIMASO
 70
     1
  9
$DIMSHO
 70
     1
  9
$DIMPOST
  1
\X
  9
$DIMAPOST
  1

  9
$DIMALT
 70
     1
  9
$DIMALTD
 70
     2
  9
$DIMALTF
 40
25.3999999999999986
  9
$DIMLFAC
 40
1.0
  9
$DIMTOFL
 70
     0
  9
$DIMTVP
 40
0.0
  9
$DIMTIX
 70
     0
  9
$DIMSOXD
 70
     0
  9
$DIMSAH
 70
     0
  9
$DIMBLK1
  1

  9
$DIMBLK2
  1

  9
$DIMSTYLE
  2
STANDARD
  9
$DIMCLRD
 70
     0
  9
$DIMCLRE
 70
     0
  9
$DIMCLRT
 70
     0
  9
$DIMTFAC
 40
1.0
  9
$DIMGAP
 40
0.09
  9
$LUNITS
 70
     2
  9
$LUPREC
 70
     4
  9
$SKETCHINC
 40
0.1
  9
$FILLETRAD
 40
0.0
  9
$AUNITS
 70
     0
  9
$AUPREC
 70
     0
  9
$MENU
  1
.
  9
$ELEVATION
 40
0.0
  9
$PELEVATION
 40
0.0
  9
$THICKNESS
 40
0.0
  9
$LIMCHECK
 70
     0
  9
$BLIPMODE
 70
     0
  9
$CHAMFERA
 40
0.0
  9
$CHAMFERB
 40
0.0
  9
$SKPOLY
 70
     0
  9
$TDCREATE
 40
2458060.468368056230247
  9
$TDUPDATE
 40
2459425.8509837961755693
  9
$TDINDWG
 40
0.5815579861
  9
$TDUSRTIMER
 40
0.5815579861
  9
$USRTIMER
 70
     1
  9
$ANGBASE
 50
0.0
  9
$ANGDIR
 70
     0
  9
$PDMODE
 70
     0
  9
$PDSIZE
 40
0.3125
  9
$PLINEWID
 40
0.0
  9
$COORDS
 70
     1
  9
$SPLFRAME
 70
     0
  9
$SPLINETYPE
 70
     6
  9
$SPLINESEGS
 70
     8
  9
$ATTDIA
 70
     1
  9
$ATTREQ
 70
     1
  9
$HANDLING
 70
     1
  9
$HANDSEED
  5
21EB9
  9
$SURFTAB1
 70
     6
  9
$SURFTAB2
 70
     6
  9
$SURFTYPE
 70
     6
  9
$SURFU
 70
     6
  9
$SURFV
 70
     6
  9
$UCSNAME
  2

  9
$UCSORG
 10
0.0
 20
0.0
 30
0.0
  9
$UCSXDIR
 10
1.0
 20
0.0
 30
0.0
  9
$UCSYDIR
 10
0.0
 20
1.0
 30
0.0
  9
$PUCSNAME
  2

  9
$PUCSORG
 10
0.0
 20
0.0
 30
0.0
  9
$PUCSXDIR
 10
1.0
 20
0.0
 30
0.0
  9
$PUCSYDIR
 10
0.0
 20
1.0
 30
0.0
  9
$USERI1
 70
     0
  9
$USERI2
 70
     0
  9
$USERI3
 70
     0
  9
$USERI4
 70
     0
  9
$USERI5
 70
     0
  9
$USERR1
 40
0.0
  9
$USERR2
 40
0.0
  9
$USERR3
 40
0.0
  9
$USERR4
 40
0.0
  9
$USERR5
 40
0.0
  9
$WORLDVIEW
 70
     1
  9
$SHADEDGE
 70
     3
  9
$SHADEDIF
 70
    70
  9
$TILEMODE
 70
     1
  9
$MAXACTVP
 70
    64
  9
$PLIMCHECK
 70
     0
  9
$PEXTMIN
 10
1.0000000000000000E+20
 20
1.0000000000000000E+20
 30
1.0000000000000000E+20
  9
$PEXTMAX
 10
-1.0000000000000000E+20
 20
-1.0000000000000000E+20
 30
-1.0000000000000000E+20
  9
$PLIMMIN
 10
0.0
 20
0.0
  9
$PLIMMAX
 10
12.0
 20
9.0
  9
$UNITMODE
 70
     0
  9
$VISRETAIN
 70
     1
  9
$PLINEGEN
 70
     0
  9
$PSLTSCALE
 70
     1
  0
ENDSEC
  0
SECTION
  2
TABLES
  0
TABLE
  2
VPORT
 70
     1
  0
VPORT
  2
*ACTIVE
 70
     0
 10
0.0
 20
0.0
 11
1.0
 21
1.0
 12
936.9998991188375612
 22
206.5701220923214976
 13
0.0
 23
0.0
 14
1.0
 24
1.0
 15
0.0
 25
0.0
 16
0.0
 26
0.0
 36
60.4960186965801583
 17
3911.3653564453120453
 27
132.5796051025390057
 37
0.0
 40
18.4942130921735917
 41
1.67063492063492
 42
50.0
 43
0.0
 44
0.0
 50
0.0
 51
0.0
 71
     0
 72
   100
 73
     1
 74
     1
 75
     0
 76
     0
 77
     0
 78
     0
  0
ENDTAB
  0
TABLE
  2
LTYPE
 70
     2
  0
LTYPE
  2
CONTINUOUS
 70
     0
  3
Solid line
 72
    65
 73
     0
 40
0.0
  0
LTYPE
  2
PHANTOM2
 70
     0
  3
___ _ _ ___ _ _ ___ _ _ ___ _ _
 72
    65
 73
     6
 40
1.25
 49
0.625
 49
-0.125
 49
0.125
 49
-0.125
 49
0.125
 49
-0.125
  0
ENDTAB
  0
TABLE
  2
LAYER
 70
     2
  0
LAYER
  2
0
 70
     0
 62
   255
  6
CONTINUOUS
  0
LAYER
  2
DEFPOINTS
 70
     0
 62
     7
  6
CONTINUOUS
  0
ENDTAB
  0
TABLE
  2
STYLE
 70
     1
  0
STYLE
  2
STANDARD
 70
     0
 40
0.0
 41
0.8
 50
0.0
 71
     0
 42
0.2
  3
txt
  4

  0
ENDTAB
  0
TABLE
  2
VIEW
 70
     0
  0
ENDTAB
  0
TABLE
  2
UCS
 70
     0
  0
ENDTAB
  0
TABLE
  2
APPID
 70
    11
  0
APPID
  2
ACAD
 70
     0
  0
APPID
  2
ACAD_MLEADERVER
 70
     0
  0
APPID
  2
ACAD_EXEMPT_FROM_CAD_STANDARDS
 70
     0
  0
APPID
  2
ACAD_NAV_VCDISPLAY
 70
     0
  0
APPID
  2
ACAECLAYERSTANDARD
 70
     0
  0
APPID
  2
ACCMTRANSPARENCY
 70
     0
  0
APPID
  2
ACAD_DSTYLE_DIMJAG
 70
     0
  0
APPID
  2
ACAD_DSTYLE_DIMTALN
 70
     0
  0
APPID
  2
ACDBATTR
 70
     0
  0
APPID
  2
ACADANNOTATIVE
 70
     0
  0
APPID
  2
DCO15
 70
     0
  0
ENDTAB
  0
TABLE
  2
DIMSTYLE
 70
     1
  0
DIMSTYLE
  2
STANDARD
 70
     0
  3

  4

  5

  6

  7

 40
1.0
 41
0.1875
 42
0.0625
 43
0.38
 44
0.125
 45
0.0
 46
0.0
 47
0.01
 48
0.01
140
0.15625
141
0.09
142
0.0
143
25.3999999999999986
144
1.0
145
0.0
146
1.0
147
0.09
 71
     1
 72
     0
 73
     1
 74
     1
 75
     0
 76
     0
 77
     0
 78
     4
170
     0
171
     2
172
     0
173
     0
174
     0
175
     0
176
     0
177
     0
178
     0
  0
ENDTAB
  0
ENDSEC
  0
SECTION
  2
BLOCKS
  0
BLOCK
  8
0
  2
$MODEL_SPACE
 70
     0
 10
0.0
 20
0.0
 30
0.0
  3
$MODEL_SPACE
  1

  0
ENDBLK
  5
21
  8
0
  0
BLOCK
 67
     1
  8
0
  2
$PAPER_SPACE
 70
     0
 10
0.0
 20
0.0
 30
0.0
  3
$PAPER_SPACE
  1

  0
ENDBLK
  5
1D
 67
     1
  8
0
  0
BLOCK
  8
0
  2
_FILLED
 70
     0
 10
0.0
 20
0.0
 30
0.0
  3
_FILLED
  1

  0
SOLID
  5
21C12
  8
0
  6
BYBLOCK
 62
     0
 10
0.0
 20
0.0
 30
0.0
 11
-1.0
 21
0.1666666667
 31
0.0
 12
-1.0
 22
-0.1666666667
 32
0.0
 13
-1.0
 23
-0.1666666667
 33
0.0
  0
ENDBLK
  5
21C13
  8
0
  6
BYBLOCK
 62
     0
  0
ENDSEC
  0
SECTION
  2
ENTITIES
  0
ATTDEF
  5
20106
  8
DEFPOINTS
 10
4860.2070495627613127
 20
329.9947341252055821
 30
0.0
 40
0.001
  1
K-95027K-S
  3

  2
MODELNUMBER
 70
     0
1001
ACDBATTR
1070
     0
1070
     1
  0
ATTDEF
  5
20107
  8
DEFPOINTS
 10
4860.2069237531040926
 20
329.9930672848263953
 30
0.0
 40
0.001
  1
ESCALE
  3

  2
TRADENAME
 70
     0
1001
ACDBATTR
1070
     0
1070
     1
  0
ATTDEF
  5
20108
  8
DEFPOINTS
 10
4860.2070495627613127
 20
329.9914007918723087
 30
0.0
 40
0.001
  1
TOILET
  3

  2
PRODUCT
 70
     0
1001
ACDBATTR
1070
     0
1070
     1
  0
LINE
  5
21D51
  8
0
 10
4846.0400725470717589
 20
329.9977105909014199
 30
0.0
 11
4860.2133008934706595
 21
329.9977105909014199
 31
0.0
  0
LINE
  5
21D52
  8
0
 10
4836.7071694631767969
 20
345.3520412996012965
 30
0.0
 11
4860.2133008934706595
 21
345.3520412996012965
 31
0.0
  0
ARC
  5
21D53
  8
0
 10
4853.0321464783510237
 20
345.3820412996013829
 30
0.0
 40
0.03
 50
180.2000502099542132
 51
270.0
  0
LINE
  5
21D54
  8
0
 10
4836.4875395657609261
 20
345.4701515358013921
 30
0.0
 11
4849.656202209894218
 21
345.4703032192402929
 31
0.0
  0
LINE
  5
21D55
  8
0
 10
4860.2133008934706595
 20
345.3520412996012965
 30
0.0
 11
4860.2133008934706595
 21
329.9977105909014199
 31
0.0
  0
LINE
  5
21D56
  8
0
 10
4836.4182192206717446
 20
345.5498824019975928
 30
0.0
 11
4836.5613293598808013
 21
346.5693645360025243
 31
0.0
  0
ARC
  5
21D57
  8
0
 10
4836.4995487306896393
 20
345.5505926547413083
 30
0.0
 40
0.0813326112860868
 50
180.5003528252921114
 51
261.5089465336496914
  0
LINE
  5
21D58
  8
0
 10
4836.6560680595757731
 20
344.1153086794104183
 30
0.0
 11
4836.5973202143532035
 21
345.2362843444157079
 31
0.0
  0
ARC
  5
21D59
  8
0
 10
4836.7165813301517119
 20
345.2331097713343979
 30
0.0
 40
0.1193033597846349
 50
94.5247777680628047
 51
178.4752222313798882
  0
ARC
  5
21D5A
  8
0
 10
4837.4425491346346462
 20
344.1565554936465787
 30
0.0
 40
0.7875619220798546
 50
183.0021132500118028
 51
203.7346654389585865
  0
ARC
  5
21D5B
  8
0
 10
4899.9039907104415761
 20
379.940294253907723
 30
0.0
 40
72.7686574022931296
 50
209.7424957085065955
 51
220.464903103504497
  0
ARC
  5
21D5C
  8
0
 10
4840.1568848811339194
 20
328.5243516840619122
 30
0.0
 40
6.0648729237311203
 50
14.0597243258133204
 51
43.703526957423108
  0
LINE
  5
21D5D
  8
0
 10
4854.5153078789262509
 20
345.8512493186303232
 30
0.0
 11
4854.2350686674626559
 21
348.1335716086123853
 31
0.0
  0
ARC
  5
21D5E
  8
0
 10
4844.930303543649643
 20
315.549856942903773
 30
0.0
 40
32.2446045930657093
 50
92.9334978117626918
 51
104.7875260446389944
  0
ARC
  5
21D5F
  8
0
 10
4836.7494845822620846
 20
346.5429521848984109
 30
0.0
 40
0.19
 50
104.9892485823804975
 51
172.0092993589173886
  0
ARC
  5
21D60
  8
0
 10
4860.8746910642421426
 20
108.2381491171188941
 30
0.0
 40
240.1594330957726129
 50
91.6305418547767374
 51
94.2013683804423465
  0
ARC
  5
21D61
  8
0
 10
4854.0464849513364243
 20
348.1104160042816034
 30
0.0
 40
0.19
 50
7.000130364854428
 51
91.6305418547767374
  0
ARC
  5
21D62
  8
0
 10
4849.6278754251570717
 20
373.6894339682457939
 30
0.0
 40
28.2191449664266791
 50
270.0575143395519717
 51
275.3991016385393777
  0
ARC
  5
21D63
  8
0
 10
4894.4427303909906186
 20
-244.0452329183532072
 30
0.0
 40
591.1460152393002545
 50
93.8813784192674916
 51
94.0897202502888206
  0
ARC
  5
21D64
  8
0
 10
4854.4210160208640445
 20
345.8396715164648754
 30
0.0
 40
0.095
 50
273.881378419267719
 51
7.000130364854428
  0
LINE
  5
21D65
  8
0
 10
4854.3497979402445708
 20
345.7396160738899198
 30
0.0
 11
4854.3561068516874002
 21
345.3825713110260835
 31
0.0
  0
ARC
  5
21D66
  8
0
 10
4854.3261115339219032
 20
345.3820412996013829
 30
0.0
 40
0.03
 50
270.0
 51
1.0122999229546199
  0
LINE
  5
21D67
  8
0
 10
4853.0012233010957061
 20
345.6463922752060967
 30
0.0
 11
4853.0021466612115546
 21
345.3819365537692079
 31
0.0
  0
ARC
  5
21D68
  8
0
 10
4838.9073736144819122
 20
345.9454443349678172
 30
0.0
 40
0.5940585859025707
 50
233.1374859809617135
 51
266.0824663660189913
  0
ARC
  5
21D69
  8
0
 10
4839.4103495511053552
 20
345.9523106628201958
 30
0.0
 40
0.6010868262702582
 50
274.1155230754508239
 51
306.6645211078638908
  0
ARC
  5
21D6A
  8
0
 10
4849.173542431871283
 20
346.0408511829012923
 30
0.0
 40
0.6100673482000025
 50
270.0
 51
290.6376000581831249
  0
ARC
  5
21D6B
  8
0
 10
4848.480399323576421
 20
346.0409225715335992
 30
0.0
 40
0.6101411144492457
 50
249.3630295664368077
 51
270.000427956489375
  0
LINE
  5
21D6C
  8
0
 10
4848.4804038808715632
 20
345.4307814571013751
 30
0.0
 11
4849.173542431871283
 21
345.4307838347014012
 31
0.0
  0
ARC
  5
21D6D
  8
0
 10
4836.7932321048356243
 20
1226.460002605794898
 30
0.0
 40
879.8951165818967866
 50
269.984858625039692
 51
270.045425305915785
  0
ARC
  5
21D6E
  8
0
 10
4837.7156668481802626
 20
354.4546693282530896
 30
0.0
 40
7.892709800106176
 50
268.3676252863336913
 51
274.4764270878973207
  0
ARC
  5
21D6F
  8
0
 10
4893.3320132530643605
 20
-676.7344563077890598
 30
0.0
 40
1024.7974756818130118
 50
92.2175216988677136
 51
93.0765117854725759
  0
ARC
  5
21D70
  8
0
 10
4853.6866928195186119
 20
348.5642499204491855
 30
0.0
 40
1.268692959789254
 50
269.6580703308558782
 51
299.8080880681338272
  0
ENDSEC
  0
EOF
